999
Outputted By AR_CAD Ver.1.6.0
  0
SECTION
  2
HEADER
  9
$ACADVER
  1
AC1014
  9
$DWGCODEPAGE
  3
ANSI_932
  9
$EXTMIN
 10
0
 20
0
  9
$EXTMAX
 10
594
 20
420
  9
$INSBASE
 10
0.0
 20
0.0
 30
0.0
  9
$HANDLING
 70
     1
  9
$HANDSEED
  5
6DE
  9
$LTSCALE
 40
1
  0
ENDSEC
  0
SECTION
  2
TABLES
  0
TABLE
  2
VPORT
  5
1
100
AcDbSymbolTable
 70
     1
  0
VPORT
  5
30
100
AcDbSymbolTableRecord
100
AcDbViewportTableRecord
  2
*ACTIVE
 70
     0
 10
0.0
 20
0.0
 11
1.0
 21
1.0
 12
210.0
 22
148.5
 13
0.0
 23
0.0
 14
10.0
 24
10.0
 15
10.0
 25
10.0
 16
0.0
 26
0.0
 36
1.0
 17
0.0
 27
0.0
 37
0.0
 40
302.94
 41
1.333333
 42
50.0
 43
0.0
 44
0.0
 50
0.0
 51
0.0
 71
     0
 72
   100
 73
     1
 74
     1
 75
     0
 76
     0
 77
     0
 78
     0
  0
ENDTAB
  0
TABLE
  2
LTYPE
  5
2
100
AcDbSymbolTable
 70
     28
  0
LTYPE
  5
31
100
AcDbSymbolTableRecord
100
AcDbLinetypeTableRecord
  2
BYBLOCK
 70
    64
 3

 72
    65
 73
    0
 40
    0
  0
LTYPE
  5
32
100
AcDbSymbolTableRecord
100
AcDbLinetypeTableRecord
  2
BYLAYER
 70
    64
 3

 72
    65
 73
    0
 40
    0
  0
LTYPE
  5
33
100
AcDbSymbolTableRecord
100
AcDbLinetypeTableRecord
  2
CONTINUOUS
 70
    64
 3
CONTINUOUS
 72
    65
 73
    0
 40
    0
  0
LTYPE
  5
34
100
AcDbSymbolTableRecord
100
AcDbLinetypeTableRecord
  2
DASHED
 70
    64
 3

 72
    65
 73
    2
 40
    3.5
 49
    2.91666666666667
 74
    0
 49
    -0.583333333333333
 74
    0
  0
LTYPE
  5
35
100
AcDbSymbolTableRecord
100
AcDbLinetypeTableRecord
  2
DOT
 70
    64
 3

 72
    65
 73
    2
 40
    0.5
 49
    0.25
 74
    0
 49
    -0.25
 74
    0
  0
LTYPE
  5
36
100
AcDbSymbolTableRecord
100
AcDbLinetypeTableRecord
  2
DASHDOT
 70
    64
 3

 72
    65
 73
    4
 40
    3.5
 49
    1.84210526315789
 74
    0
 49
    -0.552631578947368
 74
    0
 49
    0.552631578947368
 74
    0
 49
    -0.552631578947368
 74
    0
  0
LTYPE
  5
37
100
AcDbSymbolTableRecord
100
AcDbLinetypeTableRecord
  2
DIVIDE
 70
    64
 3

 72
    65
 73
    6
 40
    3.5
 49
    1.4
 74
    0
 49
    -0.42
 74
    0
 49
    0.42
 74
    0
 49
    -0.42
 74
    0
 49
    0.42
 74
    0
 49
    -0.42
 74
    0
  0
LTYPE
  5
38
100
AcDbSymbolTableRecord
100
AcDbLinetypeTableRecord
  2
HIDDEN
 70
    64
 3

 72
    65
 73
    2
 40
    9.525
 49
    6.35
 74
    0
 49
    -3.175
 74
    0
  0
LTYPE
  5
39
100
AcDbSymbolTableRecord
100
AcDbLinetypeTableRecord
  2
CENTERX2
 70
    64
 3

 72
    65
 73
    4
 40
    4
 49
    2.5
 74
    0
 49
    -0.5
 74
    0
 49
    0.5
 74
    0
 49
    -0.5
 74
    0
  0
LTYPE
  5
3A
100
AcDbSymbolTableRecord
100
AcDbLinetypeTableRecord
  2
CENTER
 70
    64
 3

 72
    65
 73
    4
 40
    50.8
 49
    31.75
 74
    0
 49
    -6.35
 74
    0
 49
    6.35
 74
    0
 49
    -6.35
 74
    0
  0
LTYPE
  5
3B
100
AcDbSymbolTableRecord
100
AcDbLinetypeTableRecord
  2
BORDER
 70
    64
 3

 72
    65
 73
    6
 40
    44.45
 49
    12.7
 74
    0
 49
    -6.35
 74
    0
 49
    12.7
 74
    0
 49
    -6.35
 74
    0
 49
    0
 74
    0
 49
    -6.35
 74
    0
  0
LTYPE
  5
3C
100
AcDbSymbolTableRecord
100
AcDbLinetypeTableRecord
  2
AM_ISO02W050
 70
    64
 3

 72
    65
 73
    2
 40
    7.5
 49
    6
 74
    0
 49
    -1.5
 74
    0
  0
LTYPE
  5
3D
100
AcDbSymbolTableRecord
100
AcDbLinetypeTableRecord
  2
AM_ISO08W050
 70
    64
 3

 72
    65
 73
    4
 40
    18
 49
    12
 74
    0
 49
    -1.5
 74
    0
 49
    3
 74
    0
 49
    -1.5
 74
    0
  0
LTYPE
  5
3E
100
AcDbSymbolTableRecord
100
AcDbLinetypeTableRecord
  2
AM_ISO09W050
 70
    64
 3

 72
    65
 73
    6
 40
    22.5
 49
    12
 74
    0
 49
    -1.5
 74
    0
 49
    3
 74
    0
 49
    -1.5
 74
    0
 49
    3
 74
    0
 49
    -1.5
 74
    0
  0
LTYPE
  5
3F
100
AcDbSymbolTableRecord
100
AcDbLinetypeTableRecord
  2
Amconstr
 70
    64
 3

 72
    65
 73
    1
 40
    9999
 49
    9999
 74
    0
  0
LTYPE
  5
40
100
AcDbSymbolTableRecord
100
AcDbLinetypeTableRecord
  2
AM_ISO08W050x2
 70
    64
 3

 72
    65
 73
    4
 40
    9
 49
    6
 74
    0
 49
    -0.75
 74
    0
 49
    1.5
 74
    0
 49
    -0.75
 74
    0
  0
LTYPE
  5
41
100
AcDbSymbolTableRecord
100
AcDbLinetypeTableRecord
  2
AM_ISO02W050x2
 70
    64
 3

 72
    65
 73
    2
 40
    3.75
 49
    3
 74
    0
 49
    -0.75
 74
    0
  0
LTYPE
  5
42
100
AcDbSymbolTableRecord
100
AcDbLinetypeTableRecord
  2
Amzigzag
 70
    64
 3

 72
    65
 73
    2
 40
    4
 49
    2
 74
    0
 49
    -2
 74
    0
  0
LTYPE
  5
43
100
AcDbSymbolTableRecord
100
AcDbLinetypeTableRecord
  2
PHANTOM2
 70
    64
 3

 72
    65
 73
    6
 40
    1.25
 49
    0.625
 74
    0
 49
    -0.125
 74
    0
 49
    0.125
 74
    0
 49
    -0.125
 74
    0
 49
    0.125
 74
    0
 49
    -0.125
 74
    0
  0
LTYPE
  5
44
100
AcDbSymbolTableRecord
100
AcDbLinetypeTableRecord
  2
CENTER2
 70
    64
 3

 72
    65
 73
    4
 40
    1.125
 49
    0.75
 74
    0
 49
    -0.125
 74
    0
 49
    0.125
 74
    0
 49
    -0.125
 74
    0
  0
LTYPE
  5
45
100
AcDbSymbolTableRecord
100
AcDbLinetypeTableRecord
  2
HIDDEN2
 70
    64
 3

 72
    65
 73
    2
 40
    0.188
 49
    0.125668449197861
 74
    0
 49
    -0.062331550802139
 74
    0
  0
LTYPE
  5
46
100
AcDbSymbolTableRecord
100
AcDbLinetypeTableRecord
  2
Amzigzag2
 70
    64
 3

 72
    65
 73
    2
 40
    4
 49
    2
 74
    0
 49
    -2
 74
    0
  0
LTYPE
  5
47
100
AcDbSymbolTableRecord
100
AcDbLinetypeTableRecord
  2
ACANSTGB
 70
    64
 3

 72
    65
 73
    6
 40
    0.354
 49
    0.157892045454545
 74
    0
 49
    -0.0392215909090909
 74
    0
 49
    0.0392215909090909
 74
    0
 49
    -0.0392215909090909
 74
    0
 49
    0.0392215909090909
 74
    0
 49
    -0.0392215909090909
 74
    0
  0
LTYPE
  5
48
100
AcDbSymbolTableRecord
100
AcDbLinetypeTableRecord
  2
ACANSTGL
 70
    64
 3

 72
    65
 73
    2
 40
    0.118
 49
    0.079
 74
    0
 49
    -0.039
 74
    0
  0
LTYPE
  5
49
100
AcDbSymbolTableRecord
100
AcDbLinetypeTableRecord
  2
BORDERX2
 70
    64
 3

 72
    65
 73
    6
 40
    3.5
 49
    1
 74
    0
 49
    -0.5
 74
    0
 49
    1
 74
    0
 49
    -0.5
 74
    0
 49
    0
 74
    0
 49
    -0.5
 74
    0
  0
LTYPE
  5
4A
100
AcDbSymbolTableRecord
100
AcDbLinetypeTableRecord
  2
BORDER2
 70
    64
 3

 72
    65
 73
    6
 40
    0.875
 49
    0.25
 74
    0
 49
    -0.125
 74
    0
 49
    0.25
 74
    0
 49
    -0.125
 74
    0
 49
    0
 74
    0
 49
    -0.125
 74
    0
  0
LTYPE
  5
4B
100
AcDbSymbolTableRecord
100
AcDbLinetypeTableRecord
  2
ACISOWELD
 70
    64
 3

 72
    65
 73
    2
 40
    2
 49
    1.33333333333333
 74
    0
 49
    -0.666666666666667
 74
    0
  0
LTYPE
  5
4C
100
AcDbSymbolTableRecord
100
AcDbLinetypeTableRecord
  2
ACISOTGB
 70
    64
 3

 72
    65
 73
    6
 40
    9
 49
    4
 74
    0
 49
    -1
 74
    0
 49
    1
 74
    0
 49
    -1
 74
    0
 49
    1
 74
    0
 49
    -1
 74
    0
  0
LTYPE
  5
4D
100
AcDbSymbolTableRecord
100
AcDbLinetypeTableRecord
  2
ACISOTGL
 70
    64
 3

 72
    65
 73
    2
 40
    3
 49
    2
 74
    0
 49
    -1
 74
    0
  0
ENDTAB
  0
TABLE
  2
LAYER
  5
3
100
AcDbSymbolTable
 70
   257
  0
LAYER
  5
4E
100
AcDbSymbolTableRecord
100
AcDbLayerTableRecord
  2
0
 70
    0
 62
7
  6
CONTINUOUS
  0
LAYER
  5
4F
100
AcDbSymbolTableRecord
100
AcDbLayerTableRecord
  2
DEFPOINTS
 70
    0
 62
7
  6
CONTINUOUS
  0
LAYER
  5
50
100
AcDbSymbolTableRecord
100
AcDbLayerTableRecord
  2
ASHADE
 70
    4
 62
7
  6
CONTINUOUS
  0
LAYER
  5
51
100
AcDbSymbolTableRecord
100
AcDbLayerTableRecord
  2
CEN
 70
    0
 62
72
  6
AM_ISO08W050
  0
LAYER
  5
52
100
AcDbSymbolTableRecord
100
AcDbLayerTableRecord
  2
DIM
 70
    0
 62
1
  6
CONTINUOUS
  0
LAYER
  5
53
100
AcDbSymbolTableRecord
100
AcDbLayerTableRecord
  2
HIDDEN
 70
    0
 62
3
  6
CONTINUOUS
  0
LAYER
  5
54
100
AcDbSymbolTableRecord
100
AcDbLayerTableRecord
  2
HATCH
 70
    0
 62
5
  6
CONTINUOUS
  0
LAYER
  5
55
100
AcDbSymbolTableRecord
100
AcDbLayerTableRecord
  2
TEXT
 70
    0
 62
250
  6
CONTINUOUS
  0
LAYER
  5
56
100
AcDbSymbolTableRecord
100
AcDbLayerTableRecord
  2
M
 70
    0
 62
6
  6
CONTINUOUS
  0
LAYER
  5
57
100
AcDbSymbolTableRecord
100
AcDbLayerTableRecord
  2
BREAK
 70
    0
 62
3
  6
AM_ISO09W050
  0
LAYER
  5
58
100
AcDbSymbolTableRecord
100
AcDbLayerTableRecord
  2
01
 70
    0
 62
3
  6
CONTINUOUS
  0
LAYER
  5
59
100
AcDbSymbolTableRecord
100
AcDbLayerTableRecord
  2
7475A
 70
    0
 62
1
  6
CONTINUOUS
  0
LAYER
  5
5A
100
AcDbSymbolTableRecord
100
AcDbLayerTableRecord
  2
BASE
 70
    0
 62
7
  6
CONTINUOUS
  0
LAYER
  5
5B
100
AcDbSymbolTableRecord
100
AcDbLayerTableRecord
  2
AME
 70
    0
 62
7
  6
CONTINUOUS
  0
LAYER
  5
5C
100
AcDbSymbolTableRecord
100
AcDbLayerTableRecord
  2
PV-230
 70
    0
 62
7
  6
CONTINUOUS
  0
LAYER
  5
5D
100
AcDbSymbolTableRecord
100
AcDbLayerTableRecord
  2
4
 70
    0
 62
4
  6
CONTINUOUS
  0
LAYER
  5
5E
100
AcDbSymbolTableRecord
100
AcDbLayerTableRecord
  2
ｸ_ｮy
 70
    0
 62
241
  6
CONTINUOUS
  0
LAYER
  5
5F
100
AcDbSymbolTableRecord
100
AcDbLayerTableRecord
  2
_Xｭｷ､f
 70
    0
 62
3
  6
CONTINUOUS
  0
LAYER
  5
60
100
AcDbSymbolTableRecord
100
AcDbLayerTableRecord
  2
ｾﾉｪO
 70
    0
 62
4
  6
CONTINUOUS
  0
LAYER
  5
61
100
AcDbSymbolTableRecord
100
AcDbLayerTableRecord
  2
_ｨｹFｩTｩwｬ_
 70
    0
 62
30
  6
CONTINUOUS
  0
LAYER
  5
62
100
AcDbSymbolTableRecord
100
AcDbLayerTableRecord
  2
__ｴﾟ
 70
    0
 62
7
  6
CONTINUOUS
  0
LAYER
  5
63
100
AcDbSymbolTableRecord
100
AcDbLayerTableRecord
  2
､Jｭｷ､f
 70
    0
 62
200
  6
CONTINUOUS
  0
LAYER
  5
64
100
AcDbSymbolTableRecord
100
AcDbLayerTableRecord
  2
ｭｱｪO
 70
    0
 62
2
  6
CONTINUOUS
  0
LAYER
  5
65
100
AcDbSymbolTableRecord
100
AcDbLayerTableRecord
  2
ｺ�
 70
    0
 62
41
  6
CONTINUOUS
  0
LAYER
  5
66
100
AcDbSymbolTableRecord
100
AcDbLayerTableRecord
  2
ｨ茹L
 70
    0
 62
41
  6
CONTINUOUS
  0
LAYER
  5
67
100
AcDbSymbolTableRecord
100
AcDbLayerTableRecord
  2
ｮﾘ
 70
    0
 62
5
  6
CONTINUOUS
  0
LAYER
  5
68
100
AcDbSymbolTableRecord
100
AcDbLayerTableRecord
  2
_ｨｹF
 70
    0
 62
9
  6
CONTINUOUS
  0
LAYER
  5
69
100
AcDbSymbolTableRecord
100
AcDbLayerTableRecord
  2
ｭｷｽ�
 70
    0
 62
221
  6
CONTINUOUS
  0
LAYER
  5
6A
100
AcDbSymbolTableRecord
100
AcDbLayerTableRecord
  2
ｫﾊｪO
 70
    0
 62
22
  6
CONTINUOUS
  0
LAYER
  5
6B
100
AcDbSymbolTableRecord
100
AcDbLayerTableRecord
  2
PV-25B
 70
    0
 62
7
  6
CONTINUOUS
  0
LAYER
  5
6C
100
AcDbSymbolTableRecord
100
AcDbLayerTableRecord
  2
画層30
 70
    0
 62
7
  6
CONTINUOUS
  0
LAYER
  5
6D
100
AcDbSymbolTableRecord
100
AcDbLayerTableRecord
  2
画層31
 70
    0
 62
7
  6
CONTINUOUS
  0
LAYER
  5
6E
100
AcDbSymbolTableRecord
100
AcDbLayerTableRecord
  2
画層32
 70
    0
 62
7
  6
CONTINUOUS
  0
LAYER
  5
6F
100
AcDbSymbolTableRecord
100
AcDbLayerTableRecord
  2
画層33
 70
    0
 62
7
  6
CONTINUOUS
  0
LAYER
  5
70
100
AcDbSymbolTableRecord
100
AcDbLayerTableRecord
  2
画層34
 70
    0
 62
7
  6
CONTINUOUS
  0
LAYER
  5
71
100
AcDbSymbolTableRecord
100
AcDbLayerTableRecord
  2
画層35
 70
    0
 62
7
  6
CONTINUOUS
  0
LAYER
  5
72
100
AcDbSymbolTableRecord
100
AcDbLayerTableRecord
  2
画層36
 70
    0
 62
7
  6
CONTINUOUS
  0
LAYER
  5
73
100
AcDbSymbolTableRecord
100
AcDbLayerTableRecord
  2
画層37
 70
    0
 62
7
  6
CONTINUOUS
  0
LAYER
  5
74
100
AcDbSymbolTableRecord
100
AcDbLayerTableRecord
  2
画層38
 70
    0
 62
7
  6
CONTINUOUS
  0
LAYER
  5
75
100
AcDbSymbolTableRecord
100
AcDbLayerTableRecord
  2
画層39
 70
    0
 62
7
  6
CONTINUOUS
  0
LAYER
  5
76
100
AcDbSymbolTableRecord
100
AcDbLayerTableRecord
  2
画層40
 70
    0
 62
7
  6
CONTINUOUS
  0
LAYER
  5
77
100
AcDbSymbolTableRecord
100
AcDbLayerTableRecord
  2
画層41
 70
    0
 62
7
  6
CONTINUOUS
  0
LAYER
  5
78
100
AcDbSymbolTableRecord
100
AcDbLayerTableRecord
  2
画層42
 70
    0
 62
7
  6
CONTINUOUS
  0
LAYER
  5
79
100
AcDbSymbolTableRecord
100
AcDbLayerTableRecord
  2
画層43
 70
    0
 62
7
  6
CONTINUOUS
  0
LAYER
  5
7A
100
AcDbSymbolTableRecord
100
AcDbLayerTableRecord
  2
画層44
 70
    0
 62
7
  6
CONTINUOUS
  0
LAYER
  5
7B
100
AcDbSymbolTableRecord
100
AcDbLayerTableRecord
  2
画層45
 70
    0
 62
7
  6
CONTINUOUS
  0
LAYER
  5
7C
100
AcDbSymbolTableRecord
100
AcDbLayerTableRecord
  2
画層46
 70
    0
 62
7
  6
CONTINUOUS
  0
LAYER
  5
7D
100
AcDbSymbolTableRecord
100
AcDbLayerTableRecord
  2
画層47
 70
    0
 62
7
  6
CONTINUOUS
  0
LAYER
  5
7E
100
AcDbSymbolTableRecord
100
AcDbLayerTableRecord
  2
画層48
 70
    0
 62
7
  6
CONTINUOUS
  0
LAYER
  5
7F
100
AcDbSymbolTableRecord
100
AcDbLayerTableRecord
  2
画層49
 70
    0
 62
7
  6
CONTINUOUS
  0
LAYER
  5
80
100
AcDbSymbolTableRecord
100
AcDbLayerTableRecord
  2
画層50
 70
    0
 62
7
  6
CONTINUOUS
  0
LAYER
  5
81
100
AcDbSymbolTableRecord
100
AcDbLayerTableRecord
  2
画層51
 70
    0
 62
7
  6
CONTINUOUS
  0
LAYER
  5
82
100
AcDbSymbolTableRecord
100
AcDbLayerTableRecord
  2
画層52
 70
    0
 62
7
  6
CONTINUOUS
  0
LAYER
  5
83
100
AcDbSymbolTableRecord
100
AcDbLayerTableRecord
  2
画層53
 70
    0
 62
7
  6
CONTINUOUS
  0
LAYER
  5
84
100
AcDbSymbolTableRecord
100
AcDbLayerTableRecord
  2
画層54
 70
    0
 62
7
  6
CONTINUOUS
  0
LAYER
  5
85
100
AcDbSymbolTableRecord
100
AcDbLayerTableRecord
  2
画層55
 70
    0
 62
7
  6
CONTINUOUS
  0
LAYER
  5
86
100
AcDbSymbolTableRecord
100
AcDbLayerTableRecord
  2
画層56
 70
    0
 62
7
  6
CONTINUOUS
  0
LAYER
  5
87
100
AcDbSymbolTableRecord
100
AcDbLayerTableRecord
  2
画層57
 70
    0
 62
7
  6
CONTINUOUS
  0
LAYER
  5
88
100
AcDbSymbolTableRecord
100
AcDbLayerTableRecord
  2
画層58
 70
    0
 62
7
  6
CONTINUOUS
  0
LAYER
  5
89
100
AcDbSymbolTableRecord
100
AcDbLayerTableRecord
  2
画層59
 70
    0
 62
7
  6
CONTINUOUS
  0
LAYER
  5
8A
100
AcDbSymbolTableRecord
100
AcDbLayerTableRecord
  2
画層60
 70
    0
 62
7
  6
CONTINUOUS
  0
LAYER
  5
8B
100
AcDbSymbolTableRecord
100
AcDbLayerTableRecord
  2
画層61
 70
    0
 62
7
  6
CONTINUOUS
  0
LAYER
  5
8C
100
AcDbSymbolTableRecord
100
AcDbLayerTableRecord
  2
画層62
 70
    0
 62
7
  6
CONTINUOUS
  0
LAYER
  5
8D
100
AcDbSymbolTableRecord
100
AcDbLayerTableRecord
  2
画層63
 70
    0
 62
7
  6
CONTINUOUS
  0
LAYER
  5
8E
100
AcDbSymbolTableRecord
100
AcDbLayerTableRecord
  2
画層64
 70
    0
 62
7
  6
CONTINUOUS
  0
LAYER
  5
8F
100
AcDbSymbolTableRecord
100
AcDbLayerTableRecord
  2
画層65
 70
    0
 62
7
  6
CONTINUOUS
  0
LAYER
  5
90
100
AcDbSymbolTableRecord
100
AcDbLayerTableRecord
  2
画層66
 70
    0
 62
7
  6
CONTINUOUS
  0
LAYER
  5
91
100
AcDbSymbolTableRecord
100
AcDbLayerTableRecord
  2
画層67
 70
    0
 62
7
  6
CONTINUOUS
  0
LAYER
  5
92
100
AcDbSymbolTableRecord
100
AcDbLayerTableRecord
  2
画層68
 70
    0
 62
7
  6
CONTINUOUS
  0
LAYER
  5
93
100
AcDbSymbolTableRecord
100
AcDbLayerTableRecord
  2
画層69
 70
    0
 62
7
  6
CONTINUOUS
  0
LAYER
  5
94
100
AcDbSymbolTableRecord
100
AcDbLayerTableRecord
  2
画層70
 70
    0
 62
7
  6
CONTINUOUS
  0
LAYER
  5
95
100
AcDbSymbolTableRecord
100
AcDbLayerTableRecord
  2
画層71
 70
    0
 62
7
  6
CONTINUOUS
  0
LAYER
  5
96
100
AcDbSymbolTableRecord
100
AcDbLayerTableRecord
  2
画層72
 70
    0
 62
7
  6
CONTINUOUS
  0
LAYER
  5
97
100
AcDbSymbolTableRecord
100
AcDbLayerTableRecord
  2
画層73
 70
    0
 62
7
  6
CONTINUOUS
  0
LAYER
  5
98
100
AcDbSymbolTableRecord
100
AcDbLayerTableRecord
  2
画層74
 70
    0
 62
7
  6
CONTINUOUS
  0
LAYER
  5
99
100
AcDbSymbolTableRecord
100
AcDbLayerTableRecord
  2
画層75
 70
    0
 62
7
  6
CONTINUOUS
  0
LAYER
  5
9A
100
AcDbSymbolTableRecord
100
AcDbLayerTableRecord
  2
画層76
 70
    0
 62
7
  6
CONTINUOUS
  0
LAYER
  5
9B
100
AcDbSymbolTableRecord
100
AcDbLayerTableRecord
  2
画層77
 70
    0
 62
7
  6
CONTINUOUS
  0
LAYER
  5
9C
100
AcDbSymbolTableRecord
100
AcDbLayerTableRecord
  2
画層78
 70
    0
 62
7
  6
CONTINUOUS
  0
LAYER
  5
9D
100
AcDbSymbolTableRecord
100
AcDbLayerTableRecord
  2
画層79
 70
    0
 62
7
  6
CONTINUOUS
  0
LAYER
  5
9E
100
AcDbSymbolTableRecord
100
AcDbLayerTableRecord
  2
画層80
 70
    0
 62
7
  6
CONTINUOUS
  0
LAYER
  5
9F
100
AcDbSymbolTableRecord
100
AcDbLayerTableRecord
  2
画層81
 70
    0
 62
7
  6
CONTINUOUS
  0
LAYER
  5
A0
100
AcDbSymbolTableRecord
100
AcDbLayerTableRecord
  2
画層82
 70
    0
 62
7
  6
CONTINUOUS
  0
LAYER
  5
A1
100
AcDbSymbolTableRecord
100
AcDbLayerTableRecord
  2
画層83
 70
    0
 62
7
  6
CONTINUOUS
  0
LAYER
  5
A2
100
AcDbSymbolTableRecord
100
AcDbLayerTableRecord
  2
画層84
 70
    0
 62
7
  6
CONTINUOUS
  0
LAYER
  5
A3
100
AcDbSymbolTableRecord
100
AcDbLayerTableRecord
  2
画層85
 70
    0
 62
7
  6
CONTINUOUS
  0
LAYER
  5
A4
100
AcDbSymbolTableRecord
100
AcDbLayerTableRecord
  2
画層86
 70
    0
 62
7
  6
CONTINUOUS
  0
LAYER
  5
A5
100
AcDbSymbolTableRecord
100
AcDbLayerTableRecord
  2
画層87
 70
    0
 62
7
  6
CONTINUOUS
  0
LAYER
  5
A6
100
AcDbSymbolTableRecord
100
AcDbLayerTableRecord
  2
画層88
 70
    0
 62
7
  6
CONTINUOUS
  0
LAYER
  5
A7
100
AcDbSymbolTableRecord
100
AcDbLayerTableRecord
  2
画層89
 70
    0
 62
7
  6
CONTINUOUS
  0
LAYER
  5
A8
100
AcDbSymbolTableRecord
100
AcDbLayerTableRecord
  2
画層90
 70
    0
 62
7
  6
CONTINUOUS
  0
LAYER
  5
A9
100
AcDbSymbolTableRecord
100
AcDbLayerTableRecord
  2
画層91
 70
    0
 62
7
  6
CONTINUOUS
  0
LAYER
  5
AA
100
AcDbSymbolTableRecord
100
AcDbLayerTableRecord
  2
画層92
 70
    0
 62
7
  6
CONTINUOUS
  0
LAYER
  5
AB
100
AcDbSymbolTableRecord
100
AcDbLayerTableRecord
  2
画層93
 70
    0
 62
7
  6
CONTINUOUS
  0
LAYER
  5
AC
100
AcDbSymbolTableRecord
100
AcDbLayerTableRecord
  2
画層94
 70
    0
 62
7
  6
CONTINUOUS
  0
LAYER
  5
AD
100
AcDbSymbolTableRecord
100
AcDbLayerTableRecord
  2
画層95
 70
    0
 62
7
  6
CONTINUOUS
  0
LAYER
  5
AE
100
AcDbSymbolTableRecord
100
AcDbLayerTableRecord
  2
画層96
 70
    0
 62
7
  6
CONTINUOUS
  0
LAYER
  5
AF
100
AcDbSymbolTableRecord
100
AcDbLayerTableRecord
  2
画層97
 70
    0
 62
7
  6
CONTINUOUS
  0
LAYER
  5
B0
100
AcDbSymbolTableRecord
100
AcDbLayerTableRecord
  2
画層98
 70
    0
 62
7
  6
CONTINUOUS
  0
LAYER
  5
B1
100
AcDbSymbolTableRecord
100
AcDbLayerTableRecord
  2
画層99
 70
    0
 62
7
  6
CONTINUOUS
  0
LAYER
  5
B2
100
AcDbSymbolTableRecord
100
AcDbLayerTableRecord
  2
画層100
 70
    0
 62
7
  6
CONTINUOUS
  0
LAYER
  5
B3
100
AcDbSymbolTableRecord
100
AcDbLayerTableRecord
  2
画層101
 70
    0
 62
7
  6
CONTINUOUS
  0
LAYER
  5
B4
100
AcDbSymbolTableRecord
100
AcDbLayerTableRecord
  2
画層102
 70
    0
 62
7
  6
CONTINUOUS
  0
LAYER
  5
B5
100
AcDbSymbolTableRecord
100
AcDbLayerTableRecord
  2
画層103
 70
    0
 62
7
  6
CONTINUOUS
  0
LAYER
  5
B6
100
AcDbSymbolTableRecord
100
AcDbLayerTableRecord
  2
画層104
 70
    0
 62
7
  6
CONTINUOUS
  0
LAYER
  5
B7
100
AcDbSymbolTableRecord
100
AcDbLayerTableRecord
  2
画層105
 70
    0
 62
7
  6
CONTINUOUS
  0
LAYER
  5
B8
100
AcDbSymbolTableRecord
100
AcDbLayerTableRecord
  2
画層106
 70
    0
 62
7
  6
CONTINUOUS
  0
LAYER
  5
B9
100
AcDbSymbolTableRecord
100
AcDbLayerTableRecord
  2
画層107
 70
    0
 62
7
  6
CONTINUOUS
  0
LAYER
  5
BA
100
AcDbSymbolTableRecord
100
AcDbLayerTableRecord
  2
画層108
 70
    0
 62
7
  6
CONTINUOUS
  0
LAYER
  5
BB
100
AcDbSymbolTableRecord
100
AcDbLayerTableRecord
  2
画層109
 70
    0
 62
7
  6
CONTINUOUS
  0
LAYER
  5
BC
100
AcDbSymbolTableRecord
100
AcDbLayerTableRecord
  2
画層110
 70
    0
 62
7
  6
CONTINUOUS
  0
LAYER
  5
BD
100
AcDbSymbolTableRecord
100
AcDbLayerTableRecord
  2
画層111
 70
    0
 62
7
  6
CONTINUOUS
  0
LAYER
  5
BE
100
AcDbSymbolTableRecord
100
AcDbLayerTableRecord
  2
画層112
 70
    0
 62
7
  6
CONTINUOUS
  0
LAYER
  5
BF
100
AcDbSymbolTableRecord
100
AcDbLayerTableRecord
  2
画層113
 70
    0
 62
7
  6
CONTINUOUS
  0
LAYER
  5
C0
100
AcDbSymbolTableRecord
100
AcDbLayerTableRecord
  2
画層114
 70
    0
 62
7
  6
CONTINUOUS
  0
LAYER
  5
C1
100
AcDbSymbolTableRecord
100
AcDbLayerTableRecord
  2
画層115
 70
    0
 62
7
  6
CONTINUOUS
  0
LAYER
  5
C2
100
AcDbSymbolTableRecord
100
AcDbLayerTableRecord
  2
画層116
 70
    0
 62
7
  6
CONTINUOUS
  0
LAYER
  5
C3
100
AcDbSymbolTableRecord
100
AcDbLayerTableRecord
  2
画層117
 70
    0
 62
7
  6
CONTINUOUS
  0
LAYER
  5
C4
100
AcDbSymbolTableRecord
100
AcDbLayerTableRecord
  2
画層118
 70
    0
 62
7
  6
CONTINUOUS
  0
LAYER
  5
C5
100
AcDbSymbolTableRecord
100
AcDbLayerTableRecord
  2
画層119
 70
    0
 62
7
  6
CONTINUOUS
  0
LAYER
  5
C6
100
AcDbSymbolTableRecord
100
AcDbLayerTableRecord
  2
画層120
 70
    0
 62
7
  6
CONTINUOUS
  0
LAYER
  5
C7
100
AcDbSymbolTableRecord
100
AcDbLayerTableRecord
  2
画層121
 70
    0
 62
7
  6
CONTINUOUS
  0
LAYER
  5
C8
100
AcDbSymbolTableRecord
100
AcDbLayerTableRecord
  2
画層122
 70
    0
 62
7
  6
CONTINUOUS
  0
LAYER
  5
C9
100
AcDbSymbolTableRecord
100
AcDbLayerTableRecord
  2
画層123
 70
    0
 62
7
  6
CONTINUOUS
  0
LAYER
  5
CA
100
AcDbSymbolTableRecord
100
AcDbLayerTableRecord
  2
画層124
 70
    0
 62
7
  6
CONTINUOUS
  0
LAYER
  5
CB
100
AcDbSymbolTableRecord
100
AcDbLayerTableRecord
  2
画層125
 70
    0
 62
7
  6
CONTINUOUS
  0
LAYER
  5
CC
100
AcDbSymbolTableRecord
100
AcDbLayerTableRecord
  2
画層126
 70
    0
 62
7
  6
CONTINUOUS
  0
LAYER
  5
CD
100
AcDbSymbolTableRecord
100
AcDbLayerTableRecord
  2
画層127
 70
    0
 62
7
  6
CONTINUOUS
  0
LAYER
  5
CE
100
AcDbSymbolTableRecord
100
AcDbLayerTableRecord
  2
画層128
 70
    0
 62
7
  6
CONTINUOUS
  0
LAYER
  5
CF
100
AcDbSymbolTableRecord
100
AcDbLayerTableRecord
  2
画層129
 70
    0
 62
7
  6
CONTINUOUS
  0
LAYER
  5
D0
100
AcDbSymbolTableRecord
100
AcDbLayerTableRecord
  2
画層130
 70
    0
 62
7
  6
CONTINUOUS
  0
LAYER
  5
D1
100
AcDbSymbolTableRecord
100
AcDbLayerTableRecord
  2
画層131
 70
    0
 62
7
  6
CONTINUOUS
  0
LAYER
  5
D2
100
AcDbSymbolTableRecord
100
AcDbLayerTableRecord
  2
画層132
 70
    0
 62
7
  6
CONTINUOUS
  0
LAYER
  5
D3
100
AcDbSymbolTableRecord
100
AcDbLayerTableRecord
  2
画層133
 70
    0
 62
7
  6
CONTINUOUS
  0
LAYER
  5
D4
100
AcDbSymbolTableRecord
100
AcDbLayerTableRecord
  2
画層134
 70
    0
 62
7
  6
CONTINUOUS
  0
LAYER
  5
D5
100
AcDbSymbolTableRecord
100
AcDbLayerTableRecord
  2
画層135
 70
    0
 62
7
  6
CONTINUOUS
  0
LAYER
  5
D6
100
AcDbSymbolTableRecord
100
AcDbLayerTableRecord
  2
画層136
 70
    0
 62
7
  6
CONTINUOUS
  0
LAYER
  5
D7
100
AcDbSymbolTableRecord
100
AcDbLayerTableRecord
  2
画層137
 70
    0
 62
7
  6
CONTINUOUS
  0
LAYER
  5
D8
100
AcDbSymbolTableRecord
100
AcDbLayerTableRecord
  2
画層138
 70
    0
 62
7
  6
CONTINUOUS
  0
LAYER
  5
D9
100
AcDbSymbolTableRecord
100
AcDbLayerTableRecord
  2
画層139
 70
    0
 62
7
  6
CONTINUOUS
  0
LAYER
  5
DA
100
AcDbSymbolTableRecord
100
AcDbLayerTableRecord
  2
画層140
 70
    0
 62
7
  6
CONTINUOUS
  0
LAYER
  5
DB
100
AcDbSymbolTableRecord
100
AcDbLayerTableRecord
  2
画層141
 70
    0
 62
7
  6
CONTINUOUS
  0
LAYER
  5
DC
100
AcDbSymbolTableRecord
100
AcDbLayerTableRecord
  2
画層142
 70
    0
 62
7
  6
CONTINUOUS
  0
LAYER
  5
DD
100
AcDbSymbolTableRecord
100
AcDbLayerTableRecord
  2
画層143
 70
    0
 62
7
  6
CONTINUOUS
  0
LAYER
  5
DE
100
AcDbSymbolTableRecord
100
AcDbLayerTableRecord
  2
画層144
 70
    0
 62
7
  6
CONTINUOUS
  0
LAYER
  5
DF
100
AcDbSymbolTableRecord
100
AcDbLayerTableRecord
  2
画層145
 70
    0
 62
7
  6
CONTINUOUS
  0
LAYER
  5
E0
100
AcDbSymbolTableRecord
100
AcDbLayerTableRecord
  2
画層146
 70
    0
 62
7
  6
CONTINUOUS
  0
LAYER
  5
E1
100
AcDbSymbolTableRecord
100
AcDbLayerTableRecord
  2
画層147
 70
    0
 62
7
  6
CONTINUOUS
  0
LAYER
  5
E2
100
AcDbSymbolTableRecord
100
AcDbLayerTableRecord
  2
画層148
 70
    0
 62
7
  6
CONTINUOUS
  0
LAYER
  5
E3
100
AcDbSymbolTableRecord
100
AcDbLayerTableRecord
  2
画層149
 70
    0
 62
7
  6
CONTINUOUS
  0
LAYER
  5
E4
100
AcDbSymbolTableRecord
100
AcDbLayerTableRecord
  2
画層150
 70
    0
 62
7
  6
CONTINUOUS
  0
LAYER
  5
E5
100
AcDbSymbolTableRecord
100
AcDbLayerTableRecord
  2
画層151
 70
    0
 62
7
  6
CONTINUOUS
  0
LAYER
  5
E6
100
AcDbSymbolTableRecord
100
AcDbLayerTableRecord
  2
画層152
 70
    0
 62
7
  6
CONTINUOUS
  0
LAYER
  5
E7
100
AcDbSymbolTableRecord
100
AcDbLayerTableRecord
  2
画層153
 70
    0
 62
7
  6
CONTINUOUS
  0
LAYER
  5
E8
100
AcDbSymbolTableRecord
100
AcDbLayerTableRecord
  2
画層154
 70
    0
 62
7
  6
CONTINUOUS
  0
LAYER
  5
E9
100
AcDbSymbolTableRecord
100
AcDbLayerTableRecord
  2
画層155
 70
    0
 62
7
  6
CONTINUOUS
  0
LAYER
  5
EA
100
AcDbSymbolTableRecord
100
AcDbLayerTableRecord
  2
画層156
 70
    0
 62
7
  6
CONTINUOUS
  0
LAYER
  5
EB
100
AcDbSymbolTableRecord
100
AcDbLayerTableRecord
  2
画層157
 70
    0
 62
7
  6
CONTINUOUS
  0
LAYER
  5
EC
100
AcDbSymbolTableRecord
100
AcDbLayerTableRecord
  2
画層158
 70
    0
 62
7
  6
CONTINUOUS
  0
LAYER
  5
ED
100
AcDbSymbolTableRecord
100
AcDbLayerTableRecord
  2
画層159
 70
    0
 62
7
  6
CONTINUOUS
  0
LAYER
  5
EE
100
AcDbSymbolTableRecord
100
AcDbLayerTableRecord
  2
画層160
 70
    0
 62
7
  6
CONTINUOUS
  0
LAYER
  5
EF
100
AcDbSymbolTableRecord
100
AcDbLayerTableRecord
  2
画層161
 70
    0
 62
7
  6
CONTINUOUS
  0
LAYER
  5
F0
100
AcDbSymbolTableRecord
100
AcDbLayerTableRecord
  2
画層162
 70
    0
 62
7
  6
CONTINUOUS
  0
LAYER
  5
F1
100
AcDbSymbolTableRecord
100
AcDbLayerTableRecord
  2
画層163
 70
    0
 62
7
  6
CONTINUOUS
  0
LAYER
  5
F2
100
AcDbSymbolTableRecord
100
AcDbLayerTableRecord
  2
画層164
 70
    0
 62
7
  6
CONTINUOUS
  0
LAYER
  5
F3
100
AcDbSymbolTableRecord
100
AcDbLayerTableRecord
  2
画層165
 70
    0
 62
7
  6
CONTINUOUS
  0
LAYER
  5
F4
100
AcDbSymbolTableRecord
100
AcDbLayerTableRecord
  2
画層166
 70
    0
 62
7
  6
CONTINUOUS
  0
LAYER
  5
F5
100
AcDbSymbolTableRecord
100
AcDbLayerTableRecord
  2
画層167
 70
    0
 62
7
  6
CONTINUOUS
  0
LAYER
  5
F6
100
AcDbSymbolTableRecord
100
AcDbLayerTableRecord
  2
画層168
 70
    0
 62
7
  6
CONTINUOUS
  0
LAYER
  5
F7
100
AcDbSymbolTableRecord
100
AcDbLayerTableRecord
  2
画層169
 70
    0
 62
7
  6
CONTINUOUS
  0
LAYER
  5
F8
100
AcDbSymbolTableRecord
100
AcDbLayerTableRecord
  2
画層170
 70
    0
 62
7
  6
CONTINUOUS
  0
LAYER
  5
F9
100
AcDbSymbolTableRecord
100
AcDbLayerTableRecord
  2
画層171
 70
    0
 62
7
  6
CONTINUOUS
  0
LAYER
  5
FA
100
AcDbSymbolTableRecord
100
AcDbLayerTableRecord
  2
画層172
 70
    0
 62
7
  6
CONTINUOUS
  0
LAYER
  5
FB
100
AcDbSymbolTableRecord
100
AcDbLayerTableRecord
  2
画層173
 70
    0
 62
7
  6
CONTINUOUS
  0
LAYER
  5
FC
100
AcDbSymbolTableRecord
100
AcDbLayerTableRecord
  2
画層174
 70
    0
 62
7
  6
CONTINUOUS
  0
LAYER
  5
FD
100
AcDbSymbolTableRecord
100
AcDbLayerTableRecord
  2
画層175
 70
    0
 62
7
  6
CONTINUOUS
  0
LAYER
  5
FE
100
AcDbSymbolTableRecord
100
AcDbLayerTableRecord
  2
画層176
 70
    0
 62
7
  6
CONTINUOUS
  0
LAYER
  5
FF
100
AcDbSymbolTableRecord
100
AcDbLayerTableRecord
  2
画層177
 70
    0
 62
7
  6
CONTINUOUS
  0
LAYER
  5
100
100
AcDbSymbolTableRecord
100
AcDbLayerTableRecord
  2
画層178
 70
    0
 62
7
  6
CONTINUOUS
  0
LAYER
  5
101
100
AcDbSymbolTableRecord
100
AcDbLayerTableRecord
  2
画層179
 70
    0
 62
7
  6
CONTINUOUS
  0
LAYER
  5
102
100
AcDbSymbolTableRecord
100
AcDbLayerTableRecord
  2
画層180
 70
    0
 62
7
  6
CONTINUOUS
  0
LAYER
  5
103
100
AcDbSymbolTableRecord
100
AcDbLayerTableRecord
  2
画層181
 70
    0
 62
7
  6
CONTINUOUS
  0
LAYER
  5
104
100
AcDbSymbolTableRecord
100
AcDbLayerTableRecord
  2
画層182
 70
    0
 62
7
  6
CONTINUOUS
  0
LAYER
  5
105
100
AcDbSymbolTableRecord
100
AcDbLayerTableRecord
  2
画層183
 70
    0
 62
7
  6
CONTINUOUS
  0
LAYER
  5
106
100
AcDbSymbolTableRecord
100
AcDbLayerTableRecord
  2
画層184
 70
    0
 62
7
  6
CONTINUOUS
  0
LAYER
  5
107
100
AcDbSymbolTableRecord
100
AcDbLayerTableRecord
  2
画層185
 70
    0
 62
7
  6
CONTINUOUS
  0
LAYER
  5
108
100
AcDbSymbolTableRecord
100
AcDbLayerTableRecord
  2
画層186
 70
    0
 62
7
  6
CONTINUOUS
  0
LAYER
  5
109
100
AcDbSymbolTableRecord
100
AcDbLayerTableRecord
  2
画層187
 70
    0
 62
7
  6
CONTINUOUS
  0
LAYER
  5
10A
100
AcDbSymbolTableRecord
100
AcDbLayerTableRecord
  2
画層188
 70
    0
 62
7
  6
CONTINUOUS
  0
LAYER
  5
10B
100
AcDbSymbolTableRecord
100
AcDbLayerTableRecord
  2
画層189
 70
    0
 62
7
  6
CONTINUOUS
  0
LAYER
  5
10C
100
AcDbSymbolTableRecord
100
AcDbLayerTableRecord
  2
画層190
 70
    0
 62
7
  6
CONTINUOUS
  0
LAYER
  5
10D
100
AcDbSymbolTableRecord
100
AcDbLayerTableRecord
  2
画層191
 70
    0
 62
7
  6
CONTINUOUS
  0
LAYER
  5
10E
100
AcDbSymbolTableRecord
100
AcDbLayerTableRecord
  2
画層192
 70
    0
 62
7
  6
CONTINUOUS
  0
LAYER
  5
10F
100
AcDbSymbolTableRecord
100
AcDbLayerTableRecord
  2
画層193
 70
    0
 62
7
  6
CONTINUOUS
  0
LAYER
  5
110
100
AcDbSymbolTableRecord
100
AcDbLayerTableRecord
  2
画層194
 70
    0
 62
7
  6
CONTINUOUS
  0
LAYER
  5
111
100
AcDbSymbolTableRecord
100
AcDbLayerTableRecord
  2
画層195
 70
    0
 62
7
  6
CONTINUOUS
  0
LAYER
  5
112
100
AcDbSymbolTableRecord
100
AcDbLayerTableRecord
  2
画層196
 70
    0
 62
7
  6
CONTINUOUS
  0
LAYER
  5
113
100
AcDbSymbolTableRecord
100
AcDbLayerTableRecord
  2
画層197
 70
    0
 62
7
  6
CONTINUOUS
  0
LAYER
  5
114
100
AcDbSymbolTableRecord
100
AcDbLayerTableRecord
  2
画層198
 70
    0
 62
7
  6
CONTINUOUS
  0
LAYER
  5
115
100
AcDbSymbolTableRecord
100
AcDbLayerTableRecord
  2
画層199
 70
    0
 62
7
  6
CONTINUOUS
  0
LAYER
  5
116
100
AcDbSymbolTableRecord
100
AcDbLayerTableRecord
  2
画層200
 70
    0
 62
7
  6
CONTINUOUS
  0
LAYER
  5
117
100
AcDbSymbolTableRecord
100
AcDbLayerTableRecord
  2
画層201
 70
    0
 62
7
  6
CONTINUOUS
  0
LAYER
  5
118
100
AcDbSymbolTableRecord
100
AcDbLayerTableRecord
  2
画層202
 70
    0
 62
7
  6
CONTINUOUS
  0
LAYER
  5
119
100
AcDbSymbolTableRecord
100
AcDbLayerTableRecord
  2
画層203
 70
    0
 62
7
  6
CONTINUOUS
  0
LAYER
  5
11A
100
AcDbSymbolTableRecord
100
AcDbLayerTableRecord
  2
画層204
 70
    0
 62
7
  6
CONTINUOUS
  0
LAYER
  5
11B
100
AcDbSymbolTableRecord
100
AcDbLayerTableRecord
  2
画層205
 70
    0
 62
7
  6
CONTINUOUS
  0
LAYER
  5
11C
100
AcDbSymbolTableRecord
100
AcDbLayerTableRecord
  2
画層206
 70
    0
 62
7
  6
CONTINUOUS
  0
LAYER
  5
11D
100
AcDbSymbolTableRecord
100
AcDbLayerTableRecord
  2
画層207
 70
    0
 62
7
  6
CONTINUOUS
  0
LAYER
  5
11E
100
AcDbSymbolTableRecord
100
AcDbLayerTableRecord
  2
画層208
 70
    0
 62
7
  6
CONTINUOUS
  0
LAYER
  5
11F
100
AcDbSymbolTableRecord
100
AcDbLayerTableRecord
  2
画層209
 70
    0
 62
7
  6
CONTINUOUS
  0
LAYER
  5
120
100
AcDbSymbolTableRecord
100
AcDbLayerTableRecord
  2
画層210
 70
    0
 62
7
  6
CONTINUOUS
  0
LAYER
  5
121
100
AcDbSymbolTableRecord
100
AcDbLayerTableRecord
  2
画層211
 70
    0
 62
7
  6
CONTINUOUS
  0
LAYER
  5
122
100
AcDbSymbolTableRecord
100
AcDbLayerTableRecord
  2
画層212
 70
    0
 62
7
  6
CONTINUOUS
  0
LAYER
  5
123
100
AcDbSymbolTableRecord
100
AcDbLayerTableRecord
  2
画層213
 70
    0
 62
7
  6
CONTINUOUS
  0
LAYER
  5
124
100
AcDbSymbolTableRecord
100
AcDbLayerTableRecord
  2
画層214
 70
    0
 62
7
  6
CONTINUOUS
  0
LAYER
  5
125
100
AcDbSymbolTableRecord
100
AcDbLayerTableRecord
  2
画層215
 70
    0
 62
7
  6
CONTINUOUS
  0
LAYER
  5
126
100
AcDbSymbolTableRecord
100
AcDbLayerTableRecord
  2
画層216
 70
    0
 62
7
  6
CONTINUOUS
  0
LAYER
  5
127
100
AcDbSymbolTableRecord
100
AcDbLayerTableRecord
  2
画層217
 70
    0
 62
7
  6
CONTINUOUS
  0
LAYER
  5
128
100
AcDbSymbolTableRecord
100
AcDbLayerTableRecord
  2
画層218
 70
    0
 62
7
  6
CONTINUOUS
  0
LAYER
  5
129
100
AcDbSymbolTableRecord
100
AcDbLayerTableRecord
  2
画層219
 70
    0
 62
7
  6
CONTINUOUS
  0
LAYER
  5
12A
100
AcDbSymbolTableRecord
100
AcDbLayerTableRecord
  2
画層220
 70
    0
 62
7
  6
CONTINUOUS
  0
LAYER
  5
12B
100
AcDbSymbolTableRecord
100
AcDbLayerTableRecord
  2
画層221
 70
    0
 62
7
  6
CONTINUOUS
  0
LAYER
  5
12C
100
AcDbSymbolTableRecord
100
AcDbLayerTableRecord
  2
画層222
 70
    0
 62
7
  6
CONTINUOUS
  0
LAYER
  5
12D
100
AcDbSymbolTableRecord
100
AcDbLayerTableRecord
  2
画層223
 70
    0
 62
7
  6
CONTINUOUS
  0
LAYER
  5
12E
100
AcDbSymbolTableRecord
100
AcDbLayerTableRecord
  2
画層224
 70
    0
 62
7
  6
CONTINUOUS
  0
LAYER
  5
12F
100
AcDbSymbolTableRecord
100
AcDbLayerTableRecord
  2
画層225
 70
    0
 62
7
  6
CONTINUOUS
  0
LAYER
  5
130
100
AcDbSymbolTableRecord
100
AcDbLayerTableRecord
  2
画層226
 70
    0
 62
7
  6
CONTINUOUS
  0
LAYER
  5
131
100
AcDbSymbolTableRecord
100
AcDbLayerTableRecord
  2
画層227
 70
    0
 62
7
  6
CONTINUOUS
  0
LAYER
  5
132
100
AcDbSymbolTableRecord
100
AcDbLayerTableRecord
  2
画層228
 70
    0
 62
7
  6
CONTINUOUS
  0
LAYER
  5
133
100
AcDbSymbolTableRecord
100
AcDbLayerTableRecord
  2
画層229
 70
    0
 62
7
  6
CONTINUOUS
  0
LAYER
  5
134
100
AcDbSymbolTableRecord
100
AcDbLayerTableRecord
  2
画層230
 70
    0
 62
7
  6
CONTINUOUS
  0
LAYER
  5
135
100
AcDbSymbolTableRecord
100
AcDbLayerTableRecord
  2
画層231
 70
    0
 62
7
  6
CONTINUOUS
  0
LAYER
  5
136
100
AcDbSymbolTableRecord
100
AcDbLayerTableRecord
  2
画層232
 70
    0
 62
7
  6
CONTINUOUS
  0
LAYER
  5
137
100
AcDbSymbolTableRecord
100
AcDbLayerTableRecord
  2
画層233
 70
    0
 62
7
  6
CONTINUOUS
  0
LAYER
  5
138
100
AcDbSymbolTableRecord
100
AcDbLayerTableRecord
  2
画層234
 70
    0
 62
7
  6
CONTINUOUS
  0
LAYER
  5
139
100
AcDbSymbolTableRecord
100
AcDbLayerTableRecord
  2
画層235
 70
    0
 62
7
  6
CONTINUOUS
  0
LAYER
  5
13A
100
AcDbSymbolTableRecord
100
AcDbLayerTableRecord
  2
画層236
 70
    0
 62
7
  6
CONTINUOUS
  0
LAYER
  5
13B
100
AcDbSymbolTableRecord
100
AcDbLayerTableRecord
  2
画層237
 70
    0
 62
7
  6
CONTINUOUS
  0
LAYER
  5
13C
100
AcDbSymbolTableRecord
100
AcDbLayerTableRecord
  2
画層238
 70
    0
 62
7
  6
CONTINUOUS
  0
LAYER
  5
13D
100
AcDbSymbolTableRecord
100
AcDbLayerTableRecord
  2
画層239
 70
    0
 62
7
  6
CONTINUOUS
  0
LAYER
  5
13E
100
AcDbSymbolTableRecord
100
AcDbLayerTableRecord
  2
画層240
 70
    0
 62
7
  6
CONTINUOUS
  0
LAYER
  5
13F
100
AcDbSymbolTableRecord
100
AcDbLayerTableRecord
  2
画層241
 70
    0
 62
7
  6
CONTINUOUS
  0
LAYER
  5
140
100
AcDbSymbolTableRecord
100
AcDbLayerTableRecord
  2
画層242
 70
    0
 62
7
  6
CONTINUOUS
  0
LAYER
  5
141
100
AcDbSymbolTableRecord
100
AcDbLayerTableRecord
  2
画層243
 70
    0
 62
7
  6
CONTINUOUS
  0
LAYER
  5
142
100
AcDbSymbolTableRecord
100
AcDbLayerTableRecord
  2
画層244
 70
    0
 62
7
  6
CONTINUOUS
  0
LAYER
  5
143
100
AcDbSymbolTableRecord
100
AcDbLayerTableRecord
  2
画層245
 70
    0
 62
7
  6
CONTINUOUS
  0
LAYER
  5
144
100
AcDbSymbolTableRecord
100
AcDbLayerTableRecord
  2
画層246
 70
    0
 62
7
  6
CONTINUOUS
  0
LAYER
  5
145
100
AcDbSymbolTableRecord
100
AcDbLayerTableRecord
  2
画層247
 70
    0
 62
7
  6
CONTINUOUS
  0
LAYER
  5
146
100
AcDbSymbolTableRecord
100
AcDbLayerTableRecord
  2
画層248
 70
    0
 62
7
  6
CONTINUOUS
  0
LAYER
  5
147
100
AcDbSymbolTableRecord
100
AcDbLayerTableRecord
  2
画層249
 70
    0
 62
7
  6
CONTINUOUS
  0
LAYER
  5
148
100
AcDbSymbolTableRecord
100
AcDbLayerTableRecord
  2
画層250
 70
    0
 62
7
  6
CONTINUOUS
  0
LAYER
  5
149
100
AcDbSymbolTableRecord
100
AcDbLayerTableRecord
  2
画層251
 70
    0
 62
7
  6
CONTINUOUS
  0
LAYER
  5
14A
100
AcDbSymbolTableRecord
100
AcDbLayerTableRecord
  2
画層252
 70
    0
 62
7
  6
CONTINUOUS
  0
LAYER
  5
14B
100
AcDbSymbolTableRecord
100
AcDbLayerTableRecord
  2
画層253
 70
    0
 62
7
  6
CONTINUOUS
  0
LAYER
  5
14C
100
AcDbSymbolTableRecord
100
AcDbLayerTableRecord
  2
画層254
 70
    0
 62
7
  6
CONTINUOUS
  0
LAYER
  5
14D
100
AcDbSymbolTableRecord
100
AcDbLayerTableRecord
  2
画層255
 70
    0
 62
7
  6
CONTINUOUS
  0
ENDTAB
  0
TABLE
  2
STYLE
  5
4
100
AcDbSymbolTable
 70
     1
  0
STYLE
  5
14E
100
AcDbSymbolTableRecord
100
AcDbTextStyleTableRecord
  2
Standard
 70
     0
 40
0.0
 41
1.0
 50
0.0
 71
     0
 42
3.2
  3
TXT
  4
BIGFONT
  0
STYLE
  5
14F
100
AcDbSymbolTableRecord
100
AcDbTextStyleTableRecord
  2
Font_0
 70
     0
 40
0.0
 41
1.0
 50
0.0
 71
     0
 42
3.2
  3
MS Gothic.ttf
  4

1001
ACAD
1000
MS Gothic
1071
  32817
  0
STYLE
  5
150
100
AcDbSymbolTableRecord
100
AcDbTextStyleTableRecord
  2
Font_1
 70
     0
 40
0.0
 41
1.0
 50
0.0
 71
     0
 42
3.2
  3
MS Gothic.ttf
  4

1001
ACAD
1000
@MS Gothic
1071
  32817
  0
ENDTAB
  0
TABLE
  2
VIEW
  5
5
100
AcDbSymbolTable
 70
     0
  0
ENDTAB
  0
TABLE
  2
UCS
  5
6
100
AcDbSymbolTable
 70
     0
  0
ENDTAB
  0
TABLE
  2
APPID
  5
7
100
AcDbSymbolTable
 70
     1
  0
APPID
  5
151
100
AcDbSymbolTableRecord
100
AcDbRegAppTableRecord
  2
ACAD
 70
     0
  0
ENDTAB
  0
TABLE
  2
DIMSTYLE
  5
8
100
AcDbSymbolTable
 70
     1
  0
DIMSTYLE
105
2A
100
AcDbSymbolTableRecord
100
AcDbDimStyleTableRecord
  2
STANDARD
 70
     0
  3

  4

  5

  6

  7

 40
1.0
 41
2.5
 42
2.0
 43
7.0
 44
1.25
 45
0.0
 46
0.0
 47
0.0
 48
0.0
 71
     0
 72
     0
 73
     0
 74
     0
 75
     0
 76
     0
 77
     1
 78
     0
140
2.5
141
2.5
142
0.0
143
0.0394
144
1.0
145
0.0
146
1.0
147
1.0
170
     0
171
     2
172
     0
173
     0
174
     1
175
     0
176
     0
177
     0
178
     0
270
     2
271
     2
272
     4
273
     2
274
     2
275
     0
280
     0
281
     0
282
     0
283
     1
284
     0
285
     0
286
     0
287
     3
288
     0
  0
ENDTAB
  0
TABLE
  2
BLOCK_RECORD
  5
9
100
AcDbSymbolTable
 70
     0
  0
BLOCK_RECORD
  5
152
100
AcDbSymbolTableRecord
100
AcDbBlockTableRecord
  2
*MODEL_SPACE
  0
BLOCK_RECORD
  5
153
100
AcDbSymbolTableRecord
100
AcDbBlockTableRecord
  2
*PAPER_SPACE
  0
BLOCK_RECORD
  5
154
100
AcDbSymbolTableRecord
100
AcDbBlockTableRecord
  2
0
  0
BLOCK_RECORD
  5
155
100
AcDbSymbolTableRecord
100
AcDbBlockTableRecord
  2
A4
  0
BLOCK_RECORD
  5
156
100
AcDbSymbolTableRecord
100
AcDbBlockTableRecord
  2
NOTE
  0
BLOCK_RECORD
  5
157
100
AcDbSymbolTableRecord
100
AcDbBlockTableRecord
  2
BASE
  0
BLOCK_RECORD
  5
158
100
AcDbSymbolTableRecord
100
AcDbBlockTableRecord
  2
LIST
  0
BLOCK_RECORD
  5
159
100
AcDbSymbolTableRecord
100
AcDbBlockTableRecord
  2
A4ｹﾏｮﾘ
  0
BLOCK_RECORD
  5
15A
100
AcDbSymbolTableRecord
100
AcDbBlockTableRecord
  2
JAME
  0
BLOCK_RECORD
  5
15B
100
AcDbSymbolTableRecord
100
AcDbBlockTableRecord
  2
GENAXEH
  0
BLOCK_RECORD
  5
15C
100
AcDbSymbolTableRecord
100
AcDbBlockTableRecord
  2
A$C36D836D4
  0
BLOCK_RECORD
  5
15D
100
AcDbSymbolTableRecord
100
AcDbBlockTableRecord
  2
A$C520435C5
  0
BLOCK_RECORD
  5
15E
100
AcDbSymbolTableRecord
100
AcDbBlockTableRecord
  2
A$C60F9129D
  0
BLOCK_RECORD
  5
15F
100
AcDbSymbolTableRecord
100
AcDbBlockTableRecord
  2
A
  0
BLOCK_RECORD
  5
160
100
AcDbSymbolTableRecord
100
AcDbBlockTableRecord
  2
B
  0
BLOCK_RECORD
  5
161
100
AcDbSymbolTableRecord
100
AcDbBlockTableRecord
  2
C
  0
BLOCK_RECORD
  5
162
100
AcDbSymbolTableRecord
100
AcDbBlockTableRecord
  2
D
  0
BLOCK_RECORD
  5
163
100
AcDbSymbolTableRecord
100
AcDbBlockTableRecord
  2
A4ｹﾏｮﾘ_JAME_
  0
BLOCK_RECORD
  5
164
100
AcDbSymbolTableRecord
100
AcDbBlockTableRecord
  2
A$C61E53CA7
  0
BLOCK_RECORD
  5
165
100
AcDbSymbolTableRecord
100
AcDbBlockTableRecord
  2
A$C6FE07EA7
  0
ENDTAB
  0
ENDSEC
  0
SECTION
  2
BLOCKS
  0
BLOCK
  5
167
100
AcDbEntity
  8
0
100
AcDbBlockBegin
2
*MODEL_SPACE
 70
     0
 10
0.0
 20
0.0
 30
0.0
  3
*MODEL_SPACE
  1

  0
ENDBLK
  5
168
100
AcDbEntity
  8
0
100
AcDbBlockEnd
  0
BLOCK
  5
169
100
AcDbEntity
 67
     1
  8
0
100
AcDbBlockBegin
  2
*PAPER_SPACE
 70
     0
 10
0.0
 20
0.0
 30
0.0
  3
*PAPER_SPACE
  1

  0
ENDBLK
  5
16A
100
AcDbEntity
 67
     1
  8
0
100
AcDbBlockEnd
  0
BLOCK
  5
16B
100
AcDbEntity
  8
0
100
AcDbBlockBegin
  2
0
 70
    0
 10
0
 20
0
 30
0.0
  3
0
  1

  0
LINE
  5
16C
100
AcDbEntity
  8
0
100
AcDbLine
  6
BYLAYER
 10
1
 20
1
 11
97.85
 21
1
  0
LINE
  5
16D
100
AcDbEntity
  8
0
100
AcDbLine
  6
BYLAYER
 10
1
 20
201
 11
1
 21
1
  0
LINE
  5
16E
100
AcDbEntity
  8
0
100
AcDbLine
  6
BYLAYER
 10
1
 20
1
 11
1
 21
35
  0
LINE
  5
16F
100
AcDbEntity
  8
0
100
AcDbLine
  6
BYLAYER
 10
1
 20
7
 11
290
 21
7
  0
LINE
  5
170
100
AcDbEntity
  8
0
100
AcDbLine
  6
BYLAYER
 10
1
 20
13
 11
290
 21
13
  0
LINE
  5
171
100
AcDbEntity
  8
0
100
AcDbLine
  6
BYLAYER
 10
97.85
 20
19
 11
290
 21
19
  0
LINE
  5
172
100
AcDbEntity
  8
0
100
AcDbLine
  6
BYLAYER
 10
98
 20
25
 11
290
 21
25
  0
LINE
  5
173
100
AcDbEntity
  8
0
100
AcDbLine
  6
BYLAYER
 10
98
 20
31
 11
290
 21
31
  0
LINE
  5
174
100
AcDbEntity
  8
0
100
AcDbLine
  6
BYLAYER
 10
214
 20
37
 11
214
 21
1
  0
LINE
  5
175
100
AcDbEntity
  8
0
100
AcDbLine
  6
BYLAYER
 10
233
 20
37
 11
233
 21
1
  0
LINE
  5
176
100
AcDbEntity
  8
0
100
AcDbLine
  6
BYLAYER
 10
196.025
 20
31
 11
196.025
 21
1
  0
LINE
  5
177
100
AcDbEntity
  8
0
100
AcDbLine
  6
BYLAYER
 10
196.025
 20
31
 11
290
 21
31
  0
LINE
  5
178
100
AcDbEntity
  8
0
100
AcDbLine
  6
BYLAYER
 10
196.025
 20
1
 11
290
 21
1
  0
LINE
  5
179
100
AcDbEntity
  8
0
100
AcDbLine
  6
BYLAYER
 10
196.15
 20
37
 11
196.15
 21
1
  0
LINE
  5
17A
100
AcDbEntity
  8
0
100
AcDbLine
  6
BYLAYER
 10
195.85
 20
37
 11
195.85
 21
1
  0
LINE
  5
17B
100
AcDbEntity
  8
0
100
AcDbLine
  6
BYLAYER
 10
98.15
 20
37
 11
98.15
 21
1
  0
LINE
  5
17C
100
AcDbEntity
  8
0
100
AcDbLine
  6
BYLAYER
 10
98.15
 20
31
 11
195.85
 21
31
  0
LINE
  5
17D
100
AcDbEntity
  8
0
100
AcDbLine
  6
BYLAYER
 10
98.15
 20
1
 11
195.85
 21
1
  0
LINE
  5
17E
100
AcDbEntity
  8
0
100
AcDbLine
  6
BYLAYER
 10
97.85
 20
37
 11
97.85
 21
1
  0
LINE
  5
17F
100
AcDbEntity
  8
0
100
AcDbLine
  6
BYLAYER
 10
145
 20
37
 11
145
 21
1
  0
LINE
  5
180
100
AcDbEntity
  8
0
100
AcDbLine
  6
BYLAYER
 10
115
 20
37
 11
115
 21
1
  0
LINE
  5
181
100
AcDbEntity
  8
0
100
AcDbLine
  6
BYLAYER
 10
164
 20
37
 11
164
 21
1
  0
LINE
  5
182
100
AcDbEntity
  8
0
100
AcDbLine
  6
BYLAYER
 10
49
 20
13
 11
49
 21
1
  0
LINE
  5
183
100
AcDbEntity
  8
0
100
AcDbLine
  6
BYLAYER
 10
14
 20
13
 11
14
 21
1
  0
LINE
  5
184
100
AcDbEntity
  8
0
100
AcDbLine
  6
BYLAYER
 10
63
 20
13
 11
63
 21
1
  0
TEXT
  5
185
100
AcDbEntity
  8
0
100
AcDbText
  6
BYLAYER
 10
3
 20
7.72940914028269
 40
3
  1
TEL
  7
Font_0
100
AcDbText
  0
TEXT
  5
186
100
AcDbEntity
  8
0
100
AcDbText
  6
BYLAYER
 10
51
 20
7.91176142535337
 40
3
  1
FAX
  7
Font_0
100
AcDbText
  0
TEXT
  5
187
100
AcDbEntity
  8
0
100
AcDbText
  6
BYLAYER
 10
16.5400336288223
 20
8.09411371042404
 40
3
  1
(04)3322627
  7
Font_0
100
AcDbText
  0
TEXT
  5
188
100
AcDbEntity
  8
0
100
AcDbText
  6
BYLAYER
 10
67
 20
8.09411371042404
 40
3
  1
(04)3322629
  7
Font_0
100
AcDbText
  0
LINE
  5
189
100
AcDbEntity
  8
0
100
AcDbLine
  6
BYLAYER
 10
1
 20
37
 11
290
 21
37
  0
TEXT
  5
18A
100
AcDbEntity
  8
0
100
AcDbText
  6
BYLAYER
 10
40.6536662502908
 20
8.06055328395253
 40
3
  1
~8
  7
Font_0
100
AcDbText
  0
TEXT
  5
18B
100
AcDbEntity
  8
0
100
AcDbText
  6
BYLAYER
 10
99.7036913346956
 20
32.2639399057443
 40
4
  1
･D ｺﾞ
  7
Font_0
100
AcDbText
  0
TEXT
  5
18C
100
AcDbEntity
  8
0
100
AcDbText
  6
BYLAYER
 10
99.7036913346956
 20
25.6992573518645
 40
4
  1
ｮﾖ ｹ�
  7
Font_0
100
AcDbText
  0
TEXT
  5
18D
100
AcDbEntity
  8
0
100
AcDbText
  6
BYLAYER
 10
99.8861871848885
 20
19.8639838602288
 40
4
  1
ﾃｸ ｹﾏ
  7
Font_0
100
AcDbText
  0
TEXT
  5
18E
100
AcDbEntity
  8
0
100
AcDbText
  6
BYLAYER
 10
99.8861871848885
 20
13.8463581030321
 40
4
  1
ｾ� ｺﾘ
  7
Font_0
100
AcDbText
  0
TEXT
  5
18F
100
AcDbEntity
  8
0
100
AcDbText
  6
BYLAYER
 10
100.068683035081
 20
7.82873284267693
 40
4
  1
ｫ~ ｦW
  7
Font_0
100
AcDbText
  0
TEXT
  5
190
100
AcDbEntity
  8
0
100
AcDbText
  6
BYLAYER
 10
100.068683035081
 20
1.99345935104124
 40
4
  1
ｹﾏ ｸｹ
  7
Font_0
100
AcDbText
  0
TEXT
  5
191
100
AcDbEntity
  8
0
100
AcDbText
  6
BYLAYER
 10
146.605123404095
 20
31.8992353746223
 40
4
  1
ｧ� ｽ�
  7
Font_0
100
AcDbText
  0
TEXT
  5
192
100
AcDbEntity
  8
0
100
AcDbText
  6
BYLAYER
 10
146.605123404095
 20
25.8816096174256
 40
4
  1
､� ｨﾒ
  7
Font_0
100
AcDbText
  0
TEXT
  5
193
100
AcDbEntity
  8
0
100
AcDbText
  6
BYLAYER
 10
146.787619254287
 20
20.0463361257899
 40
4
  1
ｼﾆ ｶq
  7
Font_0
100
AcDbText
  0
TEXT
  5
194
100
AcDbEntity
  8
0
100
AcDbText
  6
BYLAYER
 10
146.97011510448
 20
14.0287103685931
 40
4
  1
ｳ� ｦ�
  7
Font_0
100
AcDbText
  0
TEXT
  5
195
100
AcDbEntity
  8
0
100
AcDbText
  6
BYLAYER
 10
146.422627553902
 20
8.01108510823795
 40
4
  1
ｪ揵ｱｳBｲz
  7
Font_0
100
AcDbText
  0
TEXT
  5
196
100
AcDbEntity
  8
0
100
AcDbText
  6
BYLAYER
 10
146.605123404095
 20
2.17581161660226
 40
4
  1
ｻsｹﾏ､魘ﾁ
  7
Font_0
100
AcDbText
  0
TEXT
  5
197
100
AcDbEntity
  8
0
100
AcDbText
  6
BYLAYER
 10
197.77841370095
 20
32.2399819360484
 40
4
  1
､� ｴﾁ
  7
Font_0
100
AcDbText
  0
TEXT
  5
198
100
AcDbEntity
  8
0
100
AcDbText
  6
BYLAYER
 10
215.423238216157
 20
32.0275605512105
 40
4
  1
ｭt
  7
Font_0
100
AcDbText
  0
TEXT
  5
199
100
AcDbEntity
  8
0
100
AcDbText
  6
BYLAYER
 10
221.375709026727
 20
31.815139655317
 40
4
  1
ｳd
  7
Font_0
100
AcDbText
  0
TEXT
  5
19A
100
AcDbEntity
  8
0
100
AcDbText
  6
BYLAYER
 10
227.328179837297
 20
31.815139655317
 40
4
  1
､H
  7
Font_0
100
AcDbText
  0
TEXT
  5
19B
100
AcDbEntity
  8
0
100
AcDbText
  6
BYLAYER
 10
239.020533541933
 20
32.0275605512105
 40
4
  1
ｧ�
  7
Font_0
100
AcDbText
  0
TEXT
  5
19C
100
AcDbEntity
  8
0
100
AcDbText
  6
BYLAYER
 10
251.98841615305
 20
32.0275605512105
 40
4
  1
ｧ�
  7
Font_0
100
AcDbText
  0
TEXT
  5
19D
100
AcDbEntity
  8
0
100
AcDbText
  6
BYLAYER
 10
264.531122227431
 20
32.0275605512105
 40
4
  1
､ｺ
  7
Font_0
100
AcDbText
  0
TEXT
  5
19E
100
AcDbEntity
  8
0
100
AcDbText
  6
BYLAYER
 10
276.436064552298
 20
31.815139655317
 40
4
  1
ｮe
  7
Font_0
100
AcDbText
  0
TEXT
  5
19F
100
AcDbEntity
  8
0
100
AcDbText
  6
BYLAYER
 10
23.0468952754036
 20
24.3731292136772
 40
7
  1
ｫﾘｷﾔ､uｷ~ｪﾑ･ｳｭｭ､ｽ･q
  7
Font_0
100
AcDbText
  0
TEXT
  5
1A0
100
AcDbEntity
  8
0
100
AcDbText
  6
BYLAYER
 10
22.2780828500217
 20
15.9228468305838
 40
3
  1
CHIEN YU INDUSTRIAL CO.,LTD.
  7
Font_0
100
AcDbText
  0
CIRCLE
  5
1A1
100
AcDbEntity
  8
0
100
AcDbCircle
  6
BYLAYER
 10
11.1054905349494
 20
25.350263158651
 40
9.36463111331499
  0
CIRCLE
  5
1A2
100
AcDbEntity
  8
0
100
AcDbCircle
  6
BYLAYER
 10
11.1054905349494
 20
25.350263158651
 40
7.62237416200057
  0
ARC
  5
1A3
100
AcDbEntity
  8
0
100
AcDbCircle
  6
BYLAYER
 10
11.1054905349494
 20
25.350263158651
 40
4.41008790801462
100
AcDbArc
 50
90
 51
0
  0
LINE
  5
1A4
100
AcDbEntity
  8
0
100
AcDbLine
  6
BYLAYER
 10
11.1054905349494
 20
29.7603510666656
 11
16.2233703294355
 21
29.7603510666656
  0
LINE
  5
1A5
100
AcDbEntity
  8
0
100
AcDbLine
  6
BYLAYER
 10
15.515578442964
 20
25.350263158651
 11
16.4411524483498
 21
25.350263158651
  0
TEXT
  5
1A6
100
AcDbEntity
  8
0
100
AcDbText
  6
BYLAYER
 10
8.49210581170386
 20
22.8477388856442
 40
5
  1
Y
  7
Font_0
100
AcDbText
  0
ARC
  5
1A7
100
AcDbEntity
  8
0
100
AcDbCircle
  6
BYLAYER
 10
11.5745216067836
 20
33.8983997393573
 40
0.704372460813671
100
AcDbArc
 50
83.8529806316668
 51
239.250071636948
  0
ARC
  5
1A8
100
AcDbEntity
  8
0
100
AcDbCircle
  6
BYLAYER
 10
7.23761506796891
 20
32.9876821284788
 40
0.704372460813671
100
AcDbArc
 50
113.852980631667
 51
269.250071636948
  0
ARC
  5
1A9
100
AcDbEntity
  8
0
100
AcDbCircle
  6
BYLAYER
 10
3.93710263695578
 20
30.0305242723769
 40
0.704372460813671
100
AcDbArc
 50
143.852980631667
 51
299.250071636948
  0
ARC
  5
1AA
100
AcDbEntity
  8
0
100
AcDbCircle
  6
BYLAYER
 10
2.55735395424305
 20
25.8192942304852
 40
0.704372460813671
100
AcDbArc
 50
173.852980631667
 51
329.250071636948
  0
ARC
  5
1AB
100
AcDbEntity
  8
0
100
AcDbCircle
  6
BYLAYER
 10
3.46807156512152
 20
21.4823876916705
 40
0.704372460813671
100
AcDbArc
 50
203.852980631667
 51
359.250071636948
  0
ARC
  5
1AC
100
AcDbEntity
  8
0
100
AcDbCircle
  6
BYLAYER
 10
6.42522942122351
 20
18.1818752606574
 40
0.704372460813671
100
AcDbArc
 50
233.852980631667
 51
29.2500716369476
  0
ARC
  5
1AD
100
AcDbEntity
  8
0
100
AcDbCircle
  6
BYLAYER
 10
10.6364594631151
 20
16.8021265779447
 40
0.704372460813671
100
AcDbArc
 50
263.852980631667
 51
59.2500716369476
  0
ARC
  5
1AE
100
AcDbEntity
  8
0
100
AcDbCircle
  6
BYLAYER
 10
14.9733660019298
 20
17.7128441888231
 40
0.704372460813671
100
AcDbArc
 50
293.852980631667
 51
89.2500716369476
  0
ARC
  5
1AF
100
AcDbEntity
  8
0
100
AcDbCircle
  6
BYLAYER
 10
18.273878432943
 20
20.6700020449251
 40
0.704372460813671
100
AcDbArc
 50
323.852980631667
 51
119.250071636948
  0
ARC
  5
1B0
100
AcDbEntity
  8
0
100
AcDbCircle
  6
BYLAYER
 10
19.6536271156557
 20
24.8812320868167
 40
0.704372460813671
100
AcDbArc
 50
353.852980631667
 51
149.250071636948
  0
ARC
  5
1B1
100
AcDbEntity
  8
0
100
AcDbCircle
  6
BYLAYER
 10
18.7429095047772
 20
29.2181386256314
 40
0.704372460813671
100
AcDbArc
 50
23.8529806316668
 51
179.250071636948
  0
ARC
  5
1B2
100
AcDbEntity
  8
0
100
AcDbCircle
  6
BYLAYER
 10
15.7857516486752
 20
32.5186510566446
 40
0.704372460813671
100
AcDbArc
 50
53.8529806316668
 51
209.250071636948
  0
LINE
  5
1B3
100
AcDbEntity
  8
0
100
AcDbLine
  6
BYLAYER
 10
1
 20
201
 11
290
 21
201
  0
LINE
  5
1B4
100
AcDbEntity
  8
0
100
AcDbLine
  6
BYLAYER
 10
290
 20
201
 11
290
 21
1
  0
ENDBLK
  5
1B5
100
AcDbEntity
  8
0
 67
     1
100
AcDbBlockEnd
  0
BLOCK
  5
1B6
100
AcDbEntity
  8
0
100
AcDbBlockBegin
  2
A4
 70
    0
 10
0
 20
0
 30
0.0
  3
A4
  1

  0
TEXT
  5
1B7
100
AcDbEntity
  8
0
100
AcDbText
  6
BYLAYER
 10
121.243373757434
 20
22.64898098486
 40
4.8
  1
ｿ� ｪ｢ ｵo
  7
Font_0
100
AcDbText
  0
TEXT
  5
1B8
100
AcDbEntity
  8
0
100
AcDbText
  6
BYLAYER
 10
175.643149157513
 20
16.5268633951276
 40
4.8
  1
M/M
  7
Font_0
100
AcDbText
  0
INSERT
  5
1B9
100
AcDbEntity
  8
0
100
AcDbBlockReference
  6
CONTINUOUS
  2
0
 10
2.77414193339833
 20
3.05830958210858
 30
0.0
  0
ENDBLK
  5
1BA
100
AcDbEntity
  8
0
 67
     1
100
AcDbBlockEnd
  0
BLOCK
  5
1BB
100
AcDbEntity
  8
0
100
AcDbBlockBegin
  2
NOTE
 70
    0
 10
0
 20
0
 30
0.0
  3
NOTE
  1

  0
LINE
  5
1BC
100
AcDbEntity
  8
0
100
AcDbLine
  6
BYLAYER
 10
0
 20
48
 11
244.5
 21
48
  0
LINE
  5
1BD
100
AcDbEntity
  8
0
100
AcDbLine
  6
BYLAYER
 10
0
 20
42
 11
244.5
 21
42
  0
LINE
  5
1BE
100
AcDbEntity
  8
0
100
AcDbLine
  6
BYLAYER
 10
0
 20
36
 11
244.5
 21
36
  0
LINE
  5
1BF
100
AcDbEntity
  8
0
100
AcDbLine
  6
BYLAYER
 10
0
 20
30
 11
244.5
 21
30
  0
LINE
  5
1C0
100
AcDbEntity
  8
0
100
AcDbLine
  6
BYLAYER
 10
0
 20
24
 11
244.5
 21
24
  0
LINE
  5
1C1
100
AcDbEntity
  8
0
100
AcDbLine
  6
BYLAYER
 10
0
 20
18
 11
244.5
 21
18
  0
LINE
  5
1C2
100
AcDbEntity
  8
0
100
AcDbLine
  6
BYLAYER
 10
0
 20
12
 11
244.5
 21
12
  0
LINE
  5
1C3
100
AcDbEntity
  8
0
100
AcDbLine
  6
BYLAYER
 10
0
 20
6
 11
244.5
 21
6
  0
LINE
  5
1C4
100
AcDbEntity
  8
0
100
AcDbLine
  6
BYLAYER
 62
3
 10
196.307106781187
 20
0.707106781186553
 11
211.192893218814
 21
0.707106781186553
  0
LINE
  5
1C5
100
AcDbEntity
  8
0
100
AcDbLine
  6
BYLAYER
 62
3
 10
196.307106781187
 20
6.70710678118655
 11
211.192893218814
 21
6.70710678118655
  0
LINE
  5
1C6
100
AcDbEntity
  8
0
100
AcDbLine
  6
BYLAYER
 62
3
 10
196.307106781187
 20
12.7071067811866
 11
211.192893218814
 21
12.7071067811866
  0
LINE
  5
1C7
100
AcDbEntity
  8
0
100
AcDbLine
  6
BYLAYER
 62
3
 10
196.307106781187
 20
18.7071067811866
 11
211.192893218814
 21
18.7071067811866
  0
LINE
  5
1C8
100
AcDbEntity
  8
0
100
AcDbLine
  6
BYLAYER
 62
3
 10
196.307106781187
 20
24.7071067811866
 11
211.192893218814
 21
24.7071067811866
  0
LINE
  5
1C9
100
AcDbEntity
  8
0
100
AcDbLine
  6
BYLAYER
 62
3
 10
196.307106781187
 20
30.7071067811865
 11
211.192893218814
 21
30.7071067811865
  0
LINE
  5
1CA
100
AcDbEntity
  8
0
100
AcDbLine
  6
BYLAYER
 62
3
 10
196.307106781187
 20
36.7071067811866
 11
211.192893218814
 21
36.7071067811866
  0
LINE
  5
1CB
100
AcDbEntity
  8
0
100
AcDbLine
  6
BYLAYER
 62
3
 10
65.9071067811866
 20
0.707106781186553
 11
80.7928932188135
 21
0.707106781186553
  0
LINE
  5
1CC
100
AcDbEntity
  8
0
100
AcDbLine
  6
BYLAYER
 62
3
 10
65.9071067811866
 20
6.70710678118655
 11
80.7928932188135
 21
6.70710678118655
  0
LINE
  5
1CD
100
AcDbEntity
  8
0
100
AcDbLine
  6
BYLAYER
 62
3
 10
65.9071067811866
 20
12.7071067811866
 11
80.7928932188135
 21
12.7071067811866
  0
LINE
  5
1CE
100
AcDbEntity
  8
0
100
AcDbLine
  6
BYLAYER
 62
3
 10
65.9071067811866
 20
18.7071067811866
 11
80.7928932188135
 21
18.7071067811866
  0
LINE
  5
1CF
100
AcDbEntity
  8
0
100
AcDbLine
  6
BYLAYER
 62
3
 10
65.9071067811866
 20
24.7071067811866
 11
80.7928932188135
 21
24.7071067811866
  0
LINE
  5
1D0
100
AcDbEntity
  8
0
100
AcDbLine
  6
BYLAYER
 62
3
 10
65.9071067811866
 20
30.7071067811865
 11
80.7928932188135
 21
30.7071067811865
  0
LINE
  5
1D1
100
AcDbEntity
  8
0
100
AcDbLine
  6
BYLAYER
 62
3
 10
65.9071067811866
 20
36.7071067811866
 11
80.7928932188135
 21
36.7071067811866
  0
LINE
  5
1D2
100
AcDbEntity
  8
0
100
AcDbLine
  6
BYLAYER
 10
65.2
 20
48
 11
65.2
 21
0
  0
LINE
  5
1D3
100
AcDbEntity
  8
0
100
AcDbLine
  6
BYLAYER
 10
32.6
 20
48
 11
32.6
 21
0
  0
LINE
  5
1D4
100
AcDbEntity
  8
0
100
AcDbLine
  6
BYLAYER
 10
16.3
 20
48
 11
16.3
 21
0
  0
LINE
  5
1D5
100
AcDbEntity
  8
0
100
AcDbLine
  6
BYLAYER
 10
48.9
 20
48
 11
48.9
 21
0
  0
LINE
  5
1D6
100
AcDbEntity
  8
0
100
AcDbLine
  6
BYLAYER
 62
3
 10
0.707106781186548
 20
0.707106781186553
 11
15.5928932188134
 21
0.707106781186553
  0
LINE
  5
1D7
100
AcDbEntity
  8
0
100
AcDbLine
  6
BYLAYER
 62
3
 10
0.707106781186548
 20
6.70710678118655
 11
15.5928932188134
 21
6.70710678118655
  0
LINE
  5
1D8
100
AcDbEntity
  8
0
100
AcDbLine
  6
BYLAYER
 62
3
 10
0.707106781186548
 20
12.7071067811866
 11
15.5928932188134
 21
12.7071067811866
  0
LINE
  5
1D9
100
AcDbEntity
  8
0
100
AcDbLine
  6
BYLAYER
 62
3
 10
0.707106781186548
 20
18.7071067811866
 11
15.5928932188134
 21
18.7071067811866
  0
LINE
  5
1DA
100
AcDbEntity
  8
0
100
AcDbLine
  6
BYLAYER
 62
3
 10
33.3071067811865
 20
0.707106781186553
 11
48.1928932188135
 21
0.707106781186553
  0
LINE
  5
1DB
100
AcDbEntity
  8
0
100
AcDbLine
  6
BYLAYER
 62
3
 10
33.3071067811865
 20
6.70710678118655
 11
48.1928932188135
 21
6.70710678118655
  0
LINE
  5
1DC
100
AcDbEntity
  8
0
100
AcDbLine
  6
BYLAYER
 62
3
 10
33.3071067811865
 20
12.7071067811866
 11
48.1928932188135
 21
12.7071067811866
  0
LINE
  5
1DD
100
AcDbEntity
  8
0
100
AcDbLine
  6
BYLAYER
 62
3
 10
33.3071067811865
 20
18.7071067811866
 11
48.1928932188135
 21
18.7071067811866
  0
LINE
  5
1DE
100
AcDbEntity
  8
0
100
AcDbLine
  6
BYLAYER
 62
3
 10
17.0071067811865
 20
0.707106781186553
 11
31.8928932188135
 21
0.707106781186553
  0
LINE
  5
1DF
100
AcDbEntity
  8
0
100
AcDbLine
  6
BYLAYER
 62
3
 10
17.0071067811865
 20
6.70710678118655
 11
31.8928932188135
 21
6.70710678118655
  0
LINE
  5
1E0
100
AcDbEntity
  8
0
100
AcDbLine
  6
BYLAYER
 62
3
 10
17.0071067811865
 20
12.7071067811866
 11
31.8928932188135
 21
12.7071067811866
  0
LINE
  5
1E1
100
AcDbEntity
  8
0
100
AcDbLine
  6
BYLAYER
 62
3
 10
17.0071067811865
 20
18.7071067811866
 11
31.8928932188135
 21
18.7071067811866
  0
LINE
  5
1E2
100
AcDbEntity
  8
0
100
AcDbLine
  6
BYLAYER
 62
3
 10
49.6071067811866
 20
0.707106781186553
 11
64.4928932188135
 21
0.707106781186553
  0
LINE
  5
1E3
100
AcDbEntity
  8
0
100
AcDbLine
  6
BYLAYER
 62
3
 10
49.6071067811866
 20
6.70710678118655
 11
64.4928932188135
 21
6.70710678118655
  0
LINE
  5
1E4
100
AcDbEntity
  8
0
100
AcDbLine
  6
BYLAYER
 62
3
 10
49.6071067811866
 20
12.7071067811866
 11
64.4928932188135
 21
12.7071067811866
  0
LINE
  5
1E5
100
AcDbEntity
  8
0
100
AcDbLine
  6
BYLAYER
 62
3
 10
49.6071067811866
 20
18.7071067811866
 11
64.4928932188135
 21
18.7071067811866
  0
LINE
  5
1E6
100
AcDbEntity
  8
0
100
AcDbLine
  6
BYLAYER
 62
3
 10
0.707106781186548
 20
24.7071067811866
 11
15.5928932188134
 21
24.7071067811866
  0
LINE
  5
1E7
100
AcDbEntity
  8
0
100
AcDbLine
  6
BYLAYER
 62
3
 10
0.707106781186548
 20
30.7071067811865
 11
15.5928932188134
 21
30.7071067811865
  0
LINE
  5
1E8
100
AcDbEntity
  8
0
100
AcDbLine
  6
BYLAYER
 62
3
 10
0.707106781186548
 20
36.7071067811866
 11
15.5928932188134
 21
36.7071067811866
  0
TEXT
  5
1E9
100
AcDbEntity
  8
0
100
AcDbText
  6
BYLAYER
 10
5.67126064773777
 20
43.5
 40
3
  1
､u･O
  7
Font_0
100
AcDbText
  0
LINE
  5
1EA
100
AcDbEntity
  8
0
100
AcDbLine
  6
BYLAYER
 62
3
 10
33.3071067811865
 20
24.7071067811866
 11
48.1928932188135
 21
24.7071067811866
  0
LINE
  5
1EB
100
AcDbEntity
  8
0
100
AcDbLine
  6
BYLAYER
 62
3
 10
33.3071067811865
 20
30.7071067811865
 11
48.1928932188135
 21
30.7071067811865
  0
LINE
  5
1EC
100
AcDbEntity
  8
0
100
AcDbLine
  6
BYLAYER
 62
3
 10
33.3071067811865
 20
36.7071067811866
 11
48.1928932188135
 21
36.7071067811866
  0
LINE
  5
1ED
100
AcDbEntity
  8
0
100
AcDbLine
  6
BYLAYER
 62
3
 10
17.0071067811865
 20
24.7071067811866
 11
31.8928932188135
 21
24.7071067811866
  0
LINE
  5
1EE
100
AcDbEntity
  8
0
100
AcDbLine
  6
BYLAYER
 62
3
 10
17.0071067811865
 20
30.7071067811865
 11
31.8928932188135
 21
30.7071067811865
  0
LINE
  5
1EF
100
AcDbEntity
  8
0
100
AcDbLine
  6
BYLAYER
 62
3
 10
17.0071067811865
 20
36.7071067811866
 11
31.8928932188135
 21
36.7071067811866
  0
TEXT
  5
1F0
100
AcDbEntity
  8
0
100
AcDbText
  6
BYLAYER
 10
21.3781148184937
 20
43.5
 40
3
  1
ｽsｸｹ
  7
Font_0
100
AcDbText
  0
TEXT
  5
1F1
100
AcDbEntity
  8
0
100
AcDbText
  6
BYLAYER
 10
39.5
 20
43.5
 40
3
  1
A
  7
Font_0
100
AcDbText
  0
LINE
  5
1F2
100
AcDbEntity
  8
0
100
AcDbLine
  6
BYLAYER
 62
3
 10
49.6071067811866
 20
24.7071067811866
 11
64.4928932188135
 21
24.7071067811866
  0
LINE
  5
1F3
100
AcDbEntity
  8
0
100
AcDbLine
  6
BYLAYER
 62
3
 10
49.6071067811866
 20
30.7071067811865
 11
64.4928932188135
 21
30.7071067811865
  0
LINE
  5
1F4
100
AcDbEntity
  8
0
100
AcDbLine
  6
BYLAYER
 62
3
 10
49.6071067811866
 20
36.7071067811866
 11
64.4928932188135
 21
36.7071067811866
  0
TEXT
  5
1F5
100
AcDbEntity
  8
0
100
AcDbText
  6
BYLAYER
 10
56
 20
43.5
 40
3
  1
B
  7
Font_0
100
AcDbText
  0
TEXT
  5
1F6
100
AcDbEntity
  8
0
100
AcDbText
  6
BYLAYER
 10
72.5
 20
43.5
 40
3
  1
C
  7
Font_0
100
AcDbText
  0
LINE
  5
1F7
100
AcDbEntity
  8
0
100
AcDbLine
  6
BYLAYER
 10
163
 20
48
 11
163
 21
0
  0
LINE
  5
1F8
100
AcDbEntity
  8
0
100
AcDbLine
  6
BYLAYER
 10
146.7
 20
48
 11
146.7
 21
0
  0
LINE
  5
1F9
100
AcDbEntity
  8
0
100
AcDbLine
  6
BYLAYER
 10
179.3
 20
48
 11
179.3
 21
0
  0
LINE
  5
1FA
100
AcDbEntity
  8
0
100
AcDbLine
  6
BYLAYER
 10
195.6
 20
48
 11
195.6
 21
0
  0
LINE
  5
1FB
100
AcDbEntity
  8
0
100
AcDbLine
  6
BYLAYER
 10
81.5
 20
48
 11
81.5
 21
0
  0
LINE
  5
1FC
100
AcDbEntity
  8
0
100
AcDbLine
  6
BYLAYER
 10
114.1
 20
48
 11
114.1
 21
0
  0
LINE
  5
1FD
100
AcDbEntity
  8
0
100
AcDbLine
  6
BYLAYER
 10
97.8
 20
48
 11
97.8
 21
0
  0
LINE
  5
1FE
100
AcDbEntity
  8
0
100
AcDbLine
  6
BYLAYER
 10
130.4
 20
48
 11
130.4
 21
0
  0
LINE
  5
1FF
100
AcDbEntity
  8
0
100
AcDbLine
  6
BYLAYER
 62
3
 10
131.107106781186
 20
0.707106781186553
 11
145.992893218813
 21
0.707106781186553
  0
LINE
  5
200
100
AcDbEntity
  8
0
100
AcDbLine
  6
BYLAYER
 62
3
 10
131.107106781186
 20
6.70710678118655
 11
145.992893218813
 21
6.70710678118655
  0
LINE
  5
201
100
AcDbEntity
  8
0
100
AcDbLine
  6
BYLAYER
 62
3
 10
131.107106781186
 20
12.7071067811866
 11
145.992893218813
 21
12.7071067811866
  0
LINE
  5
202
100
AcDbEntity
  8
0
100
AcDbLine
  6
BYLAYER
 62
3
 10
131.107106781186
 20
18.7071067811866
 11
145.992893218813
 21
18.7071067811866
  0
LINE
  5
203
100
AcDbEntity
  8
0
100
AcDbLine
  6
BYLAYER
 62
3
 10
98.5071067811866
 20
0.707106781186553
 11
113.392893218813
 21
0.707106781186553
  0
LINE
  5
204
100
AcDbEntity
  8
0
100
AcDbLine
  6
BYLAYER
 62
3
 10
98.5071067811866
 20
6.70710678118655
 11
113.392893218813
 21
6.70710678118655
  0
LINE
  5
205
100
AcDbEntity
  8
0
100
AcDbLine
  6
BYLAYER
 62
3
 10
98.5071067811866
 20
12.7071067811866
 11
113.392893218813
 21
12.7071067811866
  0
LINE
  5
206
100
AcDbEntity
  8
0
100
AcDbLine
  6
BYLAYER
 62
3
 10
98.5071067811866
 20
18.7071067811866
 11
113.392893218813
 21
18.7071067811866
  0
LINE
  5
207
100
AcDbEntity
  8
0
100
AcDbLine
  6
BYLAYER
 62
3
 10
82.2071067811865
 20
0.707106781186553
 11
97.0928932188135
 21
0.707106781186553
  0
LINE
  5
208
100
AcDbEntity
  8
0
100
AcDbLine
  6
BYLAYER
 62
3
 10
82.2071067811865
 20
6.70710678118655
 11
97.0928932188135
 21
6.70710678118655
  0
LINE
  5
209
100
AcDbEntity
  8
0
100
AcDbLine
  6
BYLAYER
 62
3
 10
82.2071067811865
 20
12.7071067811866
 11
97.0928932188135
 21
12.7071067811866
  0
LINE
  5
20A
100
AcDbEntity
  8
0
100
AcDbLine
  6
BYLAYER
 62
3
 10
82.2071067811865
 20
18.7071067811866
 11
97.0928932188135
 21
18.7071067811866
  0
LINE
  5
20B
100
AcDbEntity
  8
0
100
AcDbLine
  6
BYLAYER
 62
3
 10
114.807106781187
 20
0.707106781186553
 11
129.692893218813
 21
0.707106781186553
  0
LINE
  5
20C
100
AcDbEntity
  8
0
100
AcDbLine
  6
BYLAYER
 62
3
 10
114.807106781187
 20
6.70710678118655
 11
129.692893218813
 21
6.70710678118655
  0
LINE
  5
20D
100
AcDbEntity
  8
0
100
AcDbLine
  6
BYLAYER
 62
3
 10
114.807106781187
 20
12.7071067811866
 11
129.692893218813
 21
12.7071067811866
  0
LINE
  5
20E
100
AcDbEntity
  8
0
100
AcDbLine
  6
BYLAYER
 62
3
 10
114.807106781187
 20
18.7071067811866
 11
129.692893218813
 21
18.7071067811866
  0
LINE
  5
20F
100
AcDbEntity
  8
0
100
AcDbLine
  6
BYLAYER
 62
3
 10
163.707106781186
 20
0.707106781186553
 11
178.592893218813
 21
0.707106781186553
  0
LINE
  5
210
100
AcDbEntity
  8
0
100
AcDbLine
  6
BYLAYER
 62
3
 10
163.707106781186
 20
6.70710678118655
 11
178.592893218813
 21
6.70710678118655
  0
LINE
  5
211
100
AcDbEntity
  8
0
100
AcDbLine
  6
BYLAYER
 62
3
 10
163.707106781186
 20
12.7071067811866
 11
178.592893218813
 21
12.7071067811866
  0
LINE
  5
212
100
AcDbEntity
  8
0
100
AcDbLine
  6
BYLAYER
 62
3
 10
163.707106781186
 20
18.7071067811866
 11
178.592893218813
 21
18.7071067811866
  0
LINE
  5
213
100
AcDbEntity
  8
0
100
AcDbLine
  6
BYLAYER
 62
3
 10
147.407106781187
 20
0.707106781186553
 11
162.292893218814
 21
0.707106781186553
  0
LINE
  5
214
100
AcDbEntity
  8
0
100
AcDbLine
  6
BYLAYER
 62
3
 10
147.407106781187
 20
6.70710678118655
 11
162.292893218814
 21
6.70710678118655
  0
LINE
  5
215
100
AcDbEntity
  8
0
100
AcDbLine
  6
BYLAYER
 62
3
 10
147.407106781187
 20
12.7071067811866
 11
162.292893218814
 21
12.7071067811866
  0
LINE
  5
216
100
AcDbEntity
  8
0
100
AcDbLine
  6
BYLAYER
 62
3
 10
147.407106781187
 20
18.7071067811866
 11
162.292893218814
 21
18.7071067811866
  0
LINE
  5
217
100
AcDbEntity
  8
0
100
AcDbLine
  6
BYLAYER
 62
3
 10
180.007106781186
 20
0.707106781186553
 11
194.892893218813
 21
0.707106781186553
  0
LINE
  5
218
100
AcDbEntity
  8
0
100
AcDbLine
  6
BYLAYER
 62
3
 10
180.007106781186
 20
6.70710678118655
 11
194.892893218813
 21
6.70710678118655
  0
LINE
  5
219
100
AcDbEntity
  8
0
100
AcDbLine
  6
BYLAYER
 62
3
 10
180.007106781186
 20
12.7071067811866
 11
194.892893218813
 21
12.7071067811866
  0
LINE
  5
21A
100
AcDbEntity
  8
0
100
AcDbLine
  6
BYLAYER
 62
3
 10
180.007106781186
 20
18.7071067811866
 11
194.892893218813
 21
18.7071067811866
  0
LINE
  5
21B
100
AcDbEntity
  8
0
100
AcDbLine
  6
BYLAYER
 62
3
 10
131.107106781186
 20
24.7071067811866
 11
145.992893218813
 21
24.7071067811866
  0
LINE
  5
21C
100
AcDbEntity
  8
0
100
AcDbLine
  6
BYLAYER
 62
3
 10
131.107106781186
 20
30.7071067811865
 11
145.992893218813
 21
30.7071067811865
  0
LINE
  5
21D
100
AcDbEntity
  8
0
100
AcDbLine
  6
BYLAYER
 62
3
 10
131.107106781186
 20
36.7071067811866
 11
145.992893218813
 21
36.7071067811866
  0
LINE
  5
21E
100
AcDbEntity
  8
0
100
AcDbLine
  6
BYLAYER
 62
3
 10
98.5071067811866
 20
24.7071067811866
 11
113.392893218813
 21
24.7071067811866
  0
LINE
  5
21F
100
AcDbEntity
  8
0
100
AcDbLine
  6
BYLAYER
 62
3
 10
98.5071067811866
 20
30.7071067811865
 11
113.392893218813
 21
30.7071067811865
  0
LINE
  5
220
100
AcDbEntity
  8
0
100
AcDbLine
  6
BYLAYER
 62
3
 10
98.5071067811866
 20
36.7071067811866
 11
113.392893218813
 21
36.7071067811866
  0
LINE
  5
221
100
AcDbEntity
  8
0
100
AcDbLine
  6
BYLAYER
 62
3
 10
82.2071067811865
 20
24.7071067811866
 11
97.0928932188135
 21
24.7071067811866
  0
LINE
  5
222
100
AcDbEntity
  8
0
100
AcDbLine
  6
BYLAYER
 62
3
 10
82.2071067811865
 20
30.7071067811865
 11
97.0928932188135
 21
30.7071067811865
  0
LINE
  5
223
100
AcDbEntity
  8
0
100
AcDbLine
  6
BYLAYER
 62
3
 10
82.2071067811865
 20
36.7071067811866
 11
97.0928932188135
 21
36.7071067811866
  0
TEXT
  5
224
100
AcDbEntity
  8
0
100
AcDbText
  6
BYLAYER
 10
89
 20
43.5
 40
3
  1
D
  7
Font_0
100
AcDbText
  0
TEXT
  5
225
100
AcDbEntity
  8
0
100
AcDbText
  6
BYLAYER
 10
105.3
 20
43.5
 40
3
  1
E
  7
Font_0
100
AcDbText
  0
LINE
  5
226
100
AcDbEntity
  8
0
100
AcDbLine
  6
BYLAYER
 62
3
 10
114.807106781187
 20
24.7071067811866
 11
129.692893218813
 21
24.7071067811866
  0
LINE
  5
227
100
AcDbEntity
  8
0
100
AcDbLine
  6
BYLAYER
 62
3
 10
114.807106781187
 20
30.7071067811865
 11
129.692893218813
 21
30.7071067811865
  0
LINE
  5
228
100
AcDbEntity
  8
0
100
AcDbLine
  6
BYLAYER
 62
3
 10
114.807106781187
 20
36.7071067811866
 11
129.692893218813
 21
36.7071067811866
  0
TEXT
  5
229
100
AcDbEntity
  8
0
100
AcDbText
  6
BYLAYER
 10
121.8
 20
43.5
 40
3
  1
F
  7
Font_0
100
AcDbText
  0
TEXT
  5
22A
100
AcDbEntity
  8
0
100
AcDbText
  6
BYLAYER
 10
137.8
 20
43.5
 40
3
  1
G
  7
Font_0
100
AcDbText
  0
LINE
  5
22B
100
AcDbEntity
  8
0
100
AcDbLine
  6
BYLAYER
 62
3
 10
163.707106781186
 20
24.7071067811866
 11
178.592893218813
 21
24.7071067811866
  0
LINE
  5
22C
100
AcDbEntity
  8
0
100
AcDbLine
  6
BYLAYER
 62
3
 10
163.707106781186
 20
30.7071067811865
 11
178.592893218813
 21
30.7071067811865
  0
LINE
  5
22D
100
AcDbEntity
  8
0
100
AcDbLine
  6
BYLAYER
 62
3
 10
163.707106781186
 20
36.7071067811866
 11
178.592893218813
 21
36.7071067811866
  0
LINE
  5
22E
100
AcDbEntity
  8
0
100
AcDbLine
  6
BYLAYER
 62
3
 10
147.407106781187
 20
24.7071067811866
 11
162.292893218814
 21
24.7071067811866
  0
LINE
  5
22F
100
AcDbEntity
  8
0
100
AcDbLine
  6
BYLAYER
 62
3
 10
147.407106781187
 20
30.7071067811865
 11
162.292893218814
 21
30.7071067811865
  0
LINE
  5
230
100
AcDbEntity
  8
0
100
AcDbLine
  6
BYLAYER
 62
3
 10
147.407106781187
 20
36.7071067811866
 11
162.292893218814
 21
36.7071067811866
  0
TEXT
  5
231
100
AcDbEntity
  8
0
100
AcDbText
  6
BYLAYER
 10
153.5
 20
43.5
 40
3
  1
H
  7
Font_0
100
AcDbText
  0
TEXT
  5
232
100
AcDbEntity
  8
0
100
AcDbText
  6
BYLAYER
 10
171.5
 20
43.5
 40
3
  1
I
  7
Font_0
100
AcDbText
  0
LINE
  5
233
100
AcDbEntity
  8
0
100
AcDbLine
  6
BYLAYER
 62
3
 10
180.007106781186
 20
24.7071067811866
 11
194.892893218813
 21
24.7071067811866
  0
LINE
  5
234
100
AcDbEntity
  8
0
100
AcDbLine
  6
BYLAYER
 62
3
 10
180.007106781186
 20
30.7071067811865
 11
194.892893218813
 21
30.7071067811865
  0
LINE
  5
235
100
AcDbEntity
  8
0
100
AcDbLine
  6
BYLAYER
 62
3
 10
180.007106781186
 20
36.7071067811866
 11
194.892893218813
 21
36.7071067811866
  0
TEXT
  5
236
100
AcDbEntity
  8
0
100
AcDbText
  6
BYLAYER
 10
186.6
 20
43.5
 40
3
  1
J
  7
Font_0
100
AcDbText
  0
TEXT
  5
237
100
AcDbEntity
  8
0
100
AcDbText
  6
BYLAYER
 10
202.5
 20
43.5
 40
3
  1
K
  7
Font_0
100
AcDbText
  0
LINE
  5
238
100
AcDbEntity
  8
0
100
AcDbLine
  6
BYLAYER
 10
244.5
 20
48
 11
244.5
 21
0
  0
LINE
  5
239
100
AcDbEntity
  8
0
100
AcDbLine
  6
BYLAYER
 10
211.9
 20
48
 11
211.9
 21
0
  0
LINE
  5
23A
100
AcDbEntity
  8
0
100
AcDbLine
  6
BYLAYER
 10
228.2
 20
48
 11
228.2
 21
0
  0
LINE
  5
23B
100
AcDbEntity
  8
0
100
AcDbLine
  6
BYLAYER
 62
3
 10
228.907106781187
 20
0.707106781186553
 11
243.792893218814
 21
0.707106781186553
  0
LINE
  5
23C
100
AcDbEntity
  8
0
100
AcDbLine
  6
BYLAYER
 62
3
 10
228.907106781187
 20
6.70710678118655
 11
243.792893218814
 21
6.70710678118655
  0
LINE
  5
23D
100
AcDbEntity
  8
0
100
AcDbLine
  6
BYLAYER
 62
3
 10
228.907106781187
 20
12.7071067811866
 11
243.792893218814
 21
12.7071067811866
  0
LINE
  5
23E
100
AcDbEntity
  8
0
100
AcDbLine
  6
BYLAYER
 62
3
 10
228.907106781187
 20
18.7071067811866
 11
243.792893218814
 21
18.7071067811866
  0
LINE
  5
23F
100
AcDbEntity
  8
0
100
AcDbLine
  6
BYLAYER
 62
3
 10
212.607106781186
 20
0.707106781186553
 11
227.492893218814
 21
0.707106781186553
  0
LINE
  5
240
100
AcDbEntity
  8
0
100
AcDbLine
  6
BYLAYER
 62
3
 10
212.607106781186
 20
6.70710678118655
 11
227.492893218814
 21
6.70710678118655
  0
LINE
  5
241
100
AcDbEntity
  8
0
100
AcDbLine
  6
BYLAYER
 62
3
 10
212.607106781186
 20
12.7071067811866
 11
227.492893218814
 21
12.7071067811866
  0
LINE
  5
242
100
AcDbEntity
  8
0
100
AcDbLine
  6
BYLAYER
 62
3
 10
212.607106781186
 20
18.7071067811866
 11
227.492893218814
 21
18.7071067811866
  0
LINE
  5
243
100
AcDbEntity
  8
0
100
AcDbLine
  6
BYLAYER
 62
3
 10
228.907106781187
 20
24.7071067811866
 11
243.792893218814
 21
24.7071067811866
  0
LINE
  5
244
100
AcDbEntity
  8
0
100
AcDbLine
  6
BYLAYER
 62
3
 10
228.907106781187
 20
30.7071067811865
 11
243.792893218814
 21
30.7071067811865
  0
LINE
  5
245
100
AcDbEntity
  8
0
100
AcDbLine
  6
BYLAYER
 62
3
 10
228.907106781187
 20
36.7071067811866
 11
243.792893218814
 21
36.7071067811866
  0
LINE
  5
246
100
AcDbEntity
  8
0
100
AcDbLine
  6
BYLAYER
 62
3
 10
212.607106781186
 20
24.7071067811866
 11
227.492893218814
 21
24.7071067811866
  0
LINE
  5
247
100
AcDbEntity
  8
0
100
AcDbLine
  6
BYLAYER
 62
3
 10
212.607106781186
 20
30.7071067811865
 11
227.492893218814
 21
30.7071067811865
  0
LINE
  5
248
100
AcDbEntity
  8
0
100
AcDbLine
  6
BYLAYER
 62
3
 10
212.607106781186
 20
36.7071067811866
 11
227.492893218814
 21
36.7071067811866
  0
TEXT
  5
249
100
AcDbEntity
  8
0
100
AcDbText
  6
BYLAYER
 10
219
 20
43.5
 40
3
  1
L
  7
Font_0
100
AcDbText
  0
TEXT
  5
24A
100
AcDbEntity
  8
0
100
AcDbText
  6
BYLAYER
 10
233.270544856686
 20
43.5
 40
3
  1
ｫﾈ､�
  7
Font_0
100
AcDbText
  0
ENDBLK
  5
24B
100
AcDbEntity
  8
0
 67
     1
100
AcDbBlockEnd
  0
BLOCK
  5
24C
100
AcDbEntity
  8
0
100
AcDbBlockBegin
  2
BASE
 70
    0
 10
0
 20
0
 30
0.0
  3
BASE
  1

  0
LINE
  5
24D
100
AcDbEntity
  8
0
100
AcDbLine
  6
BYLAYER
 10
0
 20
36
 11
278.4
 21
36
  0
LINE
  5
24E
100
AcDbEntity
  8
0
100
AcDbLine
  6
BYLAYER
 10
0
 20
12
 11
278.4
 21
12
  0
LINE
  5
24F
100
AcDbEntity
  8
0
100
AcDbLine
  6
BYLAYER
 10
0
 20
6
 11
278.4
 21
6
  0
LINE
  5
250
100
AcDbEntity
  8
0
100
AcDbLine
  6
BYLAYER
 10
0
 20
0
 11
278.4
 21
0
  0
LINE
  5
251
100
AcDbEntity
  8
0
100
AcDbLine
  6
BYLAYER
 10
278.4
 20
186
 11
0
 21
186
  0
LINE
  5
252
100
AcDbEntity
  8
0
100
AcDbLine
  6
BYLAYER
 10
96.85
 20
30
 11
278.4
 21
30
  0
LINE
  5
253
100
AcDbEntity
  8
0
100
AcDbLine
  6
BYLAYER
 10
96.85
 20
24
 11
278.4
 21
24
  0
LINE
  5
254
100
AcDbEntity
  8
0
100
AcDbLine
  6
BYLAYER
 10
96.85
 20
18
 11
278.4
 21
18
  0
LINE
  5
255
100
AcDbEntity
  8
0
100
AcDbLine
  6
BYLAYER
 10
0
 20
0
 11
0
 21
186
  0
TEXT
  5
256
100
AcDbEntity
  8
0
100
AcDbText
  6
BYLAYER
 10
22.1680110084321
 20
15.7553550725962
 40
2.8
  1
CAM YORK INDUSTRIAL CO.,LTD.
  7
Font_0
100
AcDbText
  0
TEXT
  5
257
100
AcDbEntity
  8
0
100
AcDbText
  6
BYLAYER
 10
22.0468952754036
 20
26
 40
7
  1
ｫﾘｷﾔ､uｷ~ｪﾑ･ｳｭｭ､ｽ･q
  7
Font_0
100
AcDbText
  0
TEXT
  5
258
100
AcDbEntity
  8
0
100
AcDbText
  6
BYLAYER
 10
63.8643398403977
 20
7.09411371042404
 40
2.8
  1
(04)3322629
  7
Font_0
100
AcDbText
  0
LINE
  5
259
100
AcDbEntity
  8
0
100
AcDbLine
  6
BYLAYER
 10
10.1054905349494
 20
28.7603510666656
 11
15.2233703294355
 21
28.7603510666656
  0
CIRCLE
  5
25A
100
AcDbEntity
  8
0
100
AcDbCircle
  6
BYLAYER
 10
10.1054905349494
 20
24.350263158651
 40
9.36463111331499
  0
CIRCLE
  5
25B
100
AcDbEntity
  8
0
100
AcDbCircle
  6
BYLAYER
 10
10.1054905349494
 20
24.350263158651
 40
7.62237416200057
  0
ARC
  5
25C
100
AcDbEntity
  8
0
100
AcDbCircle
  6
BYLAYER
 10
10.1054905349494
 20
24.350263158651
 40
4.41008790801462
100
AcDbArc
 50
90
 51
0
  0
LINE
  5
25D
100
AcDbEntity
  8
0
100
AcDbLine
  6
BYLAYER
 10
13
 20
12
 11
13
 21
0
  0
TEXT
  5
25E
100
AcDbEntity
  8
0
100
AcDbText
  6
BYLAYER
 10
2.6
 20
7.3
 40
3
  1
TEL
  7
Font_0
100
AcDbText
  0
TEXT
  5
25F
100
AcDbEntity
  8
0
100
AcDbText
  6
BYLAYER
 10
3.5
 20
1.5
 40
3
  1
ｳﾆｵ�
  7
Font_0
 72
1
 11
6.5
 21
3
100
AcDbText
 73
2
  0
ARC
  5
260
100
AcDbEntity
  8
0
100
AcDbCircle
  6
BYLAYER
 10
10.5745216067836
 20
32.8983997393573
 40
0.704372460813671
100
AcDbArc
 50
83.8529806316668
 51
239.250071636948
  0
ARC
  5
261
100
AcDbEntity
  8
0
100
AcDbCircle
  6
BYLAYER
 10
6.23761506796892
 20
31.9876821284788
 40
0.704372460813671
100
AcDbArc
 50
113.852980631667
 51
269.250071636948
  0
ARC
  5
262
100
AcDbEntity
  8
0
100
AcDbCircle
  6
BYLAYER
 10
2.46807156512152
 20
20.4823876916705
 40
0.704372460813671
100
AcDbArc
 50
203.852980631667
 51
359.250071636948
  0
ARC
  5
263
100
AcDbEntity
  8
0
100
AcDbCircle
  6
BYLAYER
 10
9.63645946311512
 20
15.8021265779447
 40
0.704372460813671
100
AcDbArc
 50
263.852980631667
 51
59.2500716369476
  0
ARC
  5
264
100
AcDbEntity
  8
0
100
AcDbCircle
  6
BYLAYER
 10
5.4252294212235
 20
17.1818752606574
 40
0.704372460813671
100
AcDbArc
 50
233.852980631667
 51
29.2500716369476
  0
ARC
  5
265
100
AcDbEntity
  8
0
100
AcDbCircle
  6
BYLAYER
 10
1.55735395424306
 20
24.8192942304852
 40
0.704372460813671
100
AcDbArc
 50
173.852980631667
 51
329.250071636948
  0
ARC
  5
266
100
AcDbEntity
  8
0
100
AcDbCircle
  6
BYLAYER
 10
2.93710263695578
 20
29.0305242723768
 40
0.704372460813671
100
AcDbArc
 50
143.852980631667
 51
299.250071636948
  0
TEXT
  5
267
100
AcDbEntity
  8
0
100
AcDbText
  6
BYLAYER
 10
7.49210581170385
 20
21.8477388856442
 40
5
  1
Y
  7
Font_0
100
AcDbText
  0
TEXT
  5
268
100
AcDbEntity
  8
0
100
AcDbText
  6
BYLAYER
 10
42.3478047909238
 20
7.2
 40
2.8
  1
~8
  7
Font_0
100
AcDbText
  0
TEXT
  5
269
100
AcDbEntity
  8
0
100
AcDbText
  6
BYLAYER
 10
13.8764304985659
 20
7.2
 40
2.8
  1
(04)3322627
  7
Font_0
100
AcDbText
  0
TEXT
  5
26A
100
AcDbEntity
  8
0
100
AcDbText
  6
BYLAYER
 10
51
 20
7.2
 40
3
  1
FAX
  7
Font_0
100
AcDbText
  0
LINE
  5
26B
100
AcDbEntity
  8
0
100
AcDbLine
  6
BYLAYER
 10
48
 20
12
 11
48
 21
6
  0
LINE
  5
26C
100
AcDbEntity
  8
0
100
AcDbLine
  6
BYLAYER
 10
62
 20
12
 11
62
 21
6
  0
ARC
  5
26D
100
AcDbEntity
  8
0
100
AcDbCircle
  6
BYLAYER
 10
14.7857516486752
 20
31.5186510566446
 40
0.704372460813671
100
AcDbArc
 50
53.8529806316668
 51
209.250071636948
  0
ARC
  5
26E
100
AcDbEntity
  8
0
100
AcDbCircle
  6
BYLAYER
 10
17.273878432943
 20
19.6700020449251
 40
0.704372460813671
100
AcDbArc
 50
323.852980631667
 51
119.250071636948
  0
ARC
  5
26F
100
AcDbEntity
  8
0
100
AcDbCircle
  6
BYLAYER
 10
13.9733660019298
 20
16.7128441888231
 40
0.704372460813671
100
AcDbArc
 50
293.852980631667
 51
89.2500716369476
  0
LINE
  5
270
100
AcDbEntity
  8
0
100
AcDbLine
  6
BYLAYER
 10
14.515578442964
 20
24.350263158651
 11
15.4411524483498
 21
24.350263158651
  0
ARC
  5
271
100
AcDbEntity
  8
0
100
AcDbCircle
  6
BYLAYER
 10
18.6536271156557
 20
23.8812320868167
 40
0.704372460813671
100
AcDbArc
 50
353.852980631667
 51
149.250071636948
  0
ARC
  5
272
100
AcDbEntity
  8
0
100
AcDbCircle
  6
BYLAYER
 10
17.7429095047772
 20
28.2181386256314
 40
0.704372460813671
100
AcDbArc
 50
23.8529806316668
 51
179.250071636948
  0
TEXT
  5
273
100
AcDbEntity
  8
0
100
AcDbText
  6
BYLAYER
 10
100.4
 20
7.4
 40
3
  1
ｫ~ ｦW
  7
Font_0
100
AcDbText
  0
LINE
  5
274
100
AcDbEntity
  8
0
100
AcDbLine
  6
BYLAYER
 10
144
 20
36
 11
144
 21
0
  0
LINE
  5
275
100
AcDbEntity
  8
0
100
AcDbLine
  6
BYLAYER
 10
114
 20
36
 11
114
 21
0
  0
LINE
  5
276
100
AcDbEntity
  8
0
100
AcDbLine
  6
BYLAYER
 10
97.15
 20
36
 11
97.15
 21
0
  0
LINE
  5
277
100
AcDbEntity
  8
0
100
AcDbLine
  6
BYLAYER
 10
96.85
 20
36
 11
96.85
 21
0
  0
TEXT
  5
278
100
AcDbEntity
  8
0
100
AcDbText
  6
BYLAYER
 10
100.4
 20
1.6
 40
3
  1
ｹﾏ ｸｹ
  7
Font_0
100
AcDbText
  0
TEXT
  5
279
100
AcDbEntity
  8
0
100
AcDbText
  6
BYLAYER
 10
100.4
 20
31.6
 40
3
  1
･D ｺﾞ
  7
Font_0
100
AcDbText
  0
TEXT
  5
27A
100
AcDbEntity
  8
0
100
AcDbText
  6
BYLAYER
 10
100.4
 20
19.6
 40
3
  1
ﾃｸ ｹﾏ
  7
Font_0
100
AcDbText
  0
TEXT
  5
27B
100
AcDbEntity
  8
0
100
AcDbText
  6
BYLAYER
 10
100.4
 20
13.8
 40
3
  1
ｾ� ｺﾘ
  7
Font_0
100
AcDbText
  0
TEXT
  5
27C
100
AcDbEntity
  8
0
100
AcDbText
  6
BYLAYER
 10
100.4
 20
25.4
 40
3
  1
ｮﾖ ｹ�
  7
Font_0
100
AcDbText
  0
LINE
  5
27D
100
AcDbEntity
  8
0
100
AcDbLine
  6
BYLAYER
 10
195.15
 20
36
 11
195.15
 21
0
  0
LINE
  5
27E
100
AcDbEntity
  8
0
100
AcDbLine
  6
BYLAYER
 10
194.85
 20
36
 11
194.85
 21
0
  0
LINE
  5
27F
100
AcDbEntity
  8
0
100
AcDbLine
  6
BYLAYER
 10
195.025
 20
36
 11
195.025
 21
0
  0
LINE
  5
280
100
AcDbEntity
  8
0
100
AcDbLine
  6
BYLAYER
 10
163
 20
36
 11
163
 21
0
  0
TEXT
  5
281
100
AcDbEntity
  8
0
100
AcDbText
  6
BYLAYER
 10
146.967830348543
 20
7.5
 40
3
  1
ｪ揵ｱｳBｲz
  7
Font_0
100
AcDbText
  0
TEXT
  5
282
100
AcDbEntity
  8
0
100
AcDbText
  6
BYLAYER
 10
146.967830348543
 20
1.5
 40
3
  1
ｻsｹﾏ､魘ﾁ
  7
Font_0
100
AcDbText
  0
TEXT
  5
283
100
AcDbEntity
  8
0
100
AcDbText
  6
BYLAYER
 10
148.5
 20
31.5
 40
3
  1
ｧ� ｽ�
  7
Font_0
100
AcDbText
  0
TEXT
  5
284
100
AcDbEntity
  8
0
100
AcDbText
  6
BYLAYER
 10
148.5
 20
19.5
 40
3
  1
ｼﾆ ｶq
  7
Font_0
100
AcDbText
  0
TEXT
  5
285
100
AcDbEntity
  8
0
100
AcDbText
  6
BYLAYER
 10
148.5
 20
13.5
 40
3
  1
ｳ� ｦ�
  7
Font_0
100
AcDbText
  0
TEXT
  5
286
100
AcDbEntity
  8
0
100
AcDbText
  6
BYLAYER
 10
148.5
 20
25.5
 40
3
  1
､� ｨﾒ
  7
Font_0
100
AcDbText
  0
TEXT
  5
287
100
AcDbEntity
  8
0
100
AcDbText
  6
BYLAYER
 10
200.830454348633
 20
31.5
 40
3
  1
､魘ﾁ
  7
Font_0
100
AcDbText
  0
LINE
  5
288
100
AcDbEntity
  8
0
100
AcDbLine
  6
BYLAYER
 10
278.4
 20
186
 11
278.4
 21
0
  0
LINE
  5
289
100
AcDbEntity
  8
0
100
AcDbLine
  6
BYLAYER
 10
269.7178125
 20
135.285
 11
269.7178125
 21
151.27125
  0
LINE
  5
28A
100
AcDbEntity
  8
0
100
AcDbLine
  6
BYLAYER
 10
261.035625
 20
135.285
 11
261.035625
 21
151.27125
  0
LINE
  5
28B
100
AcDbEntity
  8
0
100
AcDbLine
  6
BYLAYER
 10
252.3534375
 20
135.285
 11
252.3534375
 21
151.27125
  0
LINE
  5
28C
100
AcDbEntity
  8
0
100
AcDbLine
  6
BYLAYER
 10
243.67125
 20
135.285
 11
243.67125
 21
180.4875
  0
LINE
  5
28D
100
AcDbEntity
  8
0
100
AcDbLine
  6
BYLAYER
 10
221.07
 20
135.285
 11
221.07
 21
180.4875
  0
LINE
  5
28E
100
AcDbEntity
  8
0
100
AcDbLine
  6
BYLAYER
 10
216.66
 20
135.285
 11
216.66
 21
186
  0
LINE
  5
28F
100
AcDbEntity
  8
0
100
AcDbLine
  6
BYLAYER
 10
213
 20
36
 11
213
 21
0
  0
LINE
  5
290
100
AcDbEntity
  8
0
100
AcDbLine
  6
BYLAYER
 10
232
 20
36
 11
232
 21
0
  0
TEXT
  5
291
100
AcDbEntity
  8
0
100
AcDbText
  6
BYLAYER
 10
235
 20
31.5
 40
3
  1
ｧ�   ｧ�   ､ｺ   ｮe
  7
Font_0
100
AcDbText
  0
TEXT
  5
292
100
AcDbEntity
  8
0
100
AcDbText
  6
BYLAYER
 10
218.659856969007
 20
31.5
 40
3
  1
ｭtｳd､H
  7
Font_0
100
AcDbText
  0
LINE
  5
293
100
AcDbEntity
  8
0
100
AcDbLine
  6
BYLAYER
 10
278.4
 20
139.695
 11
221.07
 21
139.695
  0
LINE
  5
294
100
AcDbEntity
  8
0
100
AcDbLine
  6
BYLAYER
 10
278.4
 20
135.285
 11
216.66
 21
135.285
  0
TEXT
  5
295
100
AcDbEntity
  8
0
100
AcDbText
  6
BYLAYER
 10
246.15416478566
 20
128.207003496756
 40
2
  1
projection ｲﾄ､Tｨ､ｧ�ｼv
  7
Font_0
100
AcDbText
  0
LINE
  5
296
100
AcDbEntity
  8
0
100
AcDbLine
  6
BYLAYER
 10
278.4
 20
113.78625
 11
243.67125
 21
113.78625
  0
TEXT
  5
297
100
AcDbEntity
  8
0
100
AcDbText
  6
BYLAYER
 10
271.4339125
 20
144.733125
 40
1.5
  1
100･H､W
  7
Font_0
 72
1
 11
274.0589125
 21
145.483125
100
AcDbText
 73
2
  0
TEXT
  5
298
100
AcDbEntity
  8
0
100
AcDbText
  6
BYLAYER
 10
272.1839125
 20
136.74
 40
1.5
  1
±10'
  7
Font_0
 72
1
 11
274.0589125
 21
137.49
100
AcDbText
 73
2
  0
MTEXT
  5
299
100
AcDbEntity
  8
0
100
AcDbMText
 10
232.37065
 20
145.483125
 40
2
 41
  0.0
  1
､ｽｺﾙ､ﾘ､o (ｪﾗ)\Pｧｨｦｨｨ､､ｧｵuﾃ荀@､�
 71
5
  7
Font_0
  0
TEXT
  5
29A
100
AcDbEntity
  8
0
100
AcDbText
  6
BYLAYER
 10
217.365
 20
147.778125
 40
3
  1
ｪｽｨ､ｫﾗ
  7
Font_1
 50
270
 11
218.865
 21
147.778125
100
AcDbText
 73
2
  0
TEXT
  5
29B
100
AcDbEntity
  8
0
100
AcDbText
  6
BYLAYER
 10
227.87065
 20
135.99
 40
3
  1
ｨ､ｫﾗｮt
  7
Font_0
 72
1
 11
232.37065
 21
137.49
100
AcDbText
 73
2
  0
LINE
  5
29C
100
AcDbEntity
  8
0
100
AcDbLine
  6
BYLAYER
 10
254.802068029839
 20
115.173423624616
 11
254.802068029839
 21
126.198423624616
  0
LINE
  5
29D
100
AcDbEntity
  8
0
100
AcDbLine
  6
BYLAYER
 10
243.67125
 20
113.78625
 11
243.67125
 21
135.285
  0
CIRCLE
  5
29E
100
AcDbEntity
  8
0
100
AcDbCircle
  6
BYLAYER
 10
254.802068029839
 20
120.685923624616
 40
4.41
  0
LINE
  5
29F
100
AcDbEntity
  8
0
100
AcDbLine
  6
BYLAYER
 10
249.289568029839
 20
120.685923624616
 11
260.314568029839
 21
120.685923624616
  0
CIRCLE
  5
2A0
100
AcDbEntity
  8
0
100
AcDbCircle
  6
BYLAYER
 10
254.802068029839
 20
120.685923624616
 40
2.205
  0
LINE
  5
2A1
100
AcDbEntity
  8
0
100
AcDbLine
  6
BYLAYER
 10
263.194180551461
 20
120.685923624616
 11
274.770430551461
 21
120.685923624616
  0
LWPOLYLINE
  5
2A2
100
AcDbEntity
  8
0
100
AcDbPolyline
  6
BYLAYER
370
0
 90
     4
 70
     1
 10
264.296680551461
  20
118.480923624616
 10
273.667930551461
  20
116.275923624616
 10
273.667930551461
  20
125.095923624616
 10
264.296680551461
  20
122.890923624616
  0
TEXT
  5
2A3
100
AcDbEntity
  8
0
100
AcDbText
  6
BYLAYER
 10
245.828721587618
 20
131.605971951227
 40
2
  1
Third angle
  7
Font_0
100
AcDbText
  0
MTEXT
  5
2A4
100
AcDbEntity
  8
0
100
AcDbMText
 10
256.6945375
 20
145.483125
 40
1.5
 41
  0.0
  1
10･H､W\P50･H､U
 71
5
  7
Font_0
  0
TEXT
  5
2A5
100
AcDbEntity
  8
0
100
AcDbText
  6
BYLAYER
 10
246.13735
 20
136.74
 40
1.5
  1
±1°
  7
Font_0
 72
1
 11
248.01235
 21
137.49
100
AcDbText
 73
2
  0
TEXT
  5
2A6
100
AcDbEntity
  8
0
100
AcDbText
  6
BYLAYER
 10
254.8195375
 20
136.74
 40
1.5
  1
±30'
  7
Font_0
 72
1
 11
256.6945375
 21
137.49
100
AcDbText
 73
2
  0
TEXT
  5
2A7
100
AcDbEntity
  8
0
100
AcDbText
  6
BYLAYER
 10
245.76235
 20
144.733125
 40
1.5
  1
10･H､U
  7
Font_0
 72
1
 11
248.01235
 21
145.483125
100
AcDbText
 73
2
  0
TEXT
  5
2A8
100
AcDbEntity
  8
0
100
AcDbText
  6
BYLAYER
 10
263.501725
 20
136.74
 40
1.5
  1
±20'
  7
Font_0
 72
1
 11
265.376725
 21
137.49
100
AcDbText
 73
2
  0
MTEXT
  5
2A9
100
AcDbEntity
  8
0
100
AcDbMText
 10
265.376725
 20
145.483125
 40
1.5
 41
  0.0
  1
50･H､W\P100･H､U
 71
5
  7
Font_0
  0
LINE
  5
2AA
100
AcDbEntity
  8
0
100
AcDbLine
  6
BYLAYER
 10
221.07
 20
155.68125
 11
278.4
 21
155.68125
  0
LINE
  5
2AB
100
AcDbEntity
  8
0
100
AcDbLine
  6
BYLAYER
 10
221.07
 20
160.09125
 11
278.4
 21
160.09125
  0
LINE
  5
2AC
100
AcDbEntity
  8
0
100
AcDbLine
  6
BYLAYER
 10
221.07
 20
164.50125
 11
278.4
 21
164.50125
  0
LINE
  5
2AD
100
AcDbEntity
  8
0
100
AcDbLine
  6
BYLAYER
 10
221.07
 20
168.91125
 11
278.4
 21
168.91125
  0
LINE
  5
2AE
100
AcDbEntity
  8
0
100
AcDbLine
  6
BYLAYER
 10
221.07
 20
173.32125
 11
278.4
 21
173.32125
  0
LINE
  5
2AF
100
AcDbEntity
  8
0
100
AcDbLine
  6
BYLAYER
 10
216.66
 20
151.27125
 11
278.4
 21
151.27125
  0
LINE
  5
2B0
100
AcDbEntity
  8
0
100
AcDbLine
  6
BYLAYER
 10
216.66
 20
180.4875
 11
278.4
 21
180.4875
  0
TEXT
  5
2B1
100
AcDbEntity
  8
0
100
AcDbText
  6
BYLAYER
 10
269.1119
 20
175.154375
 40
3.5
  1
ｲﾊｯﾅ
  7
Font_0
 72
1
 11
272.6119
 21
176.904375
100
AcDbText
 73
2
  0
LINE
  5
2B2
100
AcDbEntity
  8
0
100
AcDbLine
  6
BYLAYER
 10
243.67125
 20
173.32125
 11
232.06971689676
 21
180.4875
  0
TEXT
  5
2B3
100
AcDbEntity
  8
0
100
AcDbText
  6
BYLAYER
 10
230.03
 20
181.49375
 40
3.5
  1
ｦｨ ｫ~ ､ｧ ｴｶ ｳq ､ｽ ｮt
  7
Font_0
 72
1
 11
247.53
 21
183.24375
100
AcDbText
 73
2
  0
TEXT
  5
2B4
100
AcDbEntity
  8
0
100
AcDbText
  6
BYLAYER
 10
228.24565
 20
170.36625
 40
1.5
  1
1･H､W~4･H､U
  7
Font_0
 72
1
 11
232.37065
 21
171.11625
100
AcDbText
 73
2
  0
TEXT
  5
2B5
100
AcDbEntity
  8
0
100
AcDbText
  6
BYLAYER
 10
227.49565
 20
161.54625
 40
1.5
  1
16･H､W~63･H､U
  7
Font_0
 72
1
 11
232.37065
 21
162.29625
100
AcDbText
 73
2
  0
TEXT
  5
2B6
100
AcDbEntity
  8
0
100
AcDbText
  6
BYLAYER
 10
227.12065
 20
157.13625
 40
1.5
  1
63･H､W~250･H､U
  7
Font_0
 72
1
 11
232.37065
 21
157.88625
100
AcDbText
 73
2
  0
TEXT
  5
2B7
100
AcDbEntity
  8
0
100
AcDbText
  6
BYLAYER
 10
226.37065
 20
152.72625
 40
1.5
  1
250･H､W~1000･H､U
  7
Font_0
 72
1
 11
232.37065
 21
153.47625
100
AcDbText
 73
2
  0
MTEXT
  5
2B8
100
AcDbEntity
  8
0
100
AcDbMText
 10
218.865
 20
168.879375
 40
3
 41
  0.0
  1
ｪﾗ
 71
4
  7
Font_1
 11
-1.83690953073357E-16
 21
-1
  0
TEXT
  5
2B9
100
AcDbEntity
  8
0
100
AcDbText
  6
BYLAYER
 10
227.87065
 20
165.95625
 40
1.5
  1
4･H､W~16･H､U
  7
Font_0
 72
1
 11
232.37065
 21
166.70625
100
AcDbText
 73
2
  0
TEXT
  5
2BA
100
AcDbEntity
  8
0
100
AcDbText
  6
BYLAYER
 10
221.354797302298
 20
174.015263609177
 40
1.7
  1
､ｽｺﾙ､ﾘ､oｹｺ､ﾀm/m
  7
Font_0
100
AcDbText
  0
TEXT
  5
2BB
100
AcDbEntity
  8
0
100
AcDbText
  6
BYLAYER
 10
237.865638127741
 20
177.454836298923
 40
1.7
  1
ｵ･ｯﾅ
  7
Font_0
100
AcDbText
  0
LINE
  5
2BC
100
AcDbEntity
  8
0
100
AcDbLine
  6
BYLAYER
 10
266.82375
 20
151.27125
 11
266.82375
 21
180.4875
  0
LINE
  5
2BD
100
AcDbEntity
  8
0
100
AcDbLine
  6
BYLAYER
 10
255.2475
 20
151.27125
 11
255.2475
 21
180.4875
  0
TEXT
  5
2BE
100
AcDbEntity
  8
0
100
AcDbText
  6
BYLAYER
 10
247.2094
 20
170.36625
 40
1.5
  1
±0.05
  7
Font_0
 72
1
 11
249.4594
 21
171.11625
100
AcDbText
 73
2
  0
TEXT
  5
2BF
100
AcDbEntity
  8
0
100
AcDbText
  6
BYLAYER
 10
258.78565
 20
170.36625
 40
1.5
  1
±0.10
  7
Font_0
 72
1
 11
261.03565
 21
171.11625
100
AcDbText
 73
2
  0
TEXT
  5
2C0
100
AcDbEntity
  8
0
100
AcDbText
  6
BYLAYER
 10
270.3619
 20
170.36625
 40
1.5
  1
±0.30
  7
Font_0
 72
1
 11
272.6119
 21
171.11625
100
AcDbText
 73
2
  0
TEXT
  5
2C1
100
AcDbEntity
  8
0
100
AcDbText
  6
BYLAYER
 10
258.78565
 20
165.95625
 40
1.5
  1
±0.20
  7
Font_0
 72
1
 11
261.03565
 21
166.70625
100
AcDbText
 73
2
  0
TEXT
  5
2C2
100
AcDbEntity
  8
0
100
AcDbText
  6
BYLAYER
 10
258.78565
 20
161.54625
 40
1.5
  1
±0.30
  7
Font_0
 72
1
 11
261.03565
 21
162.29625
100
AcDbText
 73
2
  0
TEXT
  5
2C3
100
AcDbEntity
  8
0
100
AcDbText
  6
BYLAYER
 10
258.78565
 20
157.13625
 40
1.5
  1
±0.50
  7
Font_0
 72
1
 11
261.03565
 21
157.88625
100
AcDbText
 73
2
  0
TEXT
  5
2C4
100
AcDbEntity
  8
0
100
AcDbText
  6
BYLAYER
 10
258.78565
 20
152.72625
 40
1.5
  1
±0.80
  7
Font_0
 72
1
 11
261.03565
 21
153.47625
100
AcDbText
 73
2
  0
TEXT
  5
2C5
100
AcDbEntity
  8
0
100
AcDbText
  6
BYLAYER
 10
247.2094
 20
157.13625
 40
1.5
  1
±0.20
  7
Font_0
 72
1
 11
249.4594
 21
157.88625
100
AcDbText
 73
2
  0
TEXT
  5
2C6
100
AcDbEntity
  8
0
100
AcDbText
  6
BYLAYER
 10
247.2094
 20
152.72625
 40
1.5
  1
±0.30
  7
Font_0
 72
1
 11
249.4594
 21
153.47625
100
AcDbText
 73
2
  0
TEXT
  5
2C7
100
AcDbEntity
  8
0
100
AcDbText
  6
BYLAYER
 10
247.2094
 20
165.95625
 40
1.5
  1
±0.07
  7
Font_0
 72
1
 11
249.4594
 21
166.70625
100
AcDbText
 73
2
  0
TEXT
  5
2C8
100
AcDbEntity
  8
0
100
AcDbText
  6
BYLAYER
 10
247.2094
 20
161.54625
 40
1.5
  1
±0.10
  7
Font_0
 72
1
 11
249.4594
 21
162.29625
100
AcDbText
 73
2
  0
TEXT
  5
2C9
100
AcDbEntity
  8
0
100
AcDbText
  6
BYLAYER
 10
270.3619
 20
152.72625
 40
1.5
  1
±2.00
  7
Font_0
 72
1
 11
272.6119
 21
153.47625
100
AcDbText
 73
2
  0
TEXT
  5
2CA
100
AcDbEntity
  8
0
100
AcDbText
  6
BYLAYER
 10
270.3619
 20
157.13625
 40
1.5
  1
±1.20
  7
Font_0
 72
1
 11
272.6119
 21
157.88625
100
AcDbText
 73
2
  0
TEXT
  5
2CB
100
AcDbEntity
  8
0
100
AcDbText
  6
BYLAYER
 10
270.3619
 20
161.54625
 40
1.5
  1
±0.70
  7
Font_0
 72
1
 11
272.6119
 21
162.29625
100
AcDbText
 73
2
  0
TEXT
  5
2CC
100
AcDbEntity
  8
0
100
AcDbText
  6
BYLAYER
 10
270.3619
 20
165.95625
 40
1.5
  1
±0.50
  7
Font_0
 72
1
 11
272.6119
 21
166.70625
100
AcDbText
 73
2
  0
TEXT
  5
2CD
100
AcDbEntity
  8
0
100
AcDbText
  6
BYLAYER
 10
257.5356
 20
175.154375
 40
3.5
  1
､､ｯﾅ
  7
Font_0
 72
1
 11
261.0356
 21
176.904375
100
AcDbText
 73
2
  0
TEXT
  5
2CE
100
AcDbEntity
  8
0
100
AcDbText
  6
BYLAYER
 10
245.9594
 20
175.154375
 40
3.5
  1
ｲﾓｯﾅ
  7
Font_0
 72
1
 11
249.4594
 21
176.904375
100
AcDbText
 73
2
  0
ENDBLK
  5
2CF
100
AcDbEntity
  8
0
 67
     1
100
AcDbBlockEnd
  0
BLOCK
  5
2D0
100
AcDbEntity
  8
0
100
AcDbBlockBegin
  2
LIST
 70
    0
 10
0
 20
0
 30
0.0
  3
LIST
  1

  0
LINE
  5
2D1
100
AcDbEntity
  8
TEXT
100
AcDbLine
  6
BYLAYER
 10
-2.84E-14
 20
48
 11
83.2499999999999
 21
48
  0
LINE
  5
2D2
100
AcDbEntity
  8
TEXT
100
AcDbLine
  6
BYLAYER
 10
-2.84E-14
 20
42
 11
83.2499999999999
 21
42
  0
LINE
  5
2D3
100
AcDbEntity
  8
TEXT
100
AcDbLine
  6
BYLAYER
 10
-2.84E-14
 20
36
 11
83.2499999999999
 21
36
  0
LINE
  5
2D4
100
AcDbEntity
  8
TEXT
100
AcDbLine
  6
BYLAYER
 10
-2.84E-14
 20
30
 11
83.2499999999999
 21
30
  0
LINE
  5
2D5
100
AcDbEntity
  8
TEXT
100
AcDbLine
  6
BYLAYER
 10
-2.84E-14
 20
24
 11
83.2499999999999
 21
24
  0
LINE
  5
2D6
100
AcDbEntity
  8
TEXT
100
AcDbLine
  6
BYLAYER
 10
-2.84E-14
 20
18
 11
83.2499999999999
 21
18
  0
LINE
  5
2D7
100
AcDbEntity
  8
TEXT
100
AcDbLine
  6
BYLAYER
 10
-2.84E-14
 20
12
 11
83.2499999999999
 21
12
  0
LINE
  5
2D8
100
AcDbEntity
  8
TEXT
100
AcDbLine
  6
BYLAYER
 10
-2.84E-14
 20
5.99999999999997
 11
83.2499999999999
 21
6
  0
TEXT
  5
2D9
100
AcDbEntity
  8
TEXT
100
AcDbText
  6
BYLAYER
 10
8.82499999999999
 20
18.7071067811865
 40
3.5
  1
C
  7
Font_0
 72
1
 11
9.69999999999999
 21
18.7071067811865
100
AcDbText
  0
LINE
  5
2DA
100
AcDbEntity
  8
TEXT
100
AcDbLine
  6
BYLAYER
 10
0
 20
48
 11
0
 21
0
  0
TEXT
  5
2DB
100
AcDbEntity
  8
TEXT
100
AcDbText
  6
BYLAYER
 10
8.82499999999999
 20
6.70710678118655
 40
3.5
  1
A
  7
Font_0
 72
1
 11
9.69999999999999
 21
6.70710678118655
100
AcDbText
  0
TEXT
  5
2DC
100
AcDbEntity
  8
TEXT
100
AcDbText
  6
BYLAYER
 10
6.49999999999997
 20
0.707106781186553
 40
3.5
  1
ｶｵｦｸ
  7
Font_0
 72
1
 11
9.99999999999997
 21
0.707106781186553
100
AcDbText
  0
TEXT
  5
2DD
100
AcDbEntity
  8
TEXT
100
AcDbText
  6
BYLAYER
 10
8.82499999999999
 20
12.7071067811866
 40
3.5
  1
B
  7
Font_0
 72
1
 11
9.69999999999999
 21
12.7071067811866
100
AcDbText
  0
TEXT
  5
2DE
100
AcDbEntity
  8
TEXT
100
AcDbText
  6
BYLAYER
 10
8.82499999999999
 20
42.7071067811866
 40
3.5
  1
G
  7
Font_0
 72
1
 11
9.69999999999999
 21
42.7071067811866
100
AcDbText
  0
TEXT
  5
2DF
100
AcDbEntity
  8
TEXT
100
AcDbText
  6
BYLAYER
 10
8.82499999999999
 20
30.7071067811865
 40
3.5
  1
E
  7
Font_0
 72
1
 11
9.69999999999999
 21
30.7071067811865
100
AcDbText
  0
TEXT
  5
2E0
100
AcDbEntity
  8
TEXT
100
AcDbText
  6
BYLAYER
 10
8.82499999999999
 20
24.7071067811866
 40
3.5
  1
D
  7
Font_0
 72
1
 11
9.69999999999999
 21
24.7071067811866
100
AcDbText
  0
TEXT
  5
2E1
100
AcDbEntity
  8
TEXT
100
AcDbText
  6
BYLAYER
 10
8.82499999999999
 20
36.7071067811866
 40
3.5
  1
F
  7
Font_0
 72
1
 11
9.69999999999999
 21
36.7071067811866
100
AcDbText
  0
TEXT
  5
2E2
100
AcDbEntity
  8
TEXT
100
AcDbText
  6
BYLAYER
 10
77.3935238436447
 20
18.7071067811866
 40
3.5
  1
1
  7
Font_0
 72
1
 11
78.2685238436447
 21
18.7071067811866
100
AcDbText
  0
TEXT
  5
2E3
100
AcDbEntity
  8
TEXT
100
AcDbText
  6
BYLAYER
 10
20.7
 20
18.7071067811866
 40
3.5
  1
A
  7
Font_0
100
AcDbText
  0
LINE
  5
2E4
100
AcDbEntity
  8
TEXT
100
AcDbLine
  6
BYLAYER
 10
73.8870476872896
 20
48
 11
73.8870476872896
 21
-1.42E-14
  0
LINE
  5
2E5
100
AcDbEntity
  8
TEXT
100
AcDbLine
  6
BYLAYER
 10
20
 20
48
 11
20
 21
0
  0
TEXT
  5
2E6
100
AcDbEntity
  8
TEXT
100
AcDbText
  6
BYLAYER
 10
75.0685238436447
 20
0.707106781186553
 40
3.5
  1
ｼﾆｶq
  7
Font_0
 72
1
 11
78.5685238436447
 21
0.707106781186553
100
AcDbText
  0
TEXT
  5
2E7
100
AcDbEntity
  8
TEXT
100
AcDbText
  6
BYLAYER
 10
37.4837220734968
 20
0.707106781186553
 40
3.5
  1
ｹﾏ       ｸｹ
  7
Font_0
 72
1
 11
47.1087220734968
 21
0.707106781186553
100
AcDbText
  0
TEXT
  5
2E8
100
AcDbEntity
  8
TEXT
100
AcDbText
  6
BYLAYER
 10
20.7
 20
6.70710678118656
 40
3.5
  1
A
  7
Font_0
100
AcDbText
  0
TEXT
  5
2E9
100
AcDbEntity
  8
TEXT
100
AcDbText
  6
BYLAYER
 10
20.7
 20
12.7071067811866
 40
3.5
  1
A
  7
Font_0
100
AcDbText
  0
TEXT
  5
2EA
100
AcDbEntity
  8
TEXT
100
AcDbText
  6
BYLAYER
 10
77.3935238436447
 20
6.70710678118656
 40
3.5
  1
1
  7
Font_0
 72
1
 11
78.2685238436447
 21
6.70710678118656
100
AcDbText
  0
TEXT
  5
2EB
100
AcDbEntity
  8
TEXT
100
AcDbText
  6
BYLAYER
 10
77.3935238436447
 20
12.7071067811866
 40
3.5
  1
1
  7
Font_0
 72
1
 11
78.2685238436447
 21
12.7071067811866
100
AcDbText
  0
TEXT
  5
2EC
100
AcDbEntity
  8
TEXT
100
AcDbText
  6
BYLAYER
 10
20.7
 20
42.7071067811866
 40
3.5
  1
A
  7
Font_0
100
AcDbText
  0
TEXT
  5
2ED
100
AcDbEntity
  8
TEXT
100
AcDbText
  6
BYLAYER
 10
20.7
 20
30.7071067811865
 40
3.5
  1
A
  7
Font_0
100
AcDbText
  0
TEXT
  5
2EE
100
AcDbEntity
  8
TEXT
100
AcDbText
  6
BYLAYER
 10
20.7
 20
24.7071067811866
 40
3.5
  1
A
  7
Font_0
100
AcDbText
  0
TEXT
  5
2EF
100
AcDbEntity
  8
TEXT
100
AcDbText
  6
BYLAYER
 10
20.7
 20
36.7071067811866
 40
3.5
  1
A
  7
Font_0
100
AcDbText
  0
TEXT
  5
2F0
100
AcDbEntity
  8
TEXT
100
AcDbText
  6
BYLAYER
 10
77.3935238436447
 20
42.7071067811866
 40
3.5
  1
1
  7
Font_0
 72
1
 11
78.2685238436447
 21
42.7071067811866
100
AcDbText
  0
TEXT
  5
2F1
100
AcDbEntity
  8
TEXT
100
AcDbText
  6
BYLAYER
 10
77.3935238436447
 20
30.7071067811865
 40
3.5
  1
1
  7
Font_0
 72
1
 11
78.2685238436447
 21
30.7071067811865
100
AcDbText
  0
TEXT
  5
2F2
100
AcDbEntity
  8
TEXT
100
AcDbText
  6
BYLAYER
 10
77.3935238436447
 20
24.7071067811866
 40
3.5
  1
1
  7
Font_0
 72
1
 11
78.2685238436447
 21
24.7071067811866
100
AcDbText
  0
TEXT
  5
2F3
100
AcDbEntity
  8
TEXT
100
AcDbText
  6
BYLAYER
 10
77.3935238436447
 20
36.7071067811866
 40
3.5
  1
1
  7
Font_0
 72
1
 11
78.2685238436447
 21
36.7071067811866
100
AcDbText
  0
ENDBLK
  5
2F4
100
AcDbEntity
  8
0
 67
     1
100
AcDbBlockEnd
  0
BLOCK
  5
2F5
100
AcDbEntity
  8
0
100
AcDbBlockBegin
  2
A4ｹﾏｮﾘ
 70
    0
 10
0
 20
0
 30
0.0
  3
A4ｹﾏｮﾘ
  1

  0
POINT
  5
2F6
100
AcDbEntity
  8
7475A
100
AcDbPoint
 10
289
 20
0
  0
LINE
  5
2F7
100
AcDbEntity
  8
0
100
AcDbLine
  6
BYLAYER
 10
0
 20
12
 11
278.4
 21
12
  0
LINE
  5
2F8
100
AcDbEntity
  8
0
100
AcDbLine
  6
BYLAYER
 10
0
 20
6
 11
278.4
 21
6
  0
LINE
  5
2F9
100
AcDbEntity
  8
0
100
AcDbLine
  6
BYLAYER
 10
96.85
 20
30
 11
278.4
 21
30
  0
LINE
  5
2FA
100
AcDbEntity
  8
0
100
AcDbLine
  6
BYLAYER
 10
96.85
 20
24
 11
278.4
 21
24
  0
LINE
  5
2FB
100
AcDbEntity
  8
0
100
AcDbLine
  6
BYLAYER
 10
96.85
 20
18
 11
278.4
 21
18
  0
TEXT
  5
2FC
100
AcDbEntity
  8
0
100
AcDbText
  6
BYLAYER
 10
22.1680110084321
 20
15.7553550725962
 40
2.8
  1
CAM YORK INDUSTRIAL CO.,LTD.
  7
Font_0
100
AcDbText
  0
TEXT
  5
2FD
100
AcDbEntity
  8
0
100
AcDbText
  6
BYLAYER
 10
22.0468952754036
 20
26
 40
7
  1
ｫﾘｷﾔ､uｷ~ｪﾑ･ｳｭｭ､ｽ･q
  7
Font_0
100
AcDbText
  0
TEXT
  5
2FE
100
AcDbEntity
  8
0
100
AcDbText
  6
BYLAYER
 10
63.8643398403977
 20
7.09411371042404
 40
2.8
  1
(04)3322629
  7
Font_0
100
AcDbText
  0
LINE
  5
2FF
100
AcDbEntity
  8
0
100
AcDbLine
  6
BYLAYER
 10
10.1054905349494
 20
28.7603510666656
 11
15.2233703294355
 21
28.7603510666656
  0
CIRCLE
  5
300
100
AcDbEntity
  8
0
100
AcDbCircle
  6
BYLAYER
 10
10.1054905349494
 20
24.350263158651
 40
9.36463111331499
  0
CIRCLE
  5
301
100
AcDbEntity
  8
0
100
AcDbCircle
  6
BYLAYER
 10
10.1054905349494
 20
24.350263158651
 40
7.62237416200057
  0
ARC
  5
302
100
AcDbEntity
  8
0
100
AcDbCircle
  6
BYLAYER
 10
10.1054905349494
 20
24.350263158651
 40
4.41008790801462
100
AcDbArc
 50
90
 51
0
  0
LINE
  5
303
100
AcDbEntity
  8
0
100
AcDbLine
  6
BYLAYER
 10
13
 20
12
 11
13
 21
0
  0
TEXT
  5
304
100
AcDbEntity
  8
0
100
AcDbText
  6
BYLAYER
 10
2.6
 20
7.3
 40
3
  1
TEL
  7
Font_0
100
AcDbText
  0
TEXT
  5
305
100
AcDbEntity
  8
0
100
AcDbText
  6
BYLAYER
 10
3.5
 20
1.5
 40
3
  1
ｳﾆｵ�
  7
Font_0
 72
1
 11
6.5
 21
3
100
AcDbText
 73
2
  0
ARC
  5
306
100
AcDbEntity
  8
0
100
AcDbCircle
  6
BYLAYER
 10
10.5745216067836
 20
32.8983997393573
 40
0.704372460813671
100
AcDbArc
 50
83.8529806316668
 51
239.250071636948
  0
ARC
  5
307
100
AcDbEntity
  8
0
100
AcDbCircle
  6
BYLAYER
 10
6.23761506796892
 20
31.9876821284788
 40
0.704372460813671
100
AcDbArc
 50
113.852980631667
 51
269.250071636948
  0
ARC
  5
308
100
AcDbEntity
  8
0
100
AcDbCircle
  6
BYLAYER
 10
2.46807156512152
 20
20.4823876916705
 40
0.704372460813671
100
AcDbArc
 50
203.852980631667
 51
359.250071636948
  0
ARC
  5
309
100
AcDbEntity
  8
0
100
AcDbCircle
  6
BYLAYER
 10
9.63645946311512
 20
15.8021265779447
 40
0.704372460813671
100
AcDbArc
 50
263.852980631667
 51
59.2500716369476
  0
ARC
  5
30A
100
AcDbEntity
  8
0
100
AcDbCircle
  6
BYLAYER
 10
5.4252294212235
 20
17.1818752606574
 40
0.704372460813671
100
AcDbArc
 50
233.852980631667
 51
29.2500716369476
  0
ARC
  5
30B
100
AcDbEntity
  8
0
100
AcDbCircle
  6
BYLAYER
 10
1.55735395424306
 20
24.8192942304852
 40
0.704372460813671
100
AcDbArc
 50
173.852980631667
 51
329.250071636948
  0
ARC
  5
30C
100
AcDbEntity
  8
0
100
AcDbCircle
  6
BYLAYER
 10
2.93710263695578
 20
29.0305242723768
 40
0.704372460813671
100
AcDbArc
 50
143.852980631667
 51
299.250071636948
  0
TEXT
  5
30D
100
AcDbEntity
  8
0
100
AcDbText
  6
BYLAYER
 10
7.49210581170385
 20
21.8477388856442
 40
5
  1
Y
  7
Font_0
100
AcDbText
  0
TEXT
  5
30E
100
AcDbEntity
  8
0
100
AcDbText
  6
BYLAYER
 10
42.3478047909238
 20
7.2
 40
2.8
  1
~8
  7
Font_0
100
AcDbText
  0
TEXT
  5
30F
100
AcDbEntity
  8
0
100
AcDbText
  6
BYLAYER
 10
13.8764304985659
 20
7.2
 40
2.8
  1
(04)3322627
  7
Font_0
100
AcDbText
  0
TEXT
  5
310
100
AcDbEntity
  8
0
100
AcDbText
  6
BYLAYER
 10
51
 20
7.2
 40
3
  1
FAX
  7
Font_0
100
AcDbText
  0
LINE
  5
311
100
AcDbEntity
  8
0
100
AcDbLine
  6
BYLAYER
 10
48
 20
12
 11
48
 21
6
  0
LINE
  5
312
100
AcDbEntity
  8
0
100
AcDbLine
  6
BYLAYER
 10
62
 20
12
 11
62
 21
6
  0
ARC
  5
313
100
AcDbEntity
  8
0
100
AcDbCircle
  6
BYLAYER
 10
14.7857516486752
 20
31.5186510566446
 40
0.704372460813671
100
AcDbArc
 50
53.8529806316668
 51
209.250071636948
  0
ARC
  5
314
100
AcDbEntity
  8
0
100
AcDbCircle
  6
BYLAYER
 10
17.273878432943
 20
19.6700020449251
 40
0.704372460813671
100
AcDbArc
 50
323.852980631667
 51
119.250071636948
  0
ARC
  5
315
100
AcDbEntity
  8
0
100
AcDbCircle
  6
BYLAYER
 10
13.9733660019298
 20
16.7128441888231
 40
0.704372460813671
100
AcDbArc
 50
293.852980631667
 51
89.2500716369476
  0
LINE
  5
316
100
AcDbEntity
  8
0
100
AcDbLine
  6
BYLAYER
 10
14.515578442964
 20
24.350263158651
 11
15.4411524483498
 21
24.350263158651
  0
ARC
  5
317
100
AcDbEntity
  8
0
100
AcDbCircle
  6
BYLAYER
 10
18.6536271156557
 20
23.8812320868167
 40
0.704372460813671
100
AcDbArc
 50
353.852980631667
 51
149.250071636948
  0
ARC
  5
318
100
AcDbEntity
  8
0
100
AcDbCircle
  6
BYLAYER
 10
17.7429095047772
 20
28.2181386256314
 40
0.704372460813671
100
AcDbArc
 50
23.8529806316668
 51
179.250071636948
  0
TEXT
  5
319
100
AcDbEntity
  8
0
100
AcDbText
  6
BYLAYER
 10
100.4
 20
7.4
 40
3
  1
ｫ~ ｦW
  7
Font_0
100
AcDbText
  0
LINE
  5
31A
100
AcDbEntity
  8
0
100
AcDbLine
  6
BYLAYER
 10
144
 20
36
 11
144
 21
0
  0
LINE
  5
31B
100
AcDbEntity
  8
0
100
AcDbLine
  6
BYLAYER
 10
114
 20
36
 11
114
 21
0
  0
TEXT
  5
31C
100
AcDbEntity
  8
0
100
AcDbText
  6
BYLAYER
 10
100.4
 20
1.6
 40
3
  1
ｹﾏ ｸｹ
  7
Font_0
100
AcDbText
  0
TEXT
  5
31D
100
AcDbEntity
  8
0
100
AcDbText
  6
BYLAYER
 10
100.4
 20
31.6
 40
3
  1
･D ｺﾞ
  7
Font_0
100
AcDbText
  0
TEXT
  5
31E
100
AcDbEntity
  8
0
100
AcDbText
  6
BYLAYER
 10
100.4
 20
19.6
 40
3
  1
ﾃｸ ｹﾏ
  7
Font_0
100
AcDbText
  0
TEXT
  5
31F
100
AcDbEntity
  8
0
100
AcDbText
  6
BYLAYER
 10
100.4
 20
13.8
 40
3
  1
ｾ� ｺﾘ
  7
Font_0
100
AcDbText
  0
TEXT
  5
320
100
AcDbEntity
  8
0
100
AcDbText
  6
BYLAYER
 10
100.4
 20
25.4
 40
3
  1
ｮﾖ ｹ�
  7
Font_0
100
AcDbText
  0
LINE
  5
321
100
AcDbEntity
  8
0
100
AcDbLine
  6
BYLAYER
 10
163
 20
36
 11
163
 21
0
  0
TEXT
  5
322
100
AcDbEntity
  8
0
100
AcDbText
  6
BYLAYER
 10
146.967830348543
 20
7.5
 40
3
  1
ｪ揵ｱｳBｲz
  7
Font_0
100
AcDbText
  0
TEXT
  5
323
100
AcDbEntity
  8
0
100
AcDbText
  6
BYLAYER
 10
146.967830348543
 20
1.5
 40
3
  1
ｻsｹﾏ､魘ﾁ
  7
Font_0
100
AcDbText
  0
TEXT
  5
324
100
AcDbEntity
  8
0
100
AcDbText
  6
BYLAYER
 10
148.5
 20
31.5
 40
3
  1
ｧ� ｽ�
  7
Font_0
100
AcDbText
  0
TEXT
  5
325
100
AcDbEntity
  8
0
100
AcDbText
  6
BYLAYER
 10
148.5
 20
19.5
 40
3
  1
ｼﾆ ｶq
  7
Font_0
100
AcDbText
  0
TEXT
  5
326
100
AcDbEntity
  8
0
100
AcDbText
  6
BYLAYER
 10
148.5
 20
13.5
 40
3
  1
ｳ� ｦ�
  7
Font_0
100
AcDbText
  0
TEXT
  5
327
100
AcDbEntity
  8
0
100
AcDbText
  6
BYLAYER
 10
148.5
 20
25.5
 40
3
  1
､� ｨﾒ
  7
Font_0
100
AcDbText
  0
TEXT
  5
328
100
AcDbEntity
  8
0
100
AcDbText
  6
BYLAYER
 10
200.830454348633
 20
31.5
 40
3
  1
､魘ﾁ
  7
Font_0
100
AcDbText
  0
LINE
  5
329
100
AcDbEntity
  8
0
100
AcDbLine
  6
BYLAYER
 10
269.7178125
 20
135.285
 11
269.7178125
 21
151.27125
  0
LINE
  5
32A
100
AcDbEntity
  8
0
100
AcDbLine
  6
BYLAYER
 10
261.035625
 20
135.285
 11
261.035625
 21
151.27125
  0
LINE
  5
32B
100
AcDbEntity
  8
0
100
AcDbLine
  6
BYLAYER
 10
252.3534375
 20
135.285
 11
252.3534375
 21
151.27125
  0
LINE
  5
32C
100
AcDbEntity
  8
0
100
AcDbLine
  6
BYLAYER
 10
243.67125
 20
135.285
 11
243.67125
 21
180.4875
  0
LINE
  5
32D
100
AcDbEntity
  8
0
100
AcDbLine
  6
BYLAYER
 10
221.07
 20
135.285
 11
221.07
 21
180.4875
  0
LINE
  5
32E
100
AcDbEntity
  8
0
100
AcDbLine
  6
BYLAYER
 10
216.66
 20
135.285
 11
216.66
 21
186
  0
LINE
  5
32F
100
AcDbEntity
  8
0
100
AcDbLine
  6
BYLAYER
 10
213
 20
36
 11
213
 21
0
  0
LINE
  5
330
100
AcDbEntity
  8
0
100
AcDbLine
  6
BYLAYER
 10
232
 20
36
 11
232
 21
0
  0
TEXT
  5
331
100
AcDbEntity
  8
0
100
AcDbText
  6
BYLAYER
 10
235
 20
31.5
 40
3
  1
ｧ�   ｧ�   ､ｺ   ｮe
  7
Font_0
100
AcDbText
  0
TEXT
  5
332
100
AcDbEntity
  8
0
100
AcDbText
  6
BYLAYER
 10
218.659856969007
 20
31.5
 40
3
  1
ｭtｳd､H
  7
Font_0
100
AcDbText
  0
LINE
  5
333
100
AcDbEntity
  8
0
100
AcDbLine
  6
BYLAYER
 10
278.4
 20
139.695
 11
221.07
 21
139.695
  0
LINE
  5
334
100
AcDbEntity
  8
0
100
AcDbLine
  6
BYLAYER
 10
278.4
 20
135.285
 11
216.66
 21
135.285
  0
TEXT
  5
335
100
AcDbEntity
  8
0
100
AcDbText
  6
BYLAYER
 10
246.15416478566
 20
128.207003496756
 40
2
  1
projection ｲﾄ､Tｨ､ｧ�ｼv
  7
Font_0
100
AcDbText
  0
LINE
  5
336
100
AcDbEntity
  8
0
100
AcDbLine
  6
BYLAYER
 10
278.4
 20
113.78625
 11
243.67125
 21
113.78625
  0
TEXT
  5
337
100
AcDbEntity
  8
0
100
AcDbText
  6
BYLAYER
 10
271.4339125
 20
144.733125
 40
1.5
  1
100･H､W
  7
Font_0
 72
1
 11
274.0589125
 21
145.483125
100
AcDbText
 73
2
  0
TEXT
  5
338
100
AcDbEntity
  8
0
100
AcDbText
  6
BYLAYER
 10
272.1839125
 20
136.74
 40
1.5
  1
±10'
  7
Font_0
 72
1
 11
274.0589125
 21
137.49
100
AcDbText
 73
2
  0
MTEXT
  5
339
100
AcDbEntity
  8
0
100
AcDbMText
 10
232.37065
 20
145.483125
 40
2
 41
  0.0
  1
､ｽｺﾙ､ﾘ､o (ｪﾗ)\Pｧｨｦｨｨ､､ｧｵuﾃ荀@､�
 71
5
  7
Font_0
  0
TEXT
  5
33A
100
AcDbEntity
  8
0
100
AcDbText
  6
BYLAYER
 10
217.365
 20
147.778125
 40
3
  1
ｪｽｨ､ｫﾗ
  7
Font_1
 50
270
 11
218.865
 21
147.778125
100
AcDbText
 73
2
  0
TEXT
  5
33B
100
AcDbEntity
  8
0
100
AcDbText
  6
BYLAYER
 10
227.87065
 20
135.99
 40
3
  1
ｨ､ｫﾗｮt
  7
Font_0
 72
1
 11
232.37065
 21
137.49
100
AcDbText
 73
2
  0
LINE
  5
33C
100
AcDbEntity
  8
0
100
AcDbLine
  6
BYLAYER
 10
254.802068029839
 20
115.173423624616
 11
254.802068029839
 21
126.198423624616
  0
LINE
  5
33D
100
AcDbEntity
  8
0
100
AcDbLine
  6
BYLAYER
 10
243.67125
 20
113.78625
 11
243.67125
 21
135.285
  0
CIRCLE
  5
33E
100
AcDbEntity
  8
0
100
AcDbCircle
  6
BYLAYER
 10
254.802068029839
 20
120.685923624616
 40
4.41
  0
LINE
  5
33F
100
AcDbEntity
  8
0
100
AcDbLine
  6
BYLAYER
 10
249.289568029839
 20
120.685923624616
 11
260.314568029839
 21
120.685923624616
  0
CIRCLE
  5
340
100
AcDbEntity
  8
0
100
AcDbCircle
  6
BYLAYER
 10
254.802068029839
 20
120.685923624616
 40
2.205
  0
LINE
  5
341
100
AcDbEntity
  8
0
100
AcDbLine
  6
BYLAYER
 10
263.194180551461
 20
120.685923624616
 11
274.770430551461
 21
120.685923624616
  0
LWPOLYLINE
  5
342
100
AcDbEntity
  8
0
100
AcDbPolyline
  6
BYLAYER
370
0
 90
     4
 70
     1
 10
264.296680551461
  20
118.480923624616
 10
273.667930551461
  20
116.275923624616
 10
273.667930551461
  20
125.095923624616
 10
264.296680551461
  20
122.890923624616
  0
TEXT
  5
343
100
AcDbEntity
  8
0
100
AcDbText
  6
BYLAYER
 10
245.828721587618
 20
131.605971951227
 40
2
  1
Third angle
  7
Font_0
100
AcDbText
  0
MTEXT
  5
344
100
AcDbEntity
  8
0
100
AcDbMText
 10
256.6945375
 20
145.483125
 40
1.5
 41
  0.0
  1
10･H､W\P50･H､U
 71
5
  7
Font_0
  0
TEXT
  5
345
100
AcDbEntity
  8
0
100
AcDbText
  6
BYLAYER
 10
246.13735
 20
136.74
 40
1.5
  1
±1°
  7
Font_0
 72
1
 11
248.01235
 21
137.49
100
AcDbText
 73
2
  0
TEXT
  5
346
100
AcDbEntity
  8
0
100
AcDbText
  6
BYLAYER
 10
254.8195375
 20
136.74
 40
1.5
  1
±30'
  7
Font_0
 72
1
 11
256.6945375
 21
137.49
100
AcDbText
 73
2
  0
TEXT
  5
347
100
AcDbEntity
  8
0
100
AcDbText
  6
BYLAYER
 10
245.76235
 20
144.733125
 40
1.5
  1
10･H､U
  7
Font_0
 72
1
 11
248.01235
 21
145.483125
100
AcDbText
 73
2
  0
TEXT
  5
348
100
AcDbEntity
  8
0
100
AcDbText
  6
BYLAYER
 10
263.501725
 20
136.74
 40
1.5
  1
±20'
  7
Font_0
 72
1
 11
265.376725
 21
137.49
100
AcDbText
 73
2
  0
MTEXT
  5
349
100
AcDbEntity
  8
0
100
AcDbMText
 10
265.376725
 20
145.483125
 40
1.5
 41
  0.0
  1
50･H､W\P100･H､U
 71
5
  7
Font_0
  0
LINE
  5
34A
100
AcDbEntity
  8
0
100
AcDbLine
  6
BYLAYER
 10
221.07
 20
155.68125
 11
278.4
 21
155.68125
  0
LINE
  5
34B
100
AcDbEntity
  8
0
100
AcDbLine
  6
BYLAYER
 10
221.07
 20
160.09125
 11
278.4
 21
160.09125
  0
LINE
  5
34C
100
AcDbEntity
  8
0
100
AcDbLine
  6
BYLAYER
 10
221.07
 20
164.50125
 11
278.4
 21
164.50125
  0
LINE
  5
34D
100
AcDbEntity
  8
0
100
AcDbLine
  6
BYLAYER
 10
221.07
 20
168.91125
 11
278.4
 21
168.91125
  0
LINE
  5
34E
100
AcDbEntity
  8
0
100
AcDbLine
  6
BYLAYER
 10
221.07
 20
173.32125
 11
278.4
 21
173.32125
  0
LINE
  5
34F
100
AcDbEntity
  8
0
100
AcDbLine
  6
BYLAYER
 10
216.66
 20
151.27125
 11
278.4
 21
151.27125
  0
LINE
  5
350
100
AcDbEntity
  8
0
100
AcDbLine
  6
BYLAYER
 10
216.66
 20
180.4875
 11
278.4
 21
180.4875
  0
TEXT
  5
351
100
AcDbEntity
  8
0
100
AcDbText
  6
BYLAYER
 10
269.1119
 20
175.154375
 40
3.5
  1
ｲﾊｯﾅ
  7
Font_0
 72
1
 11
272.6119
 21
176.904375
100
AcDbText
 73
2
  0
LINE
  5
352
100
AcDbEntity
  8
0
100
AcDbLine
  6
BYLAYER
 10
243.67125
 20
173.32125
 11
232.06971689676
 21
180.4875
  0
TEXT
  5
353
100
AcDbEntity
  8
0
100
AcDbText
  6
BYLAYER
 10
230.03
 20
181.49375
 40
3.5
  1
ｦｨ ｫ~ ､ｧ ｴｶ ｳq ､ｽ ｮt
  7
Font_0
 72
1
 11
247.53
 21
183.24375
100
AcDbText
 73
2
  0
TEXT
  5
354
100
AcDbEntity
  8
0
100
AcDbText
  6
BYLAYER
 10
228.24565
 20
170.36625
 40
1.5
  1
1･H､W~4･H､U
  7
Font_0
 72
1
 11
232.37065
 21
171.11625
100
AcDbText
 73
2
  0
TEXT
  5
355
100
AcDbEntity
  8
0
100
AcDbText
  6
BYLAYER
 10
227.49565
 20
161.54625
 40
1.5
  1
16･H､W~63･H､U
  7
Font_0
 72
1
 11
232.37065
 21
162.29625
100
AcDbText
 73
2
  0
TEXT
  5
356
100
AcDbEntity
  8
0
100
AcDbText
  6
BYLAYER
 10
227.12065
 20
157.13625
 40
1.5
  1
63･H､W~250･H､U
  7
Font_0
 72
1
 11
232.37065
 21
157.88625
100
AcDbText
 73
2
  0
TEXT
  5
357
100
AcDbEntity
  8
0
100
AcDbText
  6
BYLAYER
 10
226.37065
 20
152.72625
 40
1.5
  1
250･H､W~1000･H､U
  7
Font_0
 72
1
 11
232.37065
 21
153.47625
100
AcDbText
 73
2
  0
MTEXT
  5
358
100
AcDbEntity
  8
0
100
AcDbMText
 10
218.865
 20
168.879375
 40
3
 41
  0.0
  1
ｪﾗ
 71
4
  7
Font_1
 11
-1.83690953073357E-16
 21
-1
  0
TEXT
  5
359
100
AcDbEntity
  8
0
100
AcDbText
  6
BYLAYER
 10
227.87065
 20
165.95625
 40
1.5
  1
4･H､W~16･H､U
  7
Font_0
 72
1
 11
232.37065
 21
166.70625
100
AcDbText
 73
2
  0
TEXT
  5
35A
100
AcDbEntity
  8
0
100
AcDbText
  6
BYLAYER
 10
221.354797302298
 20
174.015263609177
 40
1.7
  1
､ｽｺﾙ､ﾘ､oｹｺ､ﾀm/m
  7
Font_0
100
AcDbText
  0
TEXT
  5
35B
100
AcDbEntity
  8
0
100
AcDbText
  6
BYLAYER
 10
237.865638127741
 20
177.454836298923
 40
1.7
  1
ｵ･ｯﾅ
  7
Font_0
100
AcDbText
  0
LINE
  5
35C
100
AcDbEntity
  8
0
100
AcDbLine
  6
BYLAYER
 10
266.82375
 20
151.27125
 11
266.82375
 21
180.4875
  0
LINE
  5
35D
100
AcDbEntity
  8
0
100
AcDbLine
  6
BYLAYER
 10
255.2475
 20
151.27125
 11
255.2475
 21
180.4875
  0
TEXT
  5
35E
100
AcDbEntity
  8
0
100
AcDbText
  6
BYLAYER
 10
247.2094
 20
170.36625
 40
1.5
  1
±0.05
  7
Font_0
 72
1
 11
249.4594
 21
171.11625
100
AcDbText
 73
2
  0
TEXT
  5
35F
100
AcDbEntity
  8
0
100
AcDbText
  6
BYLAYER
 10
258.78565
 20
170.36625
 40
1.5
  1
±0.10
  7
Font_0
 72
1
 11
261.03565
 21
171.11625
100
AcDbText
 73
2
  0
TEXT
  5
360
100
AcDbEntity
  8
0
100
AcDbText
  6
BYLAYER
 10
270.3619
 20
170.36625
 40
1.5
  1
±0.30
  7
Font_0
 72
1
 11
272.6119
 21
171.11625
100
AcDbText
 73
2
  0
TEXT
  5
361
100
AcDbEntity
  8
0
100
AcDbText
  6
BYLAYER
 10
258.78565
 20
165.95625
 40
1.5
  1
±0.20
  7
Font_0
 72
1
 11
261.03565
 21
166.70625
100
AcDbText
 73
2
  0
TEXT
  5
362
100
AcDbEntity
  8
0
100
AcDbText
  6
BYLAYER
 10
258.78565
 20
161.54625
 40
1.5
  1
±0.30
  7
Font_0
 72
1
 11
261.03565
 21
162.29625
100
AcDbText
 73
2
  0
TEXT
  5
363
100
AcDbEntity
  8
0
100
AcDbText
  6
BYLAYER
 10
258.78565
 20
157.13625
 40
1.5
  1
±0.50
  7
Font_0
 72
1
 11
261.03565
 21
157.88625
100
AcDbText
 73
2
  0
TEXT
  5
364
100
AcDbEntity
  8
0
100
AcDbText
  6
BYLAYER
 10
258.78565
 20
152.72625
 40
1.5
  1
±0.80
  7
Font_0
 72
1
 11
261.03565
 21
153.47625
100
AcDbText
 73
2
  0
TEXT
  5
365
100
AcDbEntity
  8
0
100
AcDbText
  6
BYLAYER
 10
247.2094
 20
157.13625
 40
1.5
  1
±0.20
  7
Font_0
 72
1
 11
249.4594
 21
157.88625
100
AcDbText
 73
2
  0
TEXT
  5
366
100
AcDbEntity
  8
0
100
AcDbText
  6
BYLAYER
 10
247.2094
 20
152.72625
 40
1.5
  1
±0.30
  7
Font_0
 72
1
 11
249.4594
 21
153.47625
100
AcDbText
 73
2
  0
TEXT
  5
367
100
AcDbEntity
  8
0
100
AcDbText
  6
BYLAYER
 10
247.2094
 20
165.95625
 40
1.5
  1
±0.07
  7
Font_0
 72
1
 11
249.4594
 21
166.70625
100
AcDbText
 73
2
  0
TEXT
  5
368
100
AcDbEntity
  8
0
100
AcDbText
  6
BYLAYER
 10
247.2094
 20
161.54625
 40
1.5
  1
±0.10
  7
Font_0
 72
1
 11
249.4594
 21
162.29625
100
AcDbText
 73
2
  0
TEXT
  5
369
100
AcDbEntity
  8
0
100
AcDbText
  6
BYLAYER
 10
270.3619
 20
152.72625
 40
1.5
  1
±2.00
  7
Font_0
 72
1
 11
272.6119
 21
153.47625
100
AcDbText
 73
2
  0
TEXT
  5
36A
100
AcDbEntity
  8
0
100
AcDbText
  6
BYLAYER
 10
270.3619
 20
157.13625
 40
1.5
  1
±1.20
  7
Font_0
 72
1
 11
272.6119
 21
157.88625
100
AcDbText
 73
2
  0
TEXT
  5
36B
100
AcDbEntity
  8
0
100
AcDbText
  6
BYLAYER
 10
270.3619
 20
161.54625
 40
1.5
  1
±0.70
  7
Font_0
 72
1
 11
272.6119
 21
162.29625
100
AcDbText
 73
2
  0
TEXT
  5
36C
100
AcDbEntity
  8
0
100
AcDbText
  6
BYLAYER
 10
270.3619
 20
165.95625
 40
1.5
  1
±0.50
  7
Font_0
 72
1
 11
272.6119
 21
166.70625
100
AcDbText
 73
2
  0
TEXT
  5
36D
100
AcDbEntity
  8
0
100
AcDbText
  6
BYLAYER
 10
257.5356
 20
175.154375
 40
3.5
  1
､､ｯﾅ
  7
Font_0
 72
1
 11
261.0356
 21
176.904375
100
AcDbText
 73
2
  0
TEXT
  5
36E
100
AcDbEntity
  8
0
100
AcDbText
  6
BYLAYER
 10
245.9594
 20
175.154375
 40
3.5
  1
ｲﾓｯﾅ
  7
Font_0
 72
1
 11
249.4594
 21
176.904375
100
AcDbText
 73
2
  0
LWPOLYLINE
  5
36F
100
AcDbEntity
  8
0
100
AcDbPolyline
  6
BYLAYER
370
20
 90
     4
 70
     1
 10
0
  20
0
 10
0
  20
186
 10
278.4
  20
186
 10
278.4
  20
0
  0
LWPOLYLINE
  5
370
100
AcDbEntity
  8
0
100
AcDbPolyline
  6
BYLAYER
370
20
 90
     2
 10
0
  20
36
 10
278.4
  20
36
  0
LWPOLYLINE
  5
371
100
AcDbEntity
  8
0
100
AcDbPolyline
  6
BYLAYER
370
20
 90
     2
 10
195.15
  20
36
 10
195.15
  20
0
  0
LWPOLYLINE
  5
372
100
AcDbEntity
  8
0
100
AcDbPolyline
  6
BYLAYER
370
20
 90
     2
 10
96.85
  20
36
 10
96.85
  20
0
  0
ENDBLK
  5
373
100
AcDbEntity
  8
0
 67
     1
100
AcDbBlockEnd
  0
BLOCK
  5
374
100
AcDbEntity
  8
0
100
AcDbBlockBegin
  2
JAME
 70
    0
 10
0
 20
0
 30
0.0
  3
JAME
  1

  0
TEXT
  5
375
100
AcDbEntity
  8
0
100
AcDbText
  6
BYLAYER
 10
200.830454348633
 20
31.5
 40
3
  1
､魘ﾁ
  7
Font_0
100
AcDbText
  0
LINE
  5
376
100
AcDbEntity
  8
0
100
AcDbLine
  6
BYLAYER
 10
0
 20
12
 11
278.4
 21
12
  0
LINE
  5
377
100
AcDbEntity
  8
0
100
AcDbLine
  6
BYLAYER
 10
0
 20
6
 11
278.4
 21
6
  0
LINE
  5
378
100
AcDbEntity
  8
0
100
AcDbLine
  6
BYLAYER
 10
0
 20
0
 11
278.4
 21
0
  0
LINE
  5
379
100
AcDbEntity
  8
0
100
AcDbLine
  6
BYLAYER
 10
96.85
 20
30
 11
278.4
 21
30
  0
LINE
  5
37A
100
AcDbEntity
  8
0
100
AcDbLine
  6
BYLAYER
 10
96.85
 20
24
 11
278.4
 21
24
  0
LINE
  5
37B
100
AcDbEntity
  8
0
100
AcDbLine
  6
BYLAYER
 10
96.85
 20
18
 11
278.4
 21
18
  0
LWPOLYLINE
  5
37C
100
AcDbEntity
  8
0
100
AcDbPolyline
  6
BYLAYER
370
0
 90
     2
 70
     1
 10
0
  20
36
 10
278.4
  20
36
  0
LWPOLYLINE
  5
37D
100
AcDbEntity
  8
0
100
AcDbPolyline
  6
BYLAYER
 90
     2
 70
     1
 10
278.4
  20
186
 10
0
  20
186
  0
LINE
  5
37E
100
AcDbEntity
  8
0
100
AcDbLine
  6
BYLAYER
 10
0
 20
0
 11
0
 21
186
  0
TEXT
  5
37F
100
AcDbEntity
  8
0
100
AcDbText
  6
BYLAYER
 10
63.8643398403977
 20
7.09411371042404
 40
2.8
  1
(04)23322629
  7
Font_0
100
AcDbText
  0
TEXT
  5
380
100
AcDbEntity
  8
0
100
AcDbText
  6
BYLAYER
 10
22.1680110084321
 20
15.7553550725962
 40
2.8
  1
CAM YORK INDUSTRIAL CO.,LTD.
  7
Font_0
100
AcDbText
  0
TEXT
  5
381
100
AcDbEntity
  8
0
100
AcDbText
  6
BYLAYER
 10
22.0468952754036
 20
26
 40
7
  1
ｫﾘｷﾔ､uｷ~ｪﾑ･ｳｭｭ､ｽ･q
  7
Font_0
100
AcDbText
  0
ARC
  5
382
100
AcDbEntity
  8
0
100
AcDbCircle
  6
BYLAYER
 10
5.4252294212235
 20
17.1818752606574
 40
0.704372460813671
100
AcDbArc
 50
233.852980631667
 51
29.2500716369477
  0
TEXT
  5
383
100
AcDbEntity
  8
0
100
AcDbText
  6
BYLAYER
 10
3.5
 20
1.5
 40
3
  1
ｳﾆｵ�
  7
Font_0
 72
1
 11
6.5
 21
3
100
AcDbText
 73
2
  0
TEXT
  5
384
100
AcDbEntity
  8
0
100
AcDbText
  6
BYLAYER
 10
2.6
 20
7.3
 40
3
  1
TEL
  7
Font_0
100
AcDbText
  0
ARC
  5
385
100
AcDbEntity
  8
0
100
AcDbCircle
  6
BYLAYER
 10
10.1054905349494
 20
24.350263158651
 40
4.41008790801462
100
AcDbArc
 50
90
 51
0
  0
CIRCLE
  5
386
100
AcDbEntity
  8
0
100
AcDbCircle
  6
BYLAYER
 10
10.1054905349494
 20
24.350263158651
 40
7.62237416200057
  0
CIRCLE
  5
387
100
AcDbEntity
  8
0
100
AcDbCircle
  6
BYLAYER
 10
10.1054905349494
 20
24.350263158651
 40
9.36463111331499
  0
ARC
  5
388
100
AcDbEntity
  8
0
100
AcDbCircle
  6
BYLAYER
 10
6.23761506796892
 20
31.9876821284788
 40
0.704372460813671
100
AcDbArc
 50
113.852980631667
 51
269.250071636948
  0
ARC
  5
389
100
AcDbEntity
  8
0
100
AcDbCircle
  6
BYLAYER
 10
2.46807156512152
 20
20.4823876916705
 40
0.704372460813671
100
AcDbArc
 50
203.852980631667
 51
359.250071636948
  0
ARC
  5
38A
100
AcDbEntity
  8
0
100
AcDbCircle
  6
BYLAYER
 10
1.55735395424306
 20
24.8192942304852
 40
0.704372460813671
100
AcDbArc
 50
173.852980631667
 51
329.250071636948
  0
ARC
  5
38B
100
AcDbEntity
  8
0
100
AcDbCircle
  6
BYLAYER
 10
2.93710263695578
 20
29.0305242723768
 40
0.704372460813671
100
AcDbArc
 50
143.852980631667
 51
299.250071636948
  0
LINE
  5
38C
100
AcDbEntity
  8
0
100
AcDbLine
  6
BYLAYER
 10
62
 20
12
 11
62
 21
6
  0
TEXT
  5
38D
100
AcDbEntity
  8
0
100
AcDbText
  6
BYLAYER
 10
51.8
 20
7.2
 40
3
  1
FAX
  7
Font_0
100
AcDbText
  0
LINE
  5
38E
100
AcDbEntity
  8
0
100
AcDbLine
  6
BYLAYER
 10
49.4
 20
12
 11
49.4
 21
6
  0
TEXT
  5
38F
100
AcDbEntity
  8
0
100
AcDbText
  6
BYLAYER
 10
43.3478047909238
 20
7.2
 40
2.8
  1
~8
  7
Font_0
100
AcDbText
  0
LINE
  5
390
100
AcDbEntity
  8
0
100
AcDbLine
  6
BYLAYER
 10
11.8
 20
12
 11
11.8
 21
0
  0
TEXT
  5
391
100
AcDbEntity
  8
0
100
AcDbText
  6
BYLAYER
 10
12.8764304985659
 20
7.2
 40
2.8
  1
(04)23322627
  7
Font_0
100
AcDbText
  0
ARC
  5
392
100
AcDbEntity
  8
0
100
AcDbCircle
  6
BYLAYER
 10
14.7857516486752
 20
31.5186510566446
 40
0.704372460813671
100
AcDbArc
 50
53.8529806316668
 51
209.250071636948
  0
ARC
  5
393
100
AcDbEntity
  8
0
100
AcDbCircle
  6
BYLAYER
 10
10.5745216067836
 20
32.8983997393573
 40
0.704372460813671
100
AcDbArc
 50
83.8529806316668
 51
239.250071636948
  0
ARC
  5
394
100
AcDbEntity
  8
0
100
AcDbCircle
  6
BYLAYER
 10
13.9733660019298
 20
16.7128441888231
 40
0.704372460813671
100
AcDbArc
 50
293.852980631667
 51
89.2500716369476
  0
ARC
  5
395
100
AcDbEntity
  8
0
100
AcDbCircle
  6
BYLAYER
 10
9.63645946311512
 20
15.8021265779447
 40
0.704372460813671
100
AcDbArc
 50
263.852980631667
 51
59.2500716369476
  0
ARC
  5
396
100
AcDbEntity
  8
0
100
AcDbCircle
  6
BYLAYER
 10
17.273878432943
 20
19.6700020449251
 40
0.704372460813671
100
AcDbArc
 50
323.852980631667
 51
119.250071636948
  0
LINE
  5
397
100
AcDbEntity
  8
0
100
AcDbLine
  6
BYLAYER
 10
14.515578442964
 20
24.350263158651
 11
15.4411524483498
 21
24.350263158651
  0
LINE
  5
398
100
AcDbEntity
  8
0
100
AcDbLine
  6
BYLAYER
 10
10.1054905349494
 20
28.7603510666656
 11
15.2233703294355
 21
28.7603510666656
  0
TEXT
  5
399
100
AcDbEntity
  8
0
100
AcDbText
  6
BYLAYER
 10
7.49210581170385
 20
21.8477388856442
 40
5
  1
Y
  7
Font_0
100
AcDbText
  0
ARC
  5
39A
100
AcDbEntity
  8
0
100
AcDbCircle
  6
BYLAYER
 10
18.6536271156557
 20
23.8812320868167
 40
0.704372460813671
100
AcDbArc
 50
353.852980631667
 51
149.250071636947
  0
ARC
  5
39B
100
AcDbEntity
  8
0
100
AcDbCircle
  6
BYLAYER
 10
17.7429095047772
 20
28.2181386256314
 40
0.704372460813671
100
AcDbArc
 50
23.8529806316668
 51
179.250071636948
  0
LINE
  5
39C
100
AcDbEntity
  8
0
100
AcDbLine
  6
BYLAYER
 10
114
 20
36
 11
114
 21
0
  0
TEXT
  5
39D
100
AcDbEntity
  8
0
100
AcDbText
  6
BYLAYER
 10
100.4
 20
7.4
 40
3
  1
ｫ~ ｦW
  7
Font_0
100
AcDbText
  0
LINE
  5
39E
100
AcDbEntity
  8
0
100
AcDbLine
  6
BYLAYER
 10
97.15
 20
36
 11
97.15
 21
0
  0
LINE
  5
39F
100
AcDbEntity
  8
0
100
AcDbLine
  6
BYLAYER
 10
96.85
 20
36
 11
96.85
 21
0
  0
LWPOLYLINE
  5
3A0
100
AcDbEntity
  8
0
100
AcDbPolyline
  6
BYLAYER
370
0
 90
     4
 10
96.85
  20
36
 10
96.85
  20
0
 10
97.15
  20
0
 10
97.15
  20
36
  0
TEXT
  5
3A1
100
AcDbEntity
  8
0
100
AcDbText
  6
BYLAYER
 10
100.4
 20
1.6
 40
3
  1
ｹﾏ ｸｹ
  7
Font_0
100
AcDbText
  0
TEXT
  5
3A2
100
AcDbEntity
  8
0
100
AcDbText
  6
BYLAYER
 10
100.4
 20
31.6
 40
3
  1
･D ｺﾞ
  7
Font_0
100
AcDbText
  0
TEXT
  5
3A3
100
AcDbEntity
  8
0
100
AcDbText
  6
BYLAYER
 10
100.4
 20
19.6
 40
3
  1
ﾃｸ ｹﾏ
  7
Font_0
100
AcDbText
  0
TEXT
  5
3A4
100
AcDbEntity
  8
0
100
AcDbText
  6
BYLAYER
 10
100.4
 20
25.4
 40
3
  1
ｮﾖ ｹ�
  7
Font_0
100
AcDbText
  0
TEXT
  5
3A5
100
AcDbEntity
  8
0
100
AcDbText
  6
BYLAYER
 10
100.316862435203
 20
13.8
 40
3
  1
ｾ� ｺﾘ
  7
Font_0
100
AcDbText
  0
LINE
  5
3A6
100
AcDbEntity
  8
0
100
AcDbLine
  6
BYLAYER
 10
195.15
 20
36
 11
195.15
 21
0
  0
LINE
  5
3A7
100
AcDbEntity
  8
0
100
AcDbLine
  6
BYLAYER
 10
194.85
 20
36
 11
194.85
 21
0
  0
LINE
  5
3A8
100
AcDbEntity
  8
0
100
AcDbLine
  6
BYLAYER
 10
195.025
 20
36
 11
195.025
 21
0
  0
TEXT
  5
3A9
100
AcDbEntity
  8
0
100
AcDbText
  6
BYLAYER
 10
146.967830348543
 20
7.5
 40
3
  1
ｻsｹﾏ､魘ﾁ
  7
Font_0
100
AcDbText
  0
LINE
  5
3AA
100
AcDbEntity
  8
0
100
AcDbLine
  6
BYLAYER
 10
163
 20
36
 11
163
 21
0
  0
LINE
  5
3AB
100
AcDbEntity
  8
0
100
AcDbLine
  6
BYLAYER
 10
144
 20
36
 11
144
 21
0
  0
TEXT
  5
3AC
100
AcDbEntity
  8
0
100
AcDbText
  6
BYLAYER
 10
147.076922819997
 20
1.5
 40
3
  1
ｹqｸ｣ｽsｸｹ
  7
Font_0
100
AcDbText
  0
TEXT
  5
3AD
100
AcDbEntity
  8
0
100
AcDbText
  6
BYLAYER
 10
148.5
 20
31.5
 40
3
  1
ｧ� ｽ�
  7
Font_0
100
AcDbText
  0
TEXT
  5
3AE
100
AcDbEntity
  8
0
100
AcDbText
  6
BYLAYER
 10
148.5
 20
25.5
 40
3
  1
ｼﾆ ｶq
  7
Font_0
100
AcDbText
  0
TEXT
  5
3AF
100
AcDbEntity
  8
0
100
AcDbText
  6
BYLAYER
 10
148.5
 20
19.5
 40
3
  1
ｳ� ｦ�
  7
Font_0
100
AcDbText
  0
TEXT
  5
3B0
100
AcDbEntity
  8
0
100
AcDbText
  6
BYLAYER
 10
146.967830348543
 20
13.5
 40
3
  1
ｪ揵ｱｳBｲz
  7
Font_0
100
AcDbText
  0
LINE
  5
3B1
100
AcDbEntity
  8
0
100
AcDbLine
  6
BYLAYER
 10
278.4
 20
186
 11
278.4
 21
0
  0
TEXT
  5
3B2
100
AcDbEntity
  8
0
100
AcDbText
  6
BYLAYER
 10
235
 20
31.5
 40
3
  1
ｧ�   ｧ�   ､ｺ   ｮe
  7
Font_0
100
AcDbText
  0
LINE
  5
3B3
100
AcDbEntity
  8
0
100
AcDbLine
  6
BYLAYER
 10
232
 20
36
 11
232
 21
0
  0
LINE
  5
3B4
100
AcDbEntity
  8
0
100
AcDbLine
  6
BYLAYER
 10
213
 20
36
 11
213
 21
0
  0
TEXT
  5
3B5
100
AcDbEntity
  8
0
100
AcDbText
  6
BYLAYER
 10
218.659856969007
 20
31.5
 40
3
  1
ｭtｳd､H
  7
Font_0
100
AcDbText
  0
ENDBLK
  5
3B6
100
AcDbEntity
  8
0
 67
     1
100
AcDbBlockEnd
  0
BLOCK
  5
3B7
100
AcDbEntity
  8
0
100
AcDbBlockBegin
  2
GENAXEH
 70
    0
 10
0
 20
0
 30
0.0
  3
GENAXEH
  1

  0
LINE
  5
3B8
100
AcDbEntity
  8
0
100
AcDbLine
  6
BYLAYER
 10
-1
 20
0
 11
1
 21
0
  0
ENDBLK
  5
3B9
100
AcDbEntity
  8
0
 67
     1
100
AcDbBlockEnd
  0
BLOCK
  5
3BA
100
AcDbEntity
  8
0
100
AcDbBlockBegin
  2
A$C36D836D4
 70
    0
 10
0
 20
0
 30
0.0
  3
A$C36D836D4
  1

  0
LINE
  5
3BB
100
AcDbEntity
  8
BASE
100
AcDbLine
  6
BYLAYER
 10
-156.592114756201
 20
-85.2890618578437
 11
-73.3421147562014
 21
-85.2890618578437
  0
LINE
  5
3BC
100
AcDbEntity
  8
BASE
100
AcDbLine
  6
BYLAYER
 10
-156.592114756201
 20
-91.2890618578437
 11
-73.3421147562014
 21
-91.2890618578437
  0
LINE
  5
3BD
100
AcDbEntity
  8
BASE
100
AcDbLine
  6
BYLAYER
 10
-156.592114756201
 20
-97.2890618578437
 11
-73.3421147562014
 21
-97.2890618578437
  0
LINE
  5
3BE
100
AcDbEntity
  8
BASE
100
AcDbLine
  6
BYLAYER
 10
-156.592114756201
 20
-103.289061857844
 11
-73.3421147562014
 21
-103.289061857844
  0
LINE
  5
3BF
100
AcDbEntity
  8
BASE
100
AcDbLine
  6
BYLAYER
 10
-156.592114756201
 20
-109.289061857844
 11
-73.3421147562014
 21
-109.289061857844
  0
LINE
  5
3C0
100
AcDbEntity
  8
BASE
100
AcDbLine
  6
BYLAYER
 10
-156.592114756201
 20
-115.289061857844
 11
-73.3421147562014
 21
-115.289061857844
  0
LINE
  5
3C1
100
AcDbEntity
  8
BASE
100
AcDbLine
  6
BYLAYER
 10
-156.592114756201
 20
-121.289061857844
 11
-73.3421147562014
 21
-121.289061857844
  0
LINE
  5
3C2
100
AcDbEntity
  8
BASE
100
AcDbLine
  6
BYLAYER
 10
-156.592114756201
 20
-127.289061857844
 11
-73.3421147562014
 21
-127.289061857844
  0
LINE
  5
3C3
100
AcDbEntity
  8
BASE
100
AcDbLine
  6
BYLAYER
 10
-146.592114756201
 20
-85.2890618578437
 11
-146.592114756201
 21
-133.289061857844
  0
LINE
  5
3C4
100
AcDbEntity
  8
BASE
100
AcDbLine
  6
BYLAYER
 10
-156.592114756201
 20
-85.2890618578437
 11
-156.592114756201
 21
-133.289061857844
  0
LINE
  5
3C5
100
AcDbEntity
  8
BASE
100
AcDbLine
  6
BYLAYER
 10
-136.592114756201
 20
-85.2890618578437
 11
-136.592114756201
 21
-133.289061857844
  0
TEXT
  5
3C6
100
AcDbEntity
  8
BASE
100
AcDbText
  6
BYLAYER
 10
-152.287315422519
 20
-120.581955076657
 40
3.5
  1
B
  7
Font_0
 72
1
 11
-151.412315422519
 21
-120.581955076657
100
AcDbText
  0
TEXT
  5
3C7
100
AcDbEntity
  8
BASE
100
AcDbText
  6
BYLAYER
 10
-154.338363967876
 20
-132.581955076657
 40
3.5
  1
ｶｵｦｸ
  7
Font_0
 72
1
 11
-150.838363967876
 21
-132.581955076657
100
AcDbText
  0
TEXT
  5
3C8
100
AcDbEntity
  8
BASE
100
AcDbText
  6
BYLAYER
 10
-151.961433062886
 20
-126.581955076657
 40
3.5
  1
A
  7
Font_0
 72
1
 11
-151.086433062886
 21
-126.581955076657
100
AcDbText
  0
TEXT
  5
3C9
100
AcDbEntity
  8
0
100
AcDbText
  6
BYLAYER
 10
-125.857609278239
 20
-132.019757538773
 40
3.5
  1
ｹﾏ
  7
Font_0
 11
-125.857609278239
 21
-128.519757538773
100
AcDbText
 73
3
  0
TEXT
  5
3CA
100
AcDbEntity
  8
0
100
AcDbText
  6
BYLAYER
 10
-112.160031551964
 20
-132.156603581708
 40
3.5
  1
ｸｹ
  7
Font_0
 11
-112.160031551964
 21
-128.656603581708
100
AcDbText
 73
3
  0
TEXT
  5
3CB
100
AcDbEntity
  8
BASE
100
AcDbText
  6
BYLAYER
 10
-152.150339695197
 20
-114.581955076657
 40
3.5
  1
C
  7
Font_0
 72
1
 11
-151.275339695197
 21
-114.581955076657
100
AcDbText
  0
LINE
  5
3CC
100
AcDbEntity
  8
BASE
100
AcDbLine
  6
BYLAYER
 10
-92.7050670689118
 20
-85.2890618578437
 11
-92.7050670689118
 21
-133.289061857844
  0
LINE
  5
3CD
100
AcDbEntity
  8
BASE
100
AcDbLine
  6
BYLAYER
 10
-82.7050670689118
 20
-85.2890618578437
 11
-82.7050670689118
 21
-133.289061857844
  0
TEXT
  5
3CE
100
AcDbEntity
  8
0
100
AcDbText
  6
BYLAYER
 10
-91.2050670689118
 20
-132.72329119719
 40
3.5
  1
ｪｩ･ｻ
  7
Font_0
 72
1
 11
-87.7050670689118
 21
-130.97329119719
100
AcDbText
 73
2
  0
TEXT
  5
3CF
100
AcDbEntity
  8
BASE
100
AcDbText
  6
BYLAYER
 10
-81.5235909125566
 20
-132.581955076657
 40
3.5
  1
ｼﾆｶq
  7
Font_0
 72
1
 11
-78.0235909125566
 21
-132.581955076657
100
AcDbText
  0
TEXT
  5
3D0
100
AcDbEntity
  8
BASE
100
AcDbText
  6
BYLAYER
 10
-79.1985909125566
 20
-126.581955076657
 40
3.5
  1
1
  7
Font_0
 72
1
 11
-78.3235909125566
 21
-126.581955076657
100
AcDbText
  0
TEXT
  5
3D1
100
AcDbEntity
  8
BASE
100
AcDbText
  6
BYLAYER
 10
-79.1985909125566
 20
-120.581955076657
 40
3.5
  1
1
  7
Font_0
 72
1
 11
-78.3235909125566
 21
-120.581955076657
100
AcDbText
  0
TEXT
  5
3D2
100
AcDbEntity
  8
BASE
100
AcDbText
  6
BYLAYER
 10
-79.1985909125566
 20
-114.581955076657
 40
3.5
  1
1
  7
Font_0
 72
1
 11
-78.3235909125566
 21
-114.581955076657
100
AcDbText
  0
ENDBLK
  5
3D3
100
AcDbEntity
  8
0
 67
     1
100
AcDbBlockEnd
  0
BLOCK
  5
3D4
100
AcDbEntity
  8
0
100
AcDbBlockBegin
  2
A$C520435C5
 70
    0
 10
0
 20
0
 30
0.0
  3
A$C520435C5
  1

  0
LINE
  5
3D5
100
AcDbEntity
  8
CEN
100
AcDbLine
  6
BYLAYER
 10
42.4999999576461
 20
37.5000000875314
 11
42.4999999576461
 21
8.75313617E-8
  0
CIRCLE
  5
3D6
100
AcDbEntity
  8
BASE
100
AcDbCircle
  6
BYLAYER
 10
42.4999999576461
 20
42.5000000875313
 40
31.25
  0
CIRCLE
  5
3D7
100
AcDbEntity
  8
BASE
100
AcDbCircle
  6
BYLAYER
 10
42.4999999576461
 20
42.5000000875313
 40
8
  0
CIRCLE
  5
3D8
100
AcDbEntity
  8
BASE
100
AcDbCircle
  6
BYLAYER
 10
42.4999999576461
 20
42.5000000875313
 40
25.5
  0
CIRCLE
  5
3D9
100
AcDbEntity
  8
BASE
100
AcDbCircle
  6
BYLAYER
 10
42.4999999576461
 20
42.5000000875313
 40
28.5
  0
CIRCLE
  5
3DA
100
AcDbEntity
  8
BASE
100
AcDbCircle
  6
BYLAYER
 10
42.4999999576461
 20
42.5000000875313
 40
16.25
  0
CIRCLE
  5
3DB
100
AcDbEntity
  8
BASE
100
AcDbCircle
  6
BYLAYER
 10
42.4999999576461
 20
42.5000000875313
 40
14
  0
LINE
  5
3DC
100
AcDbEntity
  8
CEN
100
AcDbLine
  6
BYLAYER
 10
47.4999999576461
 20
42.5000000875313
 11
84.9999999576461
 21
42.5000000875313
  0
LINE
  5
3DD
100
AcDbEntity
  8
CEN
100
AcDbLine
  6
BYLAYER
 10
42.4999999576461
 20
47.5000000875313
 11
42.4999999576461
 21
85.0000000875314
  0
LINE
  5
3DE
100
AcDbEntity
  8
CEN
100
AcDbLine
  6
BYLAYER
 10
37.4999999576461
 20
42.5000000875313
 11
-4.23538893E-8
 21
42.5000000875313
  0
LINE
  5
3DF
100
AcDbEntity
  8
HIDDEN
100
AcDbLine
  6
BYLAYER
 10
40.4999999576461
 20
50.2459667799462
 11
40.4999999576461
 21
44.7360680650312
  0
LINE
  5
3E0
100
AcDbEntity
  8
HIDDEN
100
AcDbLine
  6
BYLAYER
 10
44.4999999576461
 20
50.2459667799462
 11
44.4999999576461
 21
44.7360680650312
  0
LINE
  5
3E1
100
AcDbEntity
  8
HIDDEN
100
AcDbLine
  6
BYLAYER
 10
41.2999999576461
 20
50.4094880608454
 11
41.2999999576461
 21
45.2495455045049
  0
LINE
  5
3E2
100
AcDbEntity
  8
HIDDEN
100
AcDbLine
  6
BYLAYER
 10
43.6999999576461
 20
50.4094880608454
 11
43.6999999576461
 21
45.2495455045049
  0
LINE
  5
3E3
100
AcDbEntity
  8
CEN
100
AcDbLine
  6
BYLAYER
 10
42.4999999576461
 20
40.0000000875313
 11
42.4999999576461
 21
45.0000000875313
  0
CIRCLE
  5
3E4
100
AcDbEntity
  8
BASE
100
AcDbCircle
  6
BYLAYER
 10
42.4999999576461
 20
42.5000000875313
 40
3
  0
LINE
  5
3E5
100
AcDbEntity
  8
CEN
100
AcDbLine
  6
BYLAYER
 10
39.9999999576461
 20
42.5000000875313
 11
44.9999999576461
 21
42.5000000875313
  0
ENDBLK
  5
3E6
100
AcDbEntity
  8
0
 67
     1
100
AcDbBlockEnd
  0
BLOCK
  5
3E7
100
AcDbEntity
  8
0
100
AcDbBlockBegin
  2
A$C60F9129D
 70
    0
 10
0
 20
0
 30
0.0
  3
A$C60F9129D
  1

  0
LINE
  5
3E8
100
AcDbEntity
  8
BASE
100
AcDbLine
  6
BYLAYER
 10
56.8497610654588
 20
24.5009881171584
 11
72.8497610654588
 21
24.5009881171584
  0
LINE
  5
3E9
100
AcDbEntity
  8
BASE
100
AcDbLine
  6
BYLAYER
 10
56.8497610654588
 20
31.5009881171584
 11
72.8497610654588
 21
31.5009881171584
  0
LINE
  5
3EA
100
AcDbEntity
  8
BASE
100
AcDbLine
  6
BYLAYER
 10
56.8497610654588
 20
6.50098811715838
 11
72.8497610654588
 21
6.50098811715838
  0
LINE
  5
3EB
100
AcDbEntity
  8
HIDDEN
100
AcDbLine
  6
BYLAYER
 10
56.8497610654588
 20
13.5009881171584
 11
72.8497610654588
 21
13.5009881171584
  0
LINE
  5
3EC
100
AcDbEntity
  8
DIM
100
AcDbLine
  6
BYLAYER
 62
0
370
  -2
 10
52.3497610654587
 20
10.5745178828921
 11
52.3497610654587
 21
4.15013925290424
  0
LINE
  5
3ED
100
AcDbEntity
  8
DIM
100
AcDbLine
  6
BYLAYER
 62
0
370
  -2
 10
56.3497610654587
 20
9.93848811715834
 11
56.3497610654587
 21
4.15013925290424
  0
LINE
  5
3EE
100
AcDbEntity
  8
DIM
100
AcDbLine
  6
BYLAYER
 62
0
370
  -2
 10
52.5297610654587
 20
4.33013925290423
 11
56.1697610654587
 21
4.33013925290423
  0
LINE
  5
3EF
100
AcDbEntity
  8
DIM
100
AcDbLine
  6
BYLAYER
 62
0
370
  -2
 10
56.3497610654587
 20
4.33013925290423
 11
88.2797610654587
 21
4.33013925290423
  0
SOLID
  5
3F0
100
AcDbEntity
  8
DIM
100
AcDbTrace
 10
52.3497610654587
 20
4.33013925290423
 30
0.0
 11
52.5297610654587
 21
4.30013925290423
 31
0.0
 12
52.5297610654587
 22
4.36013925290423
 32
0.0
 13
52.5297610654587
 23
4.36013925290423
 33
0.0
  0
SOLID
  5
3F1
100
AcDbEntity
  8
DIM
100
AcDbTrace
 10
56.1697610654587
 20
4.36013925290423
 30
0.0
 11
56.1697610654587
 21
4.30013925290423
 31
0.0
 12
56.3497610654587
 22
4.33013925290423
 32
0.0
 13
56.3497610654587
 23
4.33013925290423
 33
0.0
  0
TEXT
  5
3F2
100
AcDbEntity
  8
DIM
 62
0
100
AcDbText
  6
BYLAYER
 62
0
 10
88.8497610654587
 20
4.24013925290423
 40
0.18
  1
4.0000
  7
Font_0
 72
1
 11
89.1197610654587
 21
4.33013925290423
100
AcDbText
 73
2
  0
LINE
  5
3F3
100
AcDbEntity
  8
DIM
100
AcDbLine
  6
BYLAYER
 62
0
370
  -2
 10
52.3497610654587
 20
10.4384881171583
 11
52.3497610654587
 21
4.76934530979634E-7
  0
LINE
  5
3F4
100
AcDbEntity
  8
DIM
100
AcDbLine
  6
BYLAYER
 62
0
370
  -2
 10
73.3497610654587
 20
6.93848811715834
 11
73.3497610654587
 21
4.76934530979634E-7
  0
LINE
  5
3F5
100
AcDbEntity
  8
DIM
100
AcDbLine
  6
BYLAYER
 62
0
370
  -2
 10
52.5297610654587
 20
0.180000476934524
 11
62.3097610654587
 21
0.180000476934524
  0
LINE
  5
3F6
100
AcDbEntity
  8
DIM
100
AcDbLine
  6
BYLAYER
 62
0
370
  -2
 10
73.1697610654587
 20
0.180000476934524
 11
63.3897610654587
 21
0.180000476934524
  0
SOLID
  5
3F7
100
AcDbEntity
  8
DIM
100
AcDbTrace
 10
52.3497610654587
 20
0.180000476934524
 30
0.0
 11
52.5297610654587
 21
0.150000476934522
 31
0.0
 12
52.5297610654587
 22
0.210000476934525
 32
0.0
 13
52.5297610654587
 23
0.210000476934525
 33
0.0
  0
SOLID
  5
3F8
100
AcDbEntity
  8
DIM
100
AcDbTrace
 10
73.1697610654587
 20
0.210000476934525
 30
0.0
 11
73.1697610654587
 21
0.150000476934522
 31
0.0
 12
73.3497610654587
 22
0.180000476934524
 32
0.0
 13
73.3497610654587
 23
0.180000476934524
 33
0.0
  0
TEXT
  5
3F9
100
AcDbEntity
  8
DIM
 62
0
100
AcDbText
  6
BYLAYER
 62
0
 10
62.5347610654587
 20
0.0900004769345236
 40
0.18
  1
21.0000
  7
Font_0
 72
1
 11
62.8497610654587
 21
0.180000476934524
100
AcDbText
 73
2
  0
LINE
  5
3FA
100
AcDbEntity
  8
DIM
100
AcDbLine
  6
BYLAYER
 62
0
370
  -2
 10
65.3497610654587
 20
31.5634881171583
 11
65.3497610654587
 21
35.4088867475892
  0
LINE
  5
3FB
100
AcDbEntity
  8
DIM
100
AcDbLine
  6
BYLAYER
 62
0
370
  -2
 10
73.3497610654587
 20
31.0634881171583
 11
73.3497610654587
 21
35.4088867475892
  0
LINE
  5
3FC
100
AcDbEntity
  8
DIM
100
AcDbLine
  6
BYLAYER
 62
0
370
  -2
 10
65.5297610654587
 20
35.2288867475892
 11
68.8697610654587
 21
35.2288867475892
  0
LINE
  5
3FD
100
AcDbEntity
  8
DIM
100
AcDbLine
  6
BYLAYER
 62
0
370
  -2
 10
73.1697610654587
 20
35.2288867475892
 11
69.8297610654587
 21
35.2288867475892
  0
SOLID
  5
3FE
100
AcDbEntity
  8
DIM
100
AcDbTrace
 10
65.3497610654587
 20
35.2288867475892
 30
0.0
 11
65.5297610654587
 21
35.1988867475892
 31
0.0
 12
65.5297610654587
 22
35.2588867475892
 32
0.0
 13
65.5297610654587
 23
35.2588867475892
 33
0.0
  0
SOLID
  5
3FF
100
AcDbEntity
  8
DIM
100
AcDbTrace
 10
73.1697610654587
 20
35.2588867475892
 30
0.0
 11
73.1697610654587
 21
35.1988867475892
 31
0.0
 12
73.3497610654587
 22
35.2288867475892
 32
0.0
 13
73.3497610654587
 23
35.2288867475892
 33
0.0
  0
TEXT
  5
400
100
AcDbEntity
  8
DIM
 62
0
100
AcDbText
  6
BYLAYER
 62
0
 10
69.0797610654587
 20
35.1388867475892
 40
0.18
  1
8.0000
  7
Font_0
 72
1
 11
69.3497610654587
 21
35.2288867475892
100
AcDbText
 73
2
  0
LINE
  5
401
100
AcDbEntity
  8
BASE
100
AcDbLine
  6
BYLAYER
 10
52.3497610654588
 20
27.2289285856908
 11
52.3497610654588
 21
10.773047648626
  0
LINE
  5
402
100
AcDbEntity
  8
DIM
100
AcDbLine
  6
BYLAYER
 62
0
370
  -2
 10
54.2872610654587
 20
26.5009881171583
 11
48.3699477433158
 21
26.5009881171583
  0
LINE
  5
403
100
AcDbEntity
  8
DIM
100
AcDbLine
  6
BYLAYER
 62
0
370
  -2
 10
54.2872610654587
 20
11.5009881171583
 11
48.3699477433158
 21
11.5009881171583
  0
LINE
  5
404
100
AcDbEntity
  8
DIM
100
AcDbLine
  6
BYLAYER
 62
0
370
  -2
 10
48.5499477433158
 20
26.3209881171583
 11
48.5499477433158
 21
19.1809881171583
  0
LINE
  5
405
100
AcDbEntity
  8
DIM
100
AcDbLine
  6
BYLAYER
 62
0
370
  -2
 10
48.5499477433158
 20
11.6809881171583
 11
48.5499477433158
 21
18.8209881171583
  0
SOLID
  5
406
100
AcDbEntity
  8
DIM
100
AcDbTrace
 10
48.5199477433158
 20
26.3209881171583
 30
0.0
 11
48.5799477433158
 21
26.3209881171583
 31
0.0
 12
48.5499477433158
 22
26.5009881171583
 32
0.0
 13
48.5499477433158
 23
26.5009881171583
 33
0.0
  0
SOLID
  5
407
100
AcDbEntity
  8
DIM
100
AcDbTrace
 10
48.5499477433158
 20
11.5009881171583
 30
0.0
 11
48.5799477433158
 21
11.6809881171583
 31
0.0
 12
48.5199477433158
 22
11.6809881171583
 32
0.0
 13
48.5199477433158
 23
11.6809881171583
 33
0.0
  0
TEXT
  5
408
100
AcDbEntity
  8
DIM
 62
0
100
AcDbText
  6
BYLAYER
 62
0
 10
48.3699477433157
 20
18.9109881171583
 40
0.18
  1
Φ15
  7
Font_0
 72
1
 11
48.5499477433157
 21
19.0009881171583
100
AcDbText
 73
2
  0
LINE
  5
409
100
AcDbEntity
  8
CEN
100
AcDbLine
  6
BYLAYER
 10
14.9999989478504
 20
34.0009881171584
 11
14.9999989478504
 21
4.00098811715838
  0
LINE
  5
40A
100
AcDbEntity
  8
DIM
100
AcDbLine
  6
BYLAYER
 62
0
370
  -2
 10
52.7872610654587
 20
28.0009881171583
 11
44.3126344211728
 21
28.0009881171583
  0
LINE
  5
40B
100
AcDbEntity
  8
DIM
100
AcDbLine
  6
BYLAYER
 62
0
370
  -2
 10
52.7872610654587
 20
10.0009881171583
 11
44.3126344211728
 21
10.0009881171583
  0
LINE
  5
40C
100
AcDbEntity
  8
DIM
100
AcDbLine
  6
BYLAYER
 62
0
370
  -2
 10
44.4926344211728
 20
27.8209881171583
 11
44.4926344211728
 21
19.1809881171583
  0
LINE
  5
40D
100
AcDbEntity
  8
DIM
100
AcDbLine
  6
BYLAYER
 62
0
370
  -2
 10
44.4926344211728
 20
10.1809881171583
 11
44.4926344211728
 21
18.8209881171583
  0
SOLID
  5
40E
100
AcDbEntity
  8
DIM
100
AcDbTrace
 10
44.4626344211728
 20
27.8209881171583
 30
0.0
 11
44.5226344211728
 21
27.8209881171583
 31
0.0
 12
44.4926344211728
 22
28.0009881171583
 32
0.0
 13
44.4926344211728
 23
28.0009881171583
 33
0.0
  0
SOLID
  5
40F
100
AcDbEntity
  8
DIM
100
AcDbTrace
 10
44.4926344211728
 20
10.0009881171583
 30
0.0
 11
44.5226344211728
 21
10.1809881171583
 31
0.0
 12
44.4626344211728
 22
10.1809881171583
 32
0.0
 13
44.4626344211728
 23
10.1809881171583
 33
0.0
  0
TEXT
  5
410
100
AcDbEntity
  8
DIM
 62
0
100
AcDbText
  6
BYLAYER
 62
0
 10
44.3126344211728
 20
18.9109881171583
 40
0.18
  1
Φ18
  7
Font_0
 72
1
 11
44.4926344211728
 21
19.0009881171583
100
AcDbText
 73
2
  0
LINE
  5
411
100
AcDbEntity
  8
DIM
100
AcDbLine
  6
BYLAYER
 62
0
370
  -2
 10
18.304178717982
 20
14.0432567041127
 11
18.124178717982
 21
14.0432567041127
  0
LINE
  5
412
100
AcDbEntity
  8
DIM
100
AcDbLine
  6
BYLAYER
 62
0
370
  -2
 10
18.124178717982
 20
14.0432567041127
 11
18.028214151664
 21
14.1955419693598
  0
TEXT
  5
413
100
AcDbEntity
  8
DIM
 62
0
100
AcDbText
  6
BYLAYER
 62
0
 10
18.859178717982
 20
13.9532567041127
 40
0.18
  1
φ11.0000
  7
Font_0
 72
1
 11
19.264178717982
 21
14.0432567041127
100
AcDbText
 73
2
  0
SOLID
  5
414
100
AcDbEntity
  8
DIM
100
AcDbTrace
 10
17.9322495853459
 20
14.347827234607
 30
0.0
 11
18.0028332741228
 21
14.1795478749735
 31
0.0
 12
18.0535950292052
 22
14.2115360637462
 32
0.0
 13
18.0535950292052
 23
14.2115360637462
 33
0.0
  0
LINE
  5
415
100
AcDbEntity
  8
DIM
100
AcDbLine
  6
BYLAYER
 62
0
370
  -2
 10
14.9099989478502
 20
19.0009881171583
 11
15.0899989478502
 21
19.0009881171583
  0
LINE
  5
416
100
AcDbEntity
  8
DIM
100
AcDbLine
  6
BYLAYER
 62
0
370
  -2
 10
14.9999989478503
 20
18.9109881171583
 11
14.9999989478502
 21
19.0909881171583
  0
CIRCLE
  5
417
100
AcDbEntity
  8
BASE
100
AcDbCircle
  6
BYLAYER
 10
14.9999989478504
 20
19.0009881171584
 40
12.5
  0
CIRCLE
  5
418
100
AcDbEntity
  8
BASE
100
AcDbCircle
  6
BYLAYER
 10
14.9999989478504
 20
19.0009881171584
 40
9
  0
CIRCLE
  5
419
100
AcDbEntity
  8
BASE
100
AcDbCircle
  6
BYLAYER
 10
14.9999989478504
 20
19.0009881171584
 40
5.5
  0
CIRCLE
  5
41A
100
AcDbEntity
  8
BASE
100
AcDbCircle
  6
BYLAYER
 10
14.9999989478504
 20
19.0009881171584
 40
7.5
  0
LINE
  5
41B
100
AcDbEntity
  8
DIM
100
AcDbLine
  6
BYLAYER
 62
0
370
  -2
 10
9.605148122294
 20
30.756196786816
 11
9.78514812229399
 21
30.756196786816
  0
LINE
  5
41C
100
AcDbEntity
  8
DIM
100
AcDbLine
  6
BYLAYER
 62
0
370
  -2
 10
9.78514812229399
 20
30.756196786816
 11
9.85813981347599
 21
30.5916604290758
  0
TEXT
  5
41D
100
AcDbEntity
  8
DIM
 62
0
100
AcDbText
  6
BYLAYER
 62
0
 10
8.54014812229399
 20
30.6661967868159
 40
0.18
  1
φ25.0000
  7
Font_0
 72
1
 11
8.94514812229399
 21
30.7561967868159
100
AcDbText
 73
2
  0
SOLID
  5
41E
100
AcDbEntity
  8
DIM
100
AcDbTrace
 10
9.885562539766
 20
30.6038257109395
 30
0.0
 11
9.83071708718599
 21
30.5794951472122
 31
0.0
 12
9.931131504658
 22
30.4271240713357
 32
0.0
 13
9.931131504658
 23
30.4271240713357
 33
0.0
  0
LINE
  5
41F
100
AcDbEntity
  8
DIM
100
AcDbLine
  6
BYLAYER
 62
0
370
  -2
 10
14.9099989478503
 20
19.0009881171583
 11
15.0899989478503
 21
19.0009881171583
  0
LINE
  5
420
100
AcDbEntity
  8
DIM
100
AcDbLine
  6
BYLAYER
 62
0
370
  -2
 10
14.9999989478504
 20
18.9109881171583
 11
14.9999989478504
 21
19.0909881171583
  0
LINE
  5
421
100
AcDbEntity
  8
BASE
100
AcDbLine
  6
BYLAYER
 10
56.3497610654588
 20
7.00098811715838
 11
56.3497610654588
 21
10.0009881171584
  0
LINE
  5
422
100
AcDbEntity
  8
BASE
100
AcDbLine
  6
BYLAYER
 10
56.3497610654588
 20
7.00098811715838
 11
56.8497610654588
 21
6.50098811715838
  0
LINE
  5
423
100
AcDbEntity
  8
HIDDEN
100
AcDbLine
  6
BYLAYER
 10
56.3497610654588
 20
11.5009881171584
 11
56.3497610654588
 21
13.0009881171584
  0
LINE
  5
424
100
AcDbEntity
  8
HIDDEN
100
AcDbLine
  6
BYLAYER
 10
56.3497610654588
 20
13.0009881171584
 11
56.8497610654588
 21
13.5009881171584
  0
LINE
  5
425
100
AcDbEntity
  8
BASE
100
AcDbLine
  6
BYLAYER
 10
52.3497610654588
 20
10.5009881171584
 11
52.3497610654588
 21
10.773047648626
  0
LINE
  5
426
100
AcDbEntity
  8
BASE
100
AcDbLine
  6
BYLAYER
 10
52.8497610654588
 20
10.0009881171584
 11
52.3497610654588
 21
10.5009881171584
  0
LINE
  5
427
100
AcDbEntity
  8
HIDDEN
100
AcDbLine
  6
BYLAYER
 10
54.3497610654588
 20
11.5009881171584
 11
52.3497610654588
 21
10.773047648626
  0
LINE
  5
428
100
AcDbEntity
  8
BASE
100
AcDbLine
  6
BYLAYER
 10
52.8497610654588
 20
10.0009881171584
 11
56.3497610654588
 21
10.0009881171584
  0
LINE
  5
429
100
AcDbEntity
  8
HIDDEN
100
AcDbLine
  6
BYLAYER
 10
54.3497610654587
 20
11.5009881171584
 11
56.3497610654588
 21
11.5009881171584
  0
TEXT
  5
42A
100
AcDbEntity
  8
DIM
100
AcDbText
  6
BYLAYER
 10
39.4059876884986
 20
36.6122833856465
 40
2
  1
M6x1.0x10L､ｺ､ｻｨ､ﾁｳｵｷ
  7
Font_0
 72
2
 11
59.4059876884986
 21
36.6122833856465
100
AcDbText
  0
LINE
  5
42B
100
AcDbEntity
  8
CEN
100
AcDbLine
  6
BYLAYER
 10
-1.0521496279E-6
 20
19.0009881171584
 11
29.9999989478504
 21
19.0009881171584
  0
LINE
  5
42C
100
AcDbEntity
  8
HIDDEN
100
AcDbLine
  6
BYLAYER
 10
14.9999989478504
 20
24.5009881171584
 11
14.9999989478504
 21
31.5009881171584
  0
LINE
  5
42D
100
AcDbEntity
  8
HIDDEN
100
AcDbLine
  6
BYLAYER
 10
12.7999989478504
 20
24.0418213816098
 11
12.7999989478504
 21
31.3058651990313
  0
LINE
  5
42E
100
AcDbEntity
  8
HIDDEN
100
AcDbLine
  6
BYLAYER
 10
11.9999989478504
 20
23.6107603458048
 11
11.9999989478504
 21
31.13564921667
  0
LINE
  5
42F
100
AcDbEntity
  8
HIDDEN
100
AcDbLine
  6
BYLAYER
 10
17.1999989478504
 20
24.0418213816098
 11
17.1999989478504
 21
31.3058651990313
  0
LINE
  5
430
100
AcDbEntity
  8
HIDDEN
100
AcDbLine
  6
BYLAYER
 10
17.9999989478504
 20
23.6107603458048
 11
17.9999989478504
 21
31.13564921667
  0
LINE
  5
431
100
AcDbEntity
  8
CEN
100
AcDbLine
  6
BYLAYER
 10
65.3497610654588
 20
31.5009881171584
 11
65.3497610654588
 21
24.5009881171584
  0
LINE
  5
432
100
AcDbEntity
  8
BASE
100
AcDbLine
  6
BYLAYER
 10
62.3497610654588
 20
31.5009881171584
 11
62.3497610654588
 21
24.5009881171584
  0
LINE
  5
433
100
AcDbEntity
  8
BASE
100
AcDbLine
  6
BYLAYER
 10
68.3497610654588
 20
31.5009881171584
 11
68.3497610654588
 21
24.5009881171584
  0
LINE
  5
434
100
AcDbEntity
  8
BASE
100
AcDbLine
  6
BYLAYER
 10
56.8497610654588
 20
24.5009881171584
 11
56.3497610654588
 21
25.0009881171584
  0
LINE
  5
435
100
AcDbEntity
  8
DIM
100
AcDbLine
  6
BYLAYER
 62
0
370
  -2
 10
52.3497610654587
 20
27.1664285856907
 11
52.3497610654587
 21
23.0349796425414
  0
LINE
  5
436
100
AcDbEntity
  8
DIM
100
AcDbLine
  6
BYLAYER
 62
0
370
  -2
 10
56.3497610654587
 20
26.4384881171583
 11
56.3497610654587
 21
23.0349796425414
  0
LINE
  5
437
100
AcDbEntity
  8
DIM
100
AcDbLine
  6
BYLAYER
 62
0
370
  -2
 10
52.5297610654587
 20
23.2149796425414
 11
53.8697610654587
 21
23.2149796425414
  0
LINE
  5
438
100
AcDbEntity
  8
DIM
100
AcDbLine
  6
BYLAYER
 62
0
370
  -2
 10
56.1697610654587
 20
23.2149796425414
 11
54.8297610654587
 21
23.2149796425414
  0
SOLID
  5
439
100
AcDbEntity
  8
DIM
100
AcDbTrace
 10
52.3497610654587
 20
23.2149796425414
 30
0.0
 11
52.5297610654587
 21
23.1849796425414
 31
0.0
 12
52.5297610654587
 22
23.2449796425414
 32
0.0
 13
52.5297610654587
 23
23.2449796425414
 33
0.0
  0
SOLID
  5
43A
100
AcDbEntity
  8
DIM
100
AcDbTrace
 10
56.1697610654587
 20
23.2449796425414
 30
0.0
 11
56.1697610654587
 21
23.1849796425414
 31
0.0
 12
56.3497610654587
 22
23.2149796425414
 32
0.0
 13
56.3497610654587
 23
23.2149796425414
 33
0.0
  0
TEXT
  5
43B
100
AcDbEntity
  8
DIM
 62
0
100
AcDbText
  6
BYLAYER
 62
0
 10
54.0797610654587
 20
23.1249796425414
 40
0.18
  1
4.0000
  7
Font_0
 72
1
 11
54.3497610654587
 21
23.2149796425414
100
AcDbText
 73
2
  0
LINE
  5
43C
100
AcDbEntity
  8
BASE
100
AcDbLine
  6
BYLAYER
 10
56.3497610654588
 20
31.0009881171584
 11
56.3497610654588
 21
28.0009881171584
  0
LINE
  5
43D
100
AcDbEntity
  8
BASE
100
AcDbLine
  6
BYLAYER
 10
56.3497610654588
 20
31.0009881171584
 11
56.8497610654588
 21
31.5009881171584
  0
LINE
  5
43E
100
AcDbEntity
  8
BASE
100
AcDbLine
  6
BYLAYER
 10
52.3497610654588
 20
27.5009881171584
 11
52.3497610654588
 21
27.2289285856908
  0
LINE
  5
43F
100
AcDbEntity
  8
BASE
100
AcDbLine
  6
BYLAYER
 10
52.8497610654588
 20
28.0009881171584
 11
52.3497610654588
 21
27.5009881171584
  0
LINE
  5
440
100
AcDbEntity
  8
BASE
100
AcDbLine
  6
BYLAYER
 10
52.8497610654588
 20
28.0009881171584
 11
56.3497610654588
 21
28.0009881171584
  0
LINE
  5
441
100
AcDbEntity
  8
BASE
100
AcDbLine
  6
BYLAYER
 10
56.3497610654588
 20
26.5009881171584
 11
56.3497610654588
 21
25.0009881171584
  0
LINE
  5
442
100
AcDbEntity
  8
BASE
100
AcDbLine
  6
BYLAYER
 10
54.3497610654587
 20
26.5009881171584
 11
56.3497610654588
 21
26.5009881171584
  0
LINE
  5
443
100
AcDbEntity
  8
BASE
100
AcDbLine
  6
BYLAYER
 10
54.3497610654588
 20
26.5009881171584
 11
52.3497610654588
 21
27.2289285856908
  0
LINE
  5
444
100
AcDbEntity
  8
BASE
100
AcDbLine
  6
BYLAYER
 10
73.3497610654588
 20
25.0009881171584
 11
73.3497610654588
 21
13.0009881171584
  0
LINE
  5
445
100
AcDbEntity
  8
BASE
100
AcDbLine
  6
BYLAYER
 10
73.3497610654588
 20
7.00098811715838
 11
73.3497610654588
 21
13.0009881171584
  0
LINE
  5
446
100
AcDbEntity
  8
BASE
100
AcDbLine
  6
BYLAYER
 10
72.8497610654588
 20
6.50098811715838
 11
73.3497610654588
 21
7.00098811715838
  0
LINE
  5
447
100
AcDbEntity
  8
HIDDEN
100
AcDbLine
  6
BYLAYER
 10
72.8497610654588
 20
13.5009881171584
 11
73.3497610654588
 21
13.0009881171584
  0
LINE
  5
448
100
AcDbEntity
  8
BASE
100
AcDbLine
  6
BYLAYER
 10
72.8497610654588
 20
24.5009881171584
 11
73.3497610654588
 21
25.0009881171584
  0
LINE
  5
449
100
AcDbEntity
  8
BASE
100
AcDbLine
  6
BYLAYER
 10
72.8497610654588
 20
31.5009881171584
 11
73.3497610654588
 21
31.0009881171584
  0
LINE
  5
44A
100
AcDbEntity
  8
BASE
100
AcDbLine
  6
BYLAYER
 10
73.3497610654588
 20
31.0009881171584
 11
73.3497610654588
 21
25.0009881171584
  0
ENDBLK
  5
44B
100
AcDbEntity
  8
0
 67
     1
100
AcDbBlockEnd
  0
BLOCK
  5
44C
100
AcDbEntity
  8
0
100
AcDbBlockBegin
  2
A
 70
    0
 10
0
 20
0
 30
0.0
  3
A
  1

  0
TEXT
  5
44D
100
AcDbEntity
  8
0
100
AcDbText
  6
BYLAYER
 10
127.674651975441
 20
244.795661972877
 40
2.5
  1
a
  7
Font_0
100
AcDbText
  0
LWPOLYLINE
  5
44E
100
AcDbEntity
  8
0
100
AcDbPolyline
  6
BYLAYER
370
0
 90
     3
 70
     1
 10
126.71643944311
  20
244.632620693086
 10
129.71643944311
  20
244.632620693086
 10
128.21643944311
  20
247.230696904439
  0
ENDBLK
  5
44F
100
AcDbEntity
  8
0
 67
     1
100
AcDbBlockEnd
  0
BLOCK
  5
450
100
AcDbEntity
  8
0
100
AcDbBlockBegin
  2
B
 70
    0
 10
0
 20
0
 30
0.0
  3
B
  1

  0
LWPOLYLINE
  5
451
100
AcDbEntity
  8
0
100
AcDbPolyline
  6
BYLAYER
370
0
 90
     3
 70
     1
 10
131.70249874082
  20
244.288443720077
 10
135.28174293015
  20
244.288443720077
 10
133.492120835485
  20
247.388160114384
  0
TEXT
  5
452
100
AcDbEntity
  8
0
100
AcDbText
  6
BYLAYER
 10
132.758464625955
 20
244.383450143826
 40
2.5
  1
b
  7
Font_0
100
AcDbText
  0
ENDBLK
  5
453
100
AcDbEntity
  8
0
 67
     1
100
AcDbBlockEnd
  0
BLOCK
  5
454
100
AcDbEntity
  8
0
100
AcDbBlockBegin
  2
C
 70
    0
 10
0
 20
0
 30
0.0
  3
C
  1

  0
LWPOLYLINE
  5
455
100
AcDbEntity
  8
0
100
AcDbPolyline
  6
BYLAYER
370
0
 90
     3
 70
     1
 10
135.509916074992
  20
244.473484482901
 10
139.001038434513
  20
244.473484482901
 10
137.255477254752
  20
247.496885133966
  0
TEXT
  5
456
100
AcDbEntity
  8
0
100
AcDbText
  6
BYLAYER
 10
136.382181305809
 20
244.594791834341
 40
2.5
  1
c
  7
Font_0
100
AcDbText
  0
ENDBLK
  5
457
100
AcDbEntity
  8
0
 67
     1
100
AcDbBlockEnd
  0
BLOCK
  5
458
100
AcDbEntity
  8
0
100
AcDbBlockBegin
  2
D
 70
    0
 10
0
 20
0
 30
0.0
  3
D
  1

  0
LWPOLYLINE
  5
459
100
AcDbEntity
  8
0
100
AcDbPolyline
  6
BYLAYER
370
0
 90
     3
 70
     1
 10
140.763374439689
  20
244.465698913845
 10
144.291976798415
  20
244.465698913845
 10
142.527675619052
  20
247.521558196355
  0
TEXT
  5
45A
100
AcDbEntity
  8
0
100
AcDbText
  6
BYLAYER
 10
141.593202675708
 20
244.519464650768
 40
2.5
  1
d
  7
Font_0
100
AcDbText
  0
ENDBLK
  5
45B
100
AcDbEntity
  8
0
 67
     1
100
AcDbBlockEnd
  0
BLOCK
  5
45C
100
AcDbEntity
  8
0
100
AcDbBlockBegin
  2
A4ｹﾏｮﾘ_JAME_
 70
    0
 10
0
 20
0
 30
0.0
  3
A4ｹﾏｮﾘ_JAME_
  1

  0
POINT
  5
45D
100
AcDbEntity
  8
7475A
100
AcDbPoint
 10
289
 20
0
  0
TEXT
  5
45E
100
AcDbEntity
  8
0
100
AcDbText
  6
BYLAYER
 10
3.82484782096731
 20
38.4479746826859
 40
5
  1
ｦCｦL､魘ﾁ :
  7
Font_0
100
AcDbText
  0
LINE
  5
45F
100
AcDbEntity
  8
0
100
AcDbLine
  6
BYLAYER
 10
49.4
 20
12
 11
49.4
 21
6
  0
TEXT
  5
460
100
AcDbEntity
  8
TEXT
100
AcDbText
  6
BYLAYER
 10
129
 20
19
 40
3.5
  1
JAME
  7
Font_0
100
AcDbText
  0
TEXT
  5
461
100
AcDbEntity
  8
TEXT
100
AcDbText
  6
BYLAYER
 10
179
 20
7
 40
3.5
 41
0.8
  1
20020101
  7
Font_0
100
AcDbText
  0
TEXT
  5
462
100
AcDbEntity
  8
TEXT
100
AcDbText
  6
BYLAYER
 10
179
 20
19
 40
3.5
  1
M/M
  7
Font_0
100
AcDbText
  0
TEXT
  5
463
100
AcDbEntity
  8
TEXT
100
AcDbText
  6
BYLAYER
 10
179
 20
25
 40
3.5
  1
1
  7
Font_0
100
AcDbText
  0
INSERT
  5
464
100
AcDbEntity
  8
0
100
AcDbBlockReference
  6
CONTINUOUS
  2
JAME
 10
0
 20
0
 30
0.0
  0
ENDBLK
  5
465
100
AcDbEntity
  8
0
 67
     1
100
AcDbBlockEnd
  0
BLOCK
  5
466
100
AcDbEntity
  8
0
100
AcDbBlockBegin
  2
A$C61E53CA7
 70
    0
 10
0
 20
0
 30
0.0
  3
A$C61E53CA7
  1

  0
CIRCLE
  5
467
100
AcDbEntity
  8
ｭｷｽ�
100
AcDbCircle
  6
BYLAYER
 10
78.999999222234
 20
78.9999998324163
 40
66
  0
CIRCLE
  5
468
100
AcDbEntity
  8
ｭｷｽ�
100
AcDbCircle
  6
BYLAYER
 10
78.999999222234
 20
78.9999998324163
 40
69
  0
CIRCLE
  5
469
100
AcDbEntity
  8
ｭｷｽ�
100
AcDbCircle
  6
BYLAYER
 10
78.999999222234
 20
78.9999998324163
 40
69.6
  0
CIRCLE
  5
46A
100
AcDbEntity
  8
ｭｷｽ�
100
AcDbCircle
  6
BYLAYER
 10
78.999999222234
 20
78.9999998324163
 40
75
  0
CIRCLE
  5
46B
100
AcDbEntity
  8
ｭｷｽ�
100
AcDbCircle
  6
BYLAYER
 10
78.999999222234
 20
78.9999998324163
 40
79
  0
CIRCLE
  5
46C
100
AcDbEntity
  8
ｭｷｽ�
100
AcDbCircle
  6
BYLAYER
 10
78.999999222234
 20
78.9999998324163
 40
20
  0
CIRCLE
  5
46D
100
AcDbEntity
  8
ｭｷｽ�
100
AcDbCircle
  6
BYLAYER
 10
78.999999222234
 20
78.9999998324163
 40
18.5
  0
CIRCLE
  5
46E
100
AcDbEntity
  8
ｭｷｽ�
100
AcDbCircle
  6
BYLAYER
 10
78.999999222234
 20
78.9999998324163
 40
26
  0
CIRCLE
  5
46F
100
AcDbEntity
  8
ｭｷｽ�
100
AcDbCircle
  6
BYLAYER
 10
78.999999222234
 20
78.9999998324163
 40
36
  0
CIRCLE
  5
470
100
AcDbEntity
  8
ｭｷｽ�
100
AcDbCircle
  6
BYLAYER
 10
78.999999222234
 20
78.9999998324163
 40
56
  0
CIRCLE
  5
471
100
AcDbEntity
  8
ｭｷｽ�
100
AcDbCircle
  6
BYLAYER
 10
78.999999222234
 20
78.9999998324163
 40
7
  0
ENDBLK
  5
472
100
AcDbEntity
  8
0
 67
     1
100
AcDbBlockEnd
  0
BLOCK
  5
473
100
AcDbEntity
  8
0
100
AcDbBlockBegin
  2
A$C6FE07EA7
 70
    0
 10
0
 20
0
 30
0.0
  3
A$C6FE07EA7
  1

  0
LINE
  5
474
100
AcDbEntity
  8
ｭｷｽ�
100
AcDbLine
  6
BYLAYER
 10
57.5000012326577
 20
92.4999998324163
 11
57.5000012326577
 21
65.4999998324163
  0
LINE
  5
475
100
AcDbEntity
  8
ｭｷｽ�
100
AcDbLine
  6
BYLAYER
 10
59.0000012326577
 20
93.9999998324163
 11
59.0000012326577
 21
63.9999998324163
  0
LINE
  5
476
100
AcDbEntity
  8
ｭｷｽ�
100
AcDbLine
  6
BYLAYER
 10
32.7000012326575
 20
96.9999998324163
 11
32.7000012326575
 21
60.9999998324163
  0
LINE
  5
477
100
AcDbEntity
  8
ｭｷｽ�
100
AcDbLine
  6
BYLAYER
 10
2.80000123265745
 20
148.599999832416
 11
2.80000123265745
 21
9.39999983241614
  0
LINE
  5
478
100
AcDbEntity
  8
ｭｷｽ�
100
AcDbLine
  6
BYLAYER
 10
6.7500012326575
 20
153.349999832416
 11
6.7500012326575
 21
4.64999983241614
  0
LINE
  5
479
100
AcDbEntity
  8
ｭｷｽ�
100
AcDbLine
  6
BYLAYER
 10
50.7500012326575
 20
153.349999832416
 11
50.7500012326575
 21
4.64999983241637
  0
LINE
  5
47A
100
AcDbEntity
  8
ｭｷｽ�
100
AcDbLine
  6
BYLAYER
 10
1.2326574961E-6
 20
0.999999832416279
 11
1.2326574961E-6
 21
156.999999832416
  0
LINE
  5
47B
100
AcDbEntity
  8
ｭｷｽ�
100
AcDbLine
  6
BYLAYER
 10
57.5000012326577
 20
63.9999998324163
 11
57.5000012326577
 21
58.7015731714143
  0
LINE
  5
47C
100
AcDbEntity
  8
ｭｷｽ�
100
AcDbLine
  6
BYLAYER
 10
57.5000012326577
 20
58.7015731714143
 11
54.0000012326577
 21
52.7015731714143
  0
LINE
  5
47D
100
AcDbEntity
  8
ｭｷｽ�
100
AcDbLine
  6
BYLAYER
 10
54.0000012326577
 20
52.7015731714143
 11
54.0000012326577
 21
43.0823188967308
  0
LINE
  5
47E
100
AcDbEntity
  8
ｭｷｽ�
100
AcDbLine
  6
BYLAYER
 10
54.0000012326577
 20
43.0823188967308
 11
57.5000012326577
 21
22.9999998324163
  0
LINE
  5
47F
100
AcDbEntity
  8
ｭｷｽ�
100
AcDbLine
  6
BYLAYER
 10
57.5000012326577
 20
22.9999998324163
 11
57.5000012326577
 21
12.5999998324162
  0
LINE
  5
480
100
AcDbEntity
  8
ｭｷｽ�
100
AcDbLine
  6
BYLAYER
 10
57.5000012326577
 20
12.5999998324162
 11
54.0000012326577
 21
9.59999983241619
  0
LINE
  5
481
100
AcDbEntity
  8
ｭｷｽ�
100
AcDbLine
  6
BYLAYER
 10
54.0000012326577
 20
9.59999983241619
 11
54.0000012326577
 21
6.79999983241623
  0
ARC
  5
482
100
AcDbEntity
  8
ｭｷｽ�
100
AcDbCircle
  6
BYLAYER
 10
56.0000012326577
 20
6.79999983241623
 40
2
100
AcDbArc
 50
180
 51
270
  0
LINE
  5
483
100
AcDbEntity
  8
ｭｷｽ�
100
AcDbLine
  6
BYLAYER
 10
56.0000012326577
 20
4.79999983241623
 11
56.2000012326571
 21
4.79999983241623
  0
ARC
  5
484
100
AcDbEntity
  8
ｭｷｽ�
100
AcDbCircle
  6
BYLAYER
 10
56.2000012326573
 20
3.49999983241605
 40
1.30000000000018
100
AcDbArc
 50
1.30276E-11
 51
90.000000000013
  0
LINE
  5
485
100
AcDbEntity
  8
ｭｷｽ�
100
AcDbLine
  6
BYLAYER
 10
57.5000012326575
 20
3.49999983241628
 11
57.5000012326575
 21
0.999999832416279
  0
ARC
  5
486
100
AcDbEntity
  8
ｭｷｽ�
100
AcDbCircle
  6
BYLAYER
 10
56.5000012326575
 20
0.999999832416279
 40
1
100
AcDbArc
 50
270
 51
0
  0
LINE
  5
487
100
AcDbEntity
  8
ｭｷｽ�
100
AcDbLine
  6
BYLAYER
 10
56.5000012326575
 20
-1.675837211E-7
 11
56.5000012326575
 21
-1.675837211E-7
  0
ARC
  5
488
100
AcDbEntity
  8
ｭｷｽ�
100
AcDbCircle
  6
BYLAYER
 10
56.5000012326575
 20
0.999999832416279
 40
1
100
AcDbArc
 50
180
 51
270
  0
LINE
  5
489
100
AcDbEntity
  8
ｭｷｽ�
100
AcDbLine
  6
BYLAYER
 10
55.5000012326575
 20
0.999999832416279
 11
55.5000012326573
 21
4.07619256128419
  0
ARC
  5
48A
100
AcDbEntity
  8
ｭｷｽ�
100
AcDbCircle
  6
BYLAYER
 10
56.0000012326575
 20
6.83118802407535
 40
2.80000000000002
100
AcDbArc
 50
231.168721953581
 51
259.713439388518
  0
LINE
  5
48B
100
AcDbEntity
  8
ｭｷｽ�
100
AcDbLine
  6
BYLAYER
 10
50.7500012326575
 20
4.64999983241637
 11
54.2443195779813
 21
4.64999983241614
  0
LINE
  5
48C
100
AcDbEntity
  8
ｭｷｽ�
100
AcDbLine
  6
BYLAYER
 10
47.0000012326577
 20
60.4999998324163
 11
56.2000012326575
 21
60.4999998324163
  0
LINE
  5
48D
100
AcDbEntity
  8
ｭｷｽ�
100
AcDbLine
  6
BYLAYER
 10
45.5143657907424
 20
12.868771107607
 11
50.7500012326577
 21
15.368673734115
  0
LINE
  5
48E
100
AcDbEntity
  8
ｭｷｽ�
100
AcDbLine
  6
BYLAYER
 10
45.5143657907424
 20
11.7413620291213
 11
50.7500012326575
 21
14.2412646556293
  0
LINE
  5
48F
100
AcDbEntity
  8
ｭｷｽ�
100
AcDbLine
  6
BYLAYER
 10
11.9856366745726
 20
11.7413620291213
 11
6.7500012326575
 21
14.2412646556293
  0
LINE
  5
490
100
AcDbEntity
  8
ｭｷｽ�
100
AcDbLine
  6
BYLAYER
 10
11.9856366745726
 20
12.868771107607
 11
6.75000123265727
 21
15.368673734115
  0
LINE
  5
491
100
AcDbEntity
  8
ｭｷｽ�
100
AcDbLine
  6
BYLAYER
 10
11.9856366745726
 20
8.45389768311543
 11
45.5143657907424
 21
8.4538976831152
  0
LINE
  5
492
100
AcDbEntity
  8
ｭｷｽ�
100
AcDbLine
  6
BYLAYER
 10
11.9856366745726
 20
7.57836194433526
 11
45.5143657907424
 21
7.57836194433526
  0
LINE
  5
493
100
AcDbEntity
  8
ｭｷｽ�
100
AcDbLine
  6
BYLAYER
 10
11.9856366745726
 20
12.868771107607
 11
45.5143657907424
 21
12.868771107607
  0
LINE
  5
494
100
AcDbEntity
  8
ｭｷｽ�
100
AcDbLine
  6
BYLAYER
 10
11.9856366745726
 20
11.7413620291213
 11
45.5143657907424
 21
11.7413620291211
  0
LINE
  5
495
100
AcDbEntity
  8
ｭｷｽ�
100
AcDbLine
  6
BYLAYER
 10
11.9856366745726
 20
3.30022745413862
 11
45.5143657907424
 21
3.30022745413862
  0
LINE
  5
496
100
AcDbEntity
  8
ｭｷｽ�
100
AcDbLine
  6
BYLAYER
 10
11.9856366745726
 20
2.64961137613909
 11
45.5143657907424
 21
2.64961137613909
  0
LINE
  5
497
100
AcDbEntity
  8
ｭｷｽ�
100
AcDbLine
  6
BYLAYER
 10
11.9856366745726
 20
2.1500972059082
 11
45.5143657907424
 21
2.1500972059082
  0
LINE
  5
498
100
AcDbEntity
  8
ｭｷｽ�
100
AcDbLine
  6
BYLAYER
 10
11.9856366745726
 20
5.24608762547291
 11
45.5143657907424
 21
5.24608762547291
  0
LINE
  5
499
100
AcDbEntity
  8
ｭｷｽ�
100
AcDbLine
  6
BYLAYER
 10
11.9856366745726
 20
4.56040963799774
 11
45.5143657907424
 21
4.56040963799774
  0
LINE
  5
49A
100
AcDbEntity
  8
ｭｷｽ�
100
AcDbLine
  6
BYLAYER
 10
11.9856366745726
 20
2.740285938223
 11
45.5143657907424
 21
2.740285938223
  0
LINE
  5
49B
100
AcDbEntity
  8
ｭｷｽ�
100
AcDbLine
  6
BYLAYER
 10
1.2326574961E-6
 20
0.999999832416279
 11
1.2326574961E-6
 21
3.49999983241628
  0
LINE
  5
49C
100
AcDbEntity
  8
ｭｷｽ�
100
AcDbLine
  6
BYLAYER
 10
2.00000123265772
 20
4.07619256128419
 11
2.0000012326575
 21
0.999999832416279
  0
LINE
  5
49D
100
AcDbEntity
  8
ｭｷｽ�
100
AcDbLine
  6
BYLAYER
 10
1.0000012326575
 20
-1.675837211E-7
 11
1.0000012326575
 21
-1.675837211E-7
  0
ARC
  5
49E
100
AcDbEntity
  8
ｭｷｽ�
100
AcDbCircle
  6
BYLAYER
 10
1.0000012326575
 20
0.999999832416279
 40
1
100
AcDbArc
 50
270
 51
0
  0
ARC
  5
49F
100
AcDbEntity
  8
ｭｷｽ�
100
AcDbCircle
  6
BYLAYER
 10
1.0000012326575
 20
0.999999832416279
 40
1
100
AcDbArc
 50
180
 51
270
  0
LINE
  5
4A0
100
AcDbEntity
  8
ｭｷｽ�
100
AcDbLine
  6
BYLAYER
 10
11.9856366745726
 20
5.24608762547291
 11
6.75000123265727
 21
7.74599025198086
  0
LINE
  5
4A1
100
AcDbEntity
  8
ｭｷｽ�
100
AcDbLine
  6
BYLAYER
 10
2.80000123265745
 20
6.03667951786815
 11
2.80000123265745
 21
9.39999983241614
  0
LINE
  5
4A2
100
AcDbEntity
  8
ｭｷｽ�
100
AcDbLine
  6
BYLAYER
 10
2.98088788059113
 20
4.64999983241614
 11
6.7500012326575
 21
4.64999983241614
  0
ARC
  5
4A3
100
AcDbEntity
  8
ｭｷｽ�
100
AcDbCircle
  6
BYLAYER
 10
1.42812419409438
 20
6.17906457483559
 40
1.37924621202461
100
AcDbArc
 50
269.070555547897
 51
354.074572678157
  0
LINE
  5
4A4
100
AcDbEntity
  8
ｭｷｽ�
100
AcDbLine
  6
BYLAYER
 10
1.3000012326579
 20
4.79999983241623
 11
1.40575122826203
 21
4.79999983241623
  0
ARC
  5
4A5
100
AcDbEntity
  8
ｭｷｽ�
100
AcDbCircle
  6
BYLAYER
 10
1.30000123265745
 20
3.49999983241628
 40
1.30000000000001
100
AcDbArc
 50
89.999999999987
 51
180
  0
ARC
  5
4A6
100
AcDbEntity
  8
ｭｷｽ�
100
AcDbCircle
  6
BYLAYER
 10
1.42812419409256
 20
6.17906457483741
 40
2.17924621202456
100
AcDbArc
 50
285.213684467298
 51
315.440589974922
  0
LINE
  5
4A7
100
AcDbEntity
  8
ｭｷｽ�
100
AcDbLine
  6
BYLAYER
 10
11.9856366745726
 20
2.1500972059082
 11
6.7500012326575
 21
4.64999983241614
  0
LINE
  5
4A8
100
AcDbEntity
  8
ｭｷｽ�
100
AcDbLine
  6
BYLAYER
 10
11.9856366745726
 20
2.64961137613909
 11
6.75000123265727
 21
5.14951400264727
  0
LINE
  5
4A9
100
AcDbEntity
  8
ｭｷｽ�
100
AcDbLine
  6
BYLAYER
 10
11.9856366745726
 20
3.30022745413862
 11
6.7500012326575
 21
5.8001300806468
  0
LINE
  5
4AA
100
AcDbEntity
  8
ｭｷｽ�
100
AcDbLine
  6
BYLAYER
 10
11.9856366745726
 20
4.56040963799774
 11
6.75000123265727
 21
7.06031226450568
  0
LINE
  5
4AB
100
AcDbEntity
  8
ｭｷｽ�
100
AcDbLine
  6
BYLAYER
 10
11.9856366745726
 20
7.57836194433526
 11
6.75000123265727
 21
10.0782645708432
  0
LINE
  5
4AC
100
AcDbEntity
  8
ｭｷｽ�
100
AcDbLine
  6
BYLAYER
 10
11.9856366745726
 20
8.45389768311543
 11
6.75000123265727
 21
10.9538003096234
  0
LINE
  5
4AD
100
AcDbEntity
  8
ｭｷｽ�
100
AcDbLine
  6
BYLAYER
 10
45.5143657907424
 20
5.24608762547291
 11
50.7500012326577
 21
7.74599025198086
  0
LINE
  5
4AE
100
AcDbEntity
  8
ｭｷｽ�
100
AcDbLine
  6
BYLAYER
 10
45.5143657907424
 20
3.30022745413862
 11
50.7500012326575
 21
5.8001300806468
  0
LINE
  5
4AF
100
AcDbEntity
  8
ｭｷｽ�
100
AcDbLine
  6
BYLAYER
 10
45.5143657907424
 20
2.64961137613909
 11
50.7500012326577
 21
5.14951400264727
  0
LINE
  5
4B0
100
AcDbEntity
  8
ｭｷｽ�
100
AcDbLine
  6
BYLAYER
 10
45.5143657907424
 20
2.1500972059082
 11
50.7500012326575
 21
4.64999983241614
  0
LINE
  5
4B1
100
AcDbEntity
  8
ｭｷｽ�
100
AcDbLine
  6
BYLAYER
 10
45.5143657907424
 20
4.56040963799774
 11
50.7500012326577
 21
7.06031226450568
  0
LINE
  5
4B2
100
AcDbEntity
  8
ｭｷｽ�
100
AcDbLine
  6
BYLAYER
 10
45.5143657907424
 20
7.57836194433526
 11
50.7500012326577
 21
10.0782645708432
  0
LINE
  5
4B3
100
AcDbEntity
  8
ｭｷｽ�
100
AcDbLine
  6
BYLAYER
 10
45.5143657907424
 20
8.45389768311543
 11
50.7500012326577
 21
10.9538003096234
  0
LINE
  5
4B4
100
AcDbEntity
  8
ｭｷｽ�
100
AcDbLine
  6
BYLAYER
 10
11.9856366745726
 20
16.9781798067031
 11
45.5143657907424
 21
16.9781798067031
  0
LINE
  5
4B5
100
AcDbEntity
  8
ｭｷｽ�
100
AcDbLine
  6
BYLAYER
 10
11.9856366745726
 20
18.4151681906205
 11
45.5143657907424
 21
18.4151681906205
  0
LINE
  5
4B6
100
AcDbEntity
  8
ｭｷｽ�
100
AcDbLine
  6
BYLAYER
 10
11.9856366745726
 20
23.1992118729863
 11
45.5143657907424
 21
23.1992118729863
  0
LINE
  5
4B7
100
AcDbEntity
  8
ｭｷｽ�
100
AcDbLine
  6
BYLAYER
 10
11.9856366745726
 20
24.998188540314
 11
45.5143657907424
 21
24.998188540314
  0
LINE
  5
4B8
100
AcDbEntity
  8
ｭｷｽ�
100
AcDbLine
  6
BYLAYER
 10
11.9856366745726
 20
23.1992118729863
 11
6.7500012326575
 21
25.6991144994945
  0
LINE
  5
4B9
100
AcDbEntity
  8
ｭｷｽ�
100
AcDbLine
  6
BYLAYER
 10
11.9856366745726
 20
18.4151681906205
 11
6.75000123265727
 21
20.9150708171287
  0
LINE
  5
4BA
100
AcDbEntity
  8
ｭｷｽ�
100
AcDbLine
  6
BYLAYER
 10
11.9856366745726
 20
16.9781798067031
 11
6.7500012326575
 21
19.4780824332113
  0
LINE
  5
4BB
100
AcDbEntity
  8
ｭｷｽ�
100
AcDbLine
  6
BYLAYER
 10
11.9856366745726
 20
24.998188540314
 11
6.75000123265727
 21
27.4980911668222
  0
LINE
  5
4BC
100
AcDbEntity
  8
ｭｷｽ�
100
AcDbLine
  6
BYLAYER
 10
45.5143657907424
 20
23.1992118729863
 11
50.7500012326575
 21
25.6991144994945
  0
LINE
  5
4BD
100
AcDbEntity
  8
ｭｷｽ�
100
AcDbLine
  6
BYLAYER
 10
45.5143657907424
 20
18.4151681906205
 11
50.7500012326577
 21
20.9150708171287
  0
LINE
  5
4BE
100
AcDbEntity
  8
ｭｷｽ�
100
AcDbLine
  6
BYLAYER
 10
45.5143657907424
 20
16.9781798067031
 11
50.7500012326575
 21
19.4780824332113
  0
LINE
  5
4BF
100
AcDbEntity
  8
ｭｷｽ�
100
AcDbLine
  6
BYLAYER
 10
45.5143657907424
 20
24.998188540314
 11
50.7500012326577
 21
27.4980911668222
  0
LINE
  5
4C0
100
AcDbEntity
  8
ｭｷｽ�
100
AcDbLine
  6
BYLAYER
 10
46.7000012326575
 20
63.9999998324163
 11
37.7000012326575
 21
63.9999998324163
  0
LINE
  5
4C1
100
AcDbEntity
  8
ｭｷｽ�
100
AcDbLine
  6
BYLAYER
 10
33.2000012326575
 20
60.4999998324163
 11
32.7000012326575
 21
60.9999998324163
  0
LINE
  5
4C2
100
AcDbEntity
  8
ｭｷｽ�
100
AcDbLine
  6
BYLAYER
 10
33.2000012326575
 20
60.4999998324163
 11
37.4000012326578
 21
60.4999998324163
  0
LINE
  5
4C3
100
AcDbEntity
  8
ｭｷｽ�
100
AcDbLine
  6
BYLAYER
 10
37.7000012326575
 20
60.7999998324162
 11
37.4000012326578
 21
60.4999998324163
  0
LINE
  5
4C4
100
AcDbEntity
  8
ｭｷｽ�
100
AcDbLine
  6
BYLAYER
 10
37.7000012326575
 20
60.7999998324162
 11
37.7000012326575
 21
63.9999998324163
  0
LINE
  5
4C5
100
AcDbEntity
  8
ｭｷｽ�
100
AcDbLine
  6
BYLAYER
 10
46.7000012326575
 20
60.7999998324162
 11
47.0000012326577
 21
60.4999998324163
  0
LINE
  5
4C6
100
AcDbEntity
  8
ｭｷｽ�
100
AcDbLine
  6
BYLAYER
 10
46.7000012326575
 20
60.7999998324162
 11
46.7000012326575
 21
63.9999998324163
  0
LINE
  5
4C7
100
AcDbEntity
  8
ｭｷｽ�
100
AcDbLine
  6
BYLAYER
 10
57.5000012326575
 20
62.8819658436664
 11
57.5000012326575
 21
0.999999832416279
  0
LINE
  5
4C8
100
AcDbEntity
  8
ｭｷｽ�
100
AcDbLine
  6
BYLAYER
 10
55.7000012326575
 20
65.4999998324163
 11
55.7000012326575
 21
72.9999998324163
  0
ARC
  5
4C9
100
AcDbEntity
  8
ｭｷｽ�
100
AcDbCircle
  6
BYLAYER
 10
57.5000012326577
 20
63.9999998324163
 40
1.5
100
AcDbArc
 50
270
 51
90
  0
LINE
  5
4CA
100
AcDbEntity
  8
ｭｷｽ�
100
AcDbLine
  6
BYLAYER
 10
56.7000012326575
 20
63.9999998324163
 11
57.5000012326577
 21
63.9999998324163
  0
LINE
  5
4CB
100
AcDbEntity
  8
ｭｷｽ�
100
AcDbLine
  6
BYLAYER
 10
57.5000012326577
 20
63.9999998324163
 11
56.7000012326575
 21
63.9999998324163
  0
LINE
  5
4CC
100
AcDbEntity
  8
ｭｷｽ�
100
AcDbLine
  6
BYLAYER
 10
56.2000012326575
 20
60.4999998324163
 11
56.7000012326575
 21
60.9999998324163
  0
LINE
  5
4CD
100
AcDbEntity
  8
ｭｷｽ�
100
AcDbLine
  6
BYLAYER
 10
57.5000012326577
 20
65.4999998324163
 11
55.7000012326575
 21
65.4999998324163
  0
LINE
  5
4CE
100
AcDbEntity
  8
ｭｷｽ�
100
AcDbLine
  6
BYLAYER
370
0
 10
57.5000012326577
 20
93.9999998324163
 11
57.5000012326577
 21
99.298426493418
  0
LINE
  5
4CF
100
AcDbEntity
  8
ｭｷｽ�
100
AcDbLine
  6
BYLAYER
370
0
 10
57.5000012326577
 20
99.298426493418
 11
54.0000012326577
 21
105.298426493418
  0
LINE
  5
4D0
100
AcDbEntity
  8
ｭｷｽ�
100
AcDbLine
  6
BYLAYER
370
0
 10
54.0000012326577
 20
105.298426493418
 11
54.0000012326577
 21
114.917680768102
  0
LINE
  5
4D1
100
AcDbEntity
  8
ｭｷｽ�
100
AcDbLine
  6
BYLAYER
370
0
 10
54.0000012326577
 20
114.917680768102
 11
57.5000012326577
 21
134.999999832416
  0
LINE
  5
4D2
100
AcDbEntity
  8
ｭｷｽ�
100
AcDbLine
  6
BYLAYER
370
0
 10
57.5000012326577
 20
134.999999832416
 11
57.5000012326577
 21
145.399999832416
  0
LINE
  5
4D3
100
AcDbEntity
  8
ｭｷｽ�
100
AcDbLine
  6
BYLAYER
370
0
 10
57.5000012326577
 20
145.399999832416
 11
54.0000012326577
 21
148.399999832416
  0
LINE
  5
4D4
100
AcDbEntity
  8
ｭｷｽ�
100
AcDbLine
  6
BYLAYER
370
0
 10
54.0000012326577
 20
148.399999832416
 11
54.0000012326577
 21
151.199999832416
  0
ARC
  5
4D5
100
AcDbEntity
  8
ｭｷｽ�
100
AcDbCircle
  6
BYLAYER
370
0
 10
56.0000012326577
 20
151.199999832416
 40
2
100
AcDbArc
 50
90.0000000000001
 51
-180
  0
LINE
  5
4D6
100
AcDbEntity
  8
ｭｷｽ�
100
AcDbLine
  6
BYLAYER
370
0
 10
56.0000012326577
 20
153.199999832416
 11
56.2000012326571
 21
153.199999832416
  0
ARC
  5
4D7
100
AcDbEntity
  8
ｭｷｽ�
100
AcDbCircle
  6
BYLAYER
370
0
 10
56.2000012326574
 20
154.499999832416
 40
1.30000000000004
100
AcDbArc
 50
-90.0000000000163
 51
-1.25949965385955E-12
  0
LINE
  5
4D8
100
AcDbEntity
  8
ｭｷｽ�
100
AcDbLine
  6
BYLAYER
370
0
 10
57.5000012326575
 20
154.499999832416
 11
57.5000012326575
 21
156.999999832416
  0
ARC
  5
4D9
100
AcDbEntity
  8
ｭｷｽ�
100
AcDbCircle
  6
BYLAYER
370
0
 10
56.5000012326575
 20
156.999999832416
 40
1
100
AcDbArc
 50
-6.36110936292703E-15
 51
90
  0
LINE
  5
4DA
100
AcDbEntity
  8
ｭｷｽ�
100
AcDbLine
  6
BYLAYER
370
0
 10
56.5000012326575
 20
157.999999832416
 11
56.5000012326575
 21
157.999999832416
  0
ARC
  5
4DB
100
AcDbEntity
  8
ｭｷｽ�
100
AcDbCircle
  6
BYLAYER
370
0
 10
56.5000012326575
 20
156.999999832416
 40
0.999999999999993
100
AcDbArc
 50
-270
 51
-180
  0
LINE
  5
4DC
100
AcDbEntity
  8
ｭｷｽ�
100
AcDbLine
  6
BYLAYER
370
0
 10
55.5000012326575
 20
156.999999832416
 11
55.5000012326573
 21
153.923807103548
  0
ARC
  5
4DD
100
AcDbEntity
  8
ｭｷｽ�
100
AcDbCircle
  6
BYLAYER
370
0
 10
56.0000012326575
 20
151.168811640757
 40
2.79999999999994
100
AcDbArc
 50
-259.713439388521
 51
-179.999999999998
  0
LINE
  5
4DE
100
AcDbEntity
  8
ｭｷｽ�
100
AcDbLine
  6
BYLAYER
370
0
 10
53.2000012326575
 20
151.168811640757
 11
53.2000012326575
 21
147.999999832416
  0
LINE
  5
4DF
100
AcDbEntity
  8
ｭｷｽ�
100
AcDbLine
  6
BYLAYER
370
0
 10
53.2000012326575
 20
147.999999832416
 11
56.7000012326575
 21
144.999999832416
  0
LINE
  5
4E0
100
AcDbEntity
  8
ｭｷｽ�
100
AcDbLine
  6
BYLAYER
370
0
 10
56.7000012326575
 20
144.999999832416
 11
56.7000012326575
 21
134.999999832416
  0
LINE
  5
4E1
100
AcDbEntity
  8
ｭｷｽ�
100
AcDbLine
  6
BYLAYER
370
0
 10
56.7000012326575
 20
134.999999832416
 11
53.2000012326575
 21
114.999999832416
  0
LINE
  5
4E2
100
AcDbEntity
  8
ｭｷｽ�
100
AcDbLine
  6
BYLAYER
370
0
 10
53.2000012326575
 20
114.999999832416
 11
53.2000012326575
 21
104.999999832416
  0
LINE
  5
4E3
100
AcDbEntity
  8
ｭｷｽ�
100
AcDbLine
  6
BYLAYER
370
0
 10
53.2000012326575
 20
104.999999832416
 11
56.7000012326575
 21
98.9999998324163
  0
LINE
  5
4E4
100
AcDbEntity
  8
ｭｷｽ�
100
AcDbLine
  6
BYLAYER
370
0
 10
56.7000012326575
 20
98.9999998324163
 11
56.7000012326575
 21
93.9999998324163
  0
LINE
  5
4E5
100
AcDbEntity
  8
ｭｷｽ�
100
AcDbLine
  6
BYLAYER
 10
47.0000012326577
 20
97.4999998324163
 11
56.2000012326575
 21
97.4999998324163
  0
LINE
  5
4E6
100
AcDbEntity
  8
ｭｷｽ�
100
AcDbLine
  6
BYLAYER
 10
50.7500012326575
 20
153.349999832416
 11
54.244319577981
 21
153.349999832416
  0
LINE
  5
4E7
100
AcDbEntity
  8
ｭｷｽ�
100
AcDbLine
  6
BYLAYER
 10
46.7000012326575
 20
97.1999998324163
 11
46.7000012326575
 21
93.9999998324163
  0
LINE
  5
4E8
100
AcDbEntity
  8
ｭｷｽ�
100
AcDbLine
  6
BYLAYER
 10
37.7000012326575
 20
97.1999998324163
 11
37.7000012326575
 21
93.9999998324163
  0
LINE
  5
4E9
100
AcDbEntity
  8
ｭｷｽ�
100
AcDbLine
  6
BYLAYER
 10
46.7000012326575
 20
93.9999998324163
 11
37.7000012326575
 21
93.9999998324163
  0
LINE
  5
4EA
100
AcDbEntity
  8
ｭｷｽ�
100
AcDbLine
  6
BYLAYER
 10
33.2000012326575
 20
97.4999998324163
 11
32.7000012326575
 21
96.9999998324163
  0
LINE
  5
4EB
100
AcDbEntity
  8
ｭｷｽ�
100
AcDbLine
  6
BYLAYER
 10
33.2000012326575
 20
97.4999998324163
 11
37.4000012326578
 21
97.4999998324163
  0
LINE
  5
4EC
100
AcDbEntity
  8
ｭｷｽ�
100
AcDbLine
  6
BYLAYER
 10
37.7000012326575
 20
97.1999998324163
 11
37.4000012326578
 21
97.4999998324163
  0
LINE
  5
4ED
100
AcDbEntity
  8
ｭｷｽ�
100
AcDbLine
  6
BYLAYER
 10
47.0000012326577
 20
97.4999998324163
 11
46.7000012326575
 21
97.1999998324163
  0
LINE
  5
4EE
100
AcDbEntity
  8
ｭｷｽ�
100
AcDbLine
  6
BYLAYER
 10
45.5143657907424
 20
154.699772210694
 11
50.7500012326575
 21
152.199869584186
  0
LINE
  5
4EF
100
AcDbEntity
  8
ｭｷｽ�
100
AcDbLine
  6
BYLAYER
 10
45.5143657907424
 20
153.439590026835
 11
50.7500012326577
 21
150.939687400327
  0
LINE
  5
4F0
100
AcDbEntity
  8
ｭｷｽ�
100
AcDbLine
  6
BYLAYER
 10
45.5143657907424
 20
152.75391203936
 11
50.7500012326577
 21
150.254009412851
  0
ARC
  5
4F1
100
AcDbEntity
  8
ｭｷｽ�
100
AcDbCircle
  6
BYLAYER
 10
1.42812419409438
 20
151.820935089997
 40
1.37924621202461
100
AcDbArc
 50
5.92542732184278
 51
90.9294444521035
  0
ARC
  5
4F2
100
AcDbEntity
  8
ｭｷｽ�
100
AcDbCircle
  6
BYLAYER
 10
1.42812419409256
 20
151.820935089995
 40
2.17924621202456
100
AcDbArc
 50
44.5594100250682
 51
74.7863155326896
  0
LINE
  5
4F3
100
AcDbEntity
  8
ｭｷｽ�
100
AcDbLine
  6
BYLAYER
 10
11.9856366745726
 20
152.75391203936
 11
6.75000123265727
 21
150.254009412851
  0
LINE
  5
4F4
100
AcDbEntity
  8
ｭｷｽ�
100
AcDbLine
  6
BYLAYER
 10
11.9856366745726
 20
153.439590026835
 11
6.75000123265727
 21
150.939687400327
  0
LINE
  5
4F5
100
AcDbEntity
  8
ｭｷｽ�
100
AcDbLine
  6
BYLAYER
 10
11.9856366745726
 20
154.699772210694
 11
6.7500012326575
 21
152.199869584186
  0
LINE
  5
4F6
100
AcDbEntity
  8
ｭｷｽ�
100
AcDbLine
  6
BYLAYER
 10
11.9856366745726
 20
146.258637635711
 11
45.5143657907424
 21
146.258637635711
  0
LINE
  5
4F7
100
AcDbEntity
  8
ｭｷｽ�
100
AcDbLine
  6
BYLAYER
 10
11.9856366745726
 20
149.546101981717
 11
45.5143657907424
 21
149.546101981717
  0
LINE
  5
4F8
100
AcDbEntity
  8
ｭｷｽ�
100
AcDbLine
  6
BYLAYER
 10
11.9856366745726
 20
150.421637720497
 11
45.5143657907424
 21
150.421637720497
  0
LINE
  5
4F9
100
AcDbEntity
  8
ｭｷｽ�
100
AcDbLine
  6
BYLAYER
 10
11.9856366745726
 20
145.131228557226
 11
45.5143657907424
 21
145.131228557226
  0
LINE
  5
4FA
100
AcDbEntity
  8
ｭｷｽ�
100
AcDbLine
  6
BYLAYER
 10
11.9856366745726
 20
133.001811124518
 11
45.5143657907424
 21
133.001811124518
  0
LINE
  5
4FB
100
AcDbEntity
  8
ｭｷｽ�
100
AcDbLine
  6
BYLAYER
 10
11.9856366745726
 20
134.800787791846
 11
45.5143657907424
 21
134.800787791846
  0
LINE
  5
4FC
100
AcDbEntity
  8
ｭｷｽ�
100
AcDbLine
  6
BYLAYER
 10
11.9856366745726
 20
139.584831474212
 11
45.5143657907424
 21
139.584831474212
  0
LINE
  5
4FD
100
AcDbEntity
  8
ｭｷｽ�
100
AcDbLine
  6
BYLAYER
 10
11.9856366745726
 20
141.021819858129
 11
45.5143657907424
 21
141.021819858129
  0
LINE
  5
4FE
100
AcDbEntity
  8
ｭｷｽ�
100
AcDbLine
  6
BYLAYER
 10
11.9856366745726
 20
141.021819858129
 11
6.7500012326575
 21
138.521917231621
  0
LINE
  5
4FF
100
AcDbEntity
  8
ｭｷｽ�
100
AcDbLine
  6
BYLAYER
 10
11.9856366745726
 20
133.001811124518
 11
6.75000123265727
 21
130.50190849801
  0
LINE
  5
500
100
AcDbEntity
  8
ｭｷｽ�
100
AcDbLine
  6
BYLAYER
 10
11.9856366745726
 20
134.800787791846
 11
6.7500012326575
 21
132.300885165338
  0
LINE
  5
501
100
AcDbEntity
  8
ｭｷｽ�
100
AcDbLine
  6
BYLAYER
 10
11.9856366745726
 20
139.584831474212
 11
6.75000123265727
 21
137.084928847704
  0
LINE
  5
502
100
AcDbEntity
  8
ｭｷｽ�
100
AcDbLine
  6
BYLAYER
 10
11.9856366745726
 20
145.131228557226
 11
6.75000123265727
 21
142.631325930717
  0
LINE
  5
503
100
AcDbEntity
  8
ｭｷｽ�
100
AcDbLine
  6
BYLAYER
 10
11.9856366745726
 20
146.258637635711
 11
6.7500012326575
 21
143.758735009203
  0
LINE
  5
504
100
AcDbEntity
  8
ｭｷｽ�
100
AcDbLine
  6
BYLAYER
 10
2.80000123265745
 20
151.963320146964
 11
2.80000123265745
 21
148.599999832416
  0
LINE
  5
505
100
AcDbEntity
  8
ｭｷｽ�
100
AcDbLine
  6
BYLAYER
 10
11.9856366745726
 20
149.546101981717
 11
6.75000123265727
 21
147.046199355209
  0
LINE
  5
506
100
AcDbEntity
  8
ｭｷｽ�
100
AcDbLine
  6
BYLAYER
 10
11.9856366745726
 20
150.421637720497
 11
6.75000123265727
 21
147.921735093989
  0
LINE
  5
507
100
AcDbEntity
  8
ｭｷｽ�
100
AcDbLine
  6
BYLAYER
 10
45.5143657907424
 20
141.021819858129
 11
50.7500012326575
 21
138.521917231621
  0
LINE
  5
508
100
AcDbEntity
  8
ｭｷｽ�
100
AcDbLine
  6
BYLAYER
 10
45.5143657907424
 20
133.001811124518
 11
50.7500012326577
 21
130.50190849801
  0
LINE
  5
509
100
AcDbEntity
  8
ｭｷｽ�
100
AcDbLine
  6
BYLAYER
 10
45.5143657907424
 20
134.800787791846
 11
50.7500012326575
 21
132.300885165338
  0
LINE
  5
50A
100
AcDbEntity
  8
ｭｷｽ�
100
AcDbLine
  6
BYLAYER
 10
45.5143657907424
 20
139.584831474212
 11
50.7500012326577
 21
137.084928847704
  0
LINE
  5
50B
100
AcDbEntity
  8
ｭｷｽ�
100
AcDbLine
  6
BYLAYER
 10
45.5143657907424
 20
145.131228557226
 11
50.7500012326577
 21
142.631325930717
  0
LINE
  5
50C
100
AcDbEntity
  8
ｭｷｽ�
100
AcDbLine
  6
BYLAYER
 10
45.5143657907424
 20
146.258637635711
 11
50.7500012326575
 21
143.758735009203
  0
LINE
  5
50D
100
AcDbEntity
  8
ｭｷｽ�
100
AcDbLine
  6
BYLAYER
 10
45.5143657907424
 20
149.546101981717
 11
50.7500012326577
 21
147.046199355209
  0
LINE
  5
50E
100
AcDbEntity
  8
ｭｷｽ�
100
AcDbLine
  6
BYLAYER
 10
45.5143657907424
 20
150.421637720497
 11
50.7500012326577
 21
147.921735093989
  0
LINE
  5
50F
100
AcDbEntity
  8
ｭｷｽ�
100
AcDbLine
  6
BYLAYER
 10
11.9856366745726
 20
152.75391203936
 11
45.5143657907424
 21
152.75391203936
  0
LINE
  5
510
100
AcDbEntity
  8
ｭｷｽ�
100
AcDbLine
  6
BYLAYER
 10
11.9856366745726
 20
153.439590026835
 11
45.5143657907424
 21
153.439590026835
  0
LINE
  5
511
100
AcDbEntity
  8
ｭｷｽ�
100
AcDbLine
  6
BYLAYER
 10
11.9856366745726
 20
155.259713726609
 11
45.5143657907424
 21
155.259713726609
  0
LINE
  5
512
100
AcDbEntity
  8
ｭｷｽ�
100
AcDbLine
  6
BYLAYER
 10
11.9856366745726
 20
154.699772210694
 11
45.5143657907424
 21
154.699772210694
  0
LINE
  5
513
100
AcDbEntity
  8
ｭｷｽ�
100
AcDbLine
  6
BYLAYER
 10
11.9856366745726
 20
155.350388288694
 11
45.5143657907424
 21
155.350388288694
  0
LINE
  5
514
100
AcDbEntity
  8
ｭｷｽ�
100
AcDbLine
  6
BYLAYER
 10
11.9856366745726
 20
155.849902458924
 11
45.5143657907424
 21
155.849902458924
  0
ARC
  5
515
100
AcDbEntity
  8
ｭｷｽ�
100
AcDbCircle
  6
BYLAYER
 10
1.0000012326575
 20
156.999999832416
 40
1
100
AcDbArc
 50
0
 51
90
  0
ARC
  5
516
100
AcDbEntity
  8
ｭｷｽ�
100
AcDbCircle
  6
BYLAYER
 10
1.0000012326575
 20
156.999999832416
 40
1
100
AcDbArc
 50
90
 51
180
  0
LINE
  5
517
100
AcDbEntity
  8
ｭｷｽ�
100
AcDbLine
  6
BYLAYER
 10
2.98088788059113
 20
153.349999832416
 11
6.7500012326575
 21
153.349999832416
  0
LINE
  5
518
100
AcDbEntity
  8
ｭｷｽ�
100
AcDbLine
  6
BYLAYER
 10
1.0000012326575
 20
157.999999832416
 11
1.0000012326575
 21
157.999999832416
  0
LINE
  5
519
100
AcDbEntity
  8
ｭｷｽ�
100
AcDbLine
  6
BYLAYER
 10
1.2326574961E-6
 20
156.999999832416
 11
1.2326574961E-6
 21
154.499999832416
  0
ARC
  5
51A
100
AcDbEntity
  8
ｭｷｽ�
100
AcDbCircle
  6
BYLAYER
 10
1.30000123265745
 20
154.499999832416
 40
1.30000000000001
100
AcDbArc
 50
180
 51
270.000000000013
  0
LINE
  5
51B
100
AcDbEntity
  8
ｭｷｽ�
100
AcDbLine
  6
BYLAYER
 10
1.3000012326579
 20
153.199999832416
 11
1.40575122826203
 21
153.199999832416
  0
LINE
  5
51C
100
AcDbEntity
  8
ｭｷｽ�
100
AcDbLine
  6
BYLAYER
 10
2.00000123265772
 20
153.923807103548
 11
2.0000012326575
 21
156.999999832416
  0
LINE
  5
51D
100
AcDbEntity
  8
ｭｷｽ�
100
AcDbLine
  6
BYLAYER
 10
11.9856366745726
 20
155.350388288694
 11
6.75000123265727
 21
152.850485662185
  0
LINE
  5
51E
100
AcDbEntity
  8
ｭｷｽ�
100
AcDbLine
  6
BYLAYER
 10
11.9856366745726
 20
155.849902458924
 11
6.7500012326575
 21
153.349999832416
  0
LINE
  5
51F
100
AcDbEntity
  8
ｭｷｽ�
100
AcDbLine
  6
BYLAYER
 10
45.5143657907424
 20
155.849902458924
 11
50.7500012326575
 21
153.349999832416
  0
LINE
  5
520
100
AcDbEntity
  8
ｭｷｽ�
100
AcDbLine
  6
BYLAYER
 10
45.5143657907424
 20
155.350388288694
 11
50.7500012326577
 21
152.850485662185
  0
LINE
  5
521
100
AcDbEntity
  8
ｭｷｽ�
100
AcDbLine
  6
BYLAYER
 10
57.5000012326575
 20
156.999999832416
 11
57.5000012326575
 21
95.1180338211661
  0
LINE
  5
522
100
AcDbEntity
  8
ｭｷｽ�
100
AcDbLine
  6
BYLAYER
 10
56.7000012326575
 20
96.9999998324163
 11
56.7000012326575
 21
93.9999998324163
  0
ARC
  5
523
100
AcDbEntity
  8
ｭｷｽ�
100
AcDbCircle
  6
BYLAYER
 10
57.5000012326577
 20
93.9999998324163
 40
1.5
100
AcDbArc
 50
270
 51
90
  0
LINE
  5
524
100
AcDbEntity
  8
ｭｷｽ�
100
AcDbLine
  6
BYLAYER
 10
55.7000012326575
 20
92.4999998324163
 11
55.7000012326575
 21
84.9999998324163
  0
LINE
  5
525
100
AcDbEntity
  8
ｭｷｽ�
100
AcDbLine
  6
BYLAYER
 10
57.5000012326577
 20
93.9999998324163
 11
56.7000012326575
 21
93.9999998324163
  0
LINE
  5
526
100
AcDbEntity
  8
ｭｷｽ�
100
AcDbLine
  6
BYLAYER
 10
56.7000012326575
 20
93.9999998324163
 11
57.5000012326577
 21
93.9999998324163
  0
LINE
  5
527
100
AcDbEntity
  8
ｭｷｽ�
100
AcDbLine
  6
BYLAYER
 10
57.5000012326577
 20
92.4999998324163
 11
55.7000012326575
 21
92.4999998324163
  0
LINE
  5
528
100
AcDbEntity
  8
ｭｷｽ�
100
AcDbLine
  6
BYLAYER
 10
56.2000012326575
 20
97.4999998324163
 11
56.7000012326575
 21
96.9999998324163
  0
LINE
  5
529
100
AcDbEntity
  8
ｭｷｽ�
100
AcDbLine
  6
BYLAYER
 10
55.2000012326575
 20
85.9999998324163
 11
33.2000012326575
 21
85.9999998324163
  0
LINE
  5
52A
100
AcDbEntity
  8
ｭｷｽ�
100
AcDbLine
  6
BYLAYER
 10
38.2000012326575
 20
93.9999998324163
 11
38.2000012326575
 21
85.9999998324163
  0
LINE
  5
52B
100
AcDbEntity
  8
ｭｷｽ�
100
AcDbLine
  6
BYLAYER
 10
46.2000012326575
 20
93.9999998324163
 11
46.2000012326575
 21
85.9999998324163
  0
LINE
  5
52C
100
AcDbEntity
  8
ｭｷｽ�
100
AcDbLine
  6
BYLAYER
 10
55.2000012326575
 20
85.9999998324163
 11
55.2000012326575
 21
71.9999998324163
  0
LINE
  5
52D
100
AcDbEntity
  8
ｭｷｽ�
100
AcDbLine
  6
BYLAYER
 10
55.7000012326575
 20
86.4999998324163
 11
55.7000012326575
 21
71.4999998324163
  0
LINE
  5
52E
100
AcDbEntity
  8
ｭｷｽ�
100
AcDbLine
  6
BYLAYER
 10
33.2000012326575
 20
85.9999998324163
 11
33.2000012326575
 21
71.9999998324163
  0
LINE
  5
52F
100
AcDbEntity
  8
ｭｷｽ�
100
AcDbLine
  6
BYLAYER
 10
55.2000012326575
 20
71.9999998324163
 11
33.2000012326575
 21
71.9999998324163
  0
LINE
  5
530
100
AcDbEntity
  8
ｭｷｽ�
100
AcDbLine
  6
BYLAYER
 10
33.2000012326575
 20
71.9999998324163
 11
32.7000012326575
 21
71.4999998324163
  0
LINE
  5
531
100
AcDbEntity
  8
ｭｷｽ�
100
AcDbLine
  6
BYLAYER
 10
55.7000012326575
 20
71.4999998324163
 11
55.2000012326575
 21
71.9999998324163
  0
LINE
  5
532
100
AcDbEntity
  8
ｭｷｽ�
100
AcDbLine
  6
BYLAYER
 10
33.2000012326575
 20
85.9999998324163
 11
32.7000012326575
 21
86.4999998324163
  0
LINE
  5
533
100
AcDbEntity
  8
ｭｷｽ�
100
AcDbLine
  6
BYLAYER
 10
55.7000012326575
 20
86.4999998324163
 11
55.2000012326575
 21
85.9999998324163
  0
ENDBLK
  5
534
100
AcDbEntity
  8
0
 67
     1
100
AcDbBlockEnd
  0
ENDSEC
  0
SECTION
  2
ENTITIES
  0
LINE
  5
535
100
AcDbEntity
  8
0
100
AcDbLine
  6
BYLAYER
 10
1386.72897730964
 20
-1813.24933892591
 11
1434.72897730964
 21
-1813.24933892591
  0
LINE
  5
536
100
AcDbEntity
  8
0
100
AcDbLine
  6
BYLAYER
 10
1386.72897730964
 20
-1723.24933892591
 11
1434.72897730964
 21
-1723.24933892591
  0
LINE
  5
537
100
AcDbEntity
  8
0
100
AcDbLine
  6
BYLAYER
 10
1434.72897730964
 20
-1724.24933892591
 11
1434.72897730964
 21
-1723.24933892591
  0
LINE
  5
538
100
AcDbEntity
  8
0
100
AcDbLine
  6
BYLAYER
 10
1386.72897730964
 20
-1812.24933892591
 11
1386.72897730964
 21
-1813.24933892591
  0
LINE
  5
539
100
AcDbEntity
  8
0
100
AcDbLine
  6
BYLAYER
 10
1434.72897730964
 20
-1813.24933892591
 11
1444.72897730964
 21
-1813.24933892591
  0
LINE
  5
53A
100
AcDbEntity
  8
0
100
AcDbLine
  6
BYLAYER
 10
1386.72897730964
 20
-1723.24933892591
 11
1376.72897730964
 21
-1723.24933892591
  0
LINE
  5
53B
100
AcDbEntity
  8
0
100
AcDbLine
  6
BYLAYER
 10
1434.72897730964
 20
-1813.24933892591
 11
1434.72897730964
 21
-1812.24933892591
  0
LINE
  5
53C
100
AcDbEntity
  8
0
100
AcDbLine
  6
BYLAYER
 10
1386.72897730964
 20
-1723.24933892591
 11
1386.72897730964
 21
-1724.24933892591
  0
LINE
  5
53D
100
AcDbEntity
  8
0
100
AcDbLine
  6
BYLAYER
 10
1443.72897730964
 20
-1724.24933892591
 11
1377.72897730964
 21
-1724.24933892591
  0
LINE
  5
53E
100
AcDbEntity
  8
0
100
AcDbLine
  6
BYLAYER
 10
1443.72897730964
 20
-1812.24933892591
 11
1443.72897730964
 21
-1724.24933892591
  0
LINE
  5
53F
100
AcDbEntity
  8
0
100
AcDbLine
  6
BYLAYER
 10
1377.72897730964
 20
-1812.24933892591
 11
1443.72897730964
 21
-1812.24933892591
  0
LINE
  5
540
100
AcDbEntity
  8
0
100
AcDbLine
  6
BYLAYER
 10
1377.72897730964
 20
-1724.24933892591
 11
1377.72897730964
 21
-1812.24933892591
  0
LINE
  5
541
100
AcDbEntity
  8
0
100
AcDbLine
  6
BYLAYER
 10
1443.72897730964
 20
-1725.04933892591
 11
1377.72897730964
 21
-1725.04933892591
  0
LINE
  5
542
100
AcDbEntity
  8
0
100
AcDbLine
  6
BYLAYER
 10
1377.72897730964
 20
-1811.44933892591
 11
1443.72897730964
 21
-1811.44933892591
  0
LINE
  5
543
100
AcDbEntity
  8
0
100
AcDbLine
  6
BYLAYER
 10
1444.72897730964
 20
-1723.24933892591
 11
1434.72897730964
 21
-1723.24933892591
  0
LINE
  5
544
100
AcDbEntity
  8
0
100
AcDbLine
  6
BYLAYER
 10
1444.72897730964
 20
-1813.24933892591
 11
1444.72897730964
 21
-1723.24933892591
  0
LINE
  5
545
100
AcDbEntity
  8
0
100
AcDbLine
  6
BYLAYER
 10
1376.72897730964
 20
-1813.24933892591
 11
1386.72897730964
 21
-1813.24933892591
  0
LINE
  5
546
100
AcDbEntity
  8
0
100
AcDbLine
  6
BYLAYER
 10
1376.72897730964
 20
-1723.24933892591
 11
1376.72897730964
 21
-1813.24933892591
  0
CIRCLE
  5
547
100
AcDbEntity
  8
0
100
AcDbCircle
  6
BYLAYER
 10
1465.72897730964
 20
-1823.24933892591
 40
4.25
  0
CIRCLE
  5
548
100
AcDbEntity
  8
0
100
AcDbCircle
  6
BYLAYER
 10
1355.72897730964
 20
-1823.24933892591
 40
4.25
  0
CIRCLE
  5
549
100
AcDbEntity
  8
BASE
100
AcDbCircle
  6
BYLAYER
 10
1355.72897730964
 20
-1713.24933892591
 40
4.25
  0
CIRCLE
  5
54A
100
AcDbEntity
  8
BASE
100
AcDbCircle
  6
BYLAYER
 10
1465.72897730964
 20
-1713.24933892591
 40
4.25
  0
LINE
  5
54B
100
AcDbEntity
  8
0
100
AcDbLine
  6
BYLAYER
 10
1386.72897730964
 20
-1956.91933892591
 11
1434.72897730964
 21
-1956.91933892591
  0
LINE
  5
54C
100
AcDbEntity
  8
0
100
AcDbLine
  6
BYLAYER
 10
1444.72897730964
 20
-1957.91933892591
 11
1434.72897730964
 21
-1957.91933892591
  0
LINE
  5
54D
100
AcDbEntity
  8
0
100
AcDbLine
  6
BYLAYER
 10
1444.72897730964
 20
-1957.91933892591
 11
1444.72897730964
 21
-1833.24933892591
  0
LINE
  5
54E
100
AcDbEntity
  8
0
100
AcDbLine
  6
BYLAYER
 10
1434.72897730964
 20
-1957.91933892591
 11
1434.72897730964
 21
-1833.24933892591
  0
LINE
  5
54F
100
AcDbEntity
  8
0
100
AcDbLine
  6
BYLAYER
 10
1386.72897730964
 20
-1957.91933892591
 11
1386.72897730964
 21
-1833.24933892591
  0
LINE
  5
550
100
AcDbEntity
  8
0
100
AcDbLine
  6
BYLAYER
 10
1376.72897730964
 20
-1957.91933892591
 11
1386.72897730964
 21
-1957.91933892591
  0
LINE
  5
551
100
AcDbEntity
  8
0
100
AcDbLine
  6
BYLAYER
 10
1376.72897730964
 20
-1957.91933892591
 11
1376.72897730964
 21
-1833.24933892591
  0
LINE
  5
552
100
AcDbEntity
  8
BASE
100
AcDbLine
  6
BYLAYER
370
0
 10
1345.72897730964
 20
-1708.24933892591
 11
1345.72897730964
 21
-1828.24933892591
  0
ARC
  5
553
100
AcDbEntity
  8
BASE
100
AcDbCircle
  6
BYLAYER
370
0
 10
1350.72897730964
 20
-1828.24933892591
 40
5
100
AcDbArc
 50
-180
 51
-90
  0
LINE
  5
554
100
AcDbEntity
  8
BASE
100
AcDbLine
  6
BYLAYER
370
0
 10
1350.72897730964
 20
-1833.24933892591
 11
1470.72897730964
 21
-1833.24933892591
  0
ARC
  5
555
100
AcDbEntity
  8
BASE
100
AcDbCircle
  6
BYLAYER
370
0
 10
1470.72897730964
 20
-1828.24933892591
 40
5
100
AcDbArc
 50
-90
 51
6.36110936292703E-15
  0
LINE
  5
556
100
AcDbEntity
  8
BASE
100
AcDbLine
  6
BYLAYER
370
0
 10
1475.72897730964
 20
-1828.24933892591
 11
1475.72897730964
 21
-1708.24933892591
  0
ARC
  5
557
100
AcDbEntity
  8
BASE
100
AcDbCircle
  6
BYLAYER
370
0
 10
1470.72897730964
 20
-1708.24933892591
 40
5
100
AcDbArc
 50
-6.36110936292703E-15
 51
90
  0
LINE
  5
558
100
AcDbEntity
  8
BASE
100
AcDbLine
  6
BYLAYER
370
0
 10
1470.72897730964
 20
-1703.24933892591
 11
1350.72897730964
 21
-1703.24933892591
  0
ARC
  5
559
100
AcDbEntity
  8
BASE
100
AcDbCircle
  6
BYLAYER
370
0
 10
1350.72897730964
 20
-1708.24933892591
 40
5
100
AcDbArc
 50
-270
 51
-180
  0
LINE
  5
55A
100
AcDbEntity
  8
0
100
AcDbLine
  6
BYLAYER
 10
1444.72897730964
 20
-1953.24933892591
 11
1446.22897730964
 21
-1953.24933892591
  0
LINE
  5
55B
100
AcDbEntity
  8
0
100
AcDbLine
  6
BYLAYER
 10
1446.22897730964
 20
-1953.24933892591
 11
1446.22897730964
 21
-1833.24933892591
  0
LINE
  5
55C
100
AcDbEntity
  8
0
100
AcDbLine
  6
BYLAYER
 10
1444.72897730964
 20
-1833.24933892591
 11
1444.72897730964
 21
-1953.24933892591
  0
LINE
  5
55D
100
AcDbEntity
  8
0
100
AcDbLine
  6
BYLAYER
 10
1623.72897730964
 20
-1953.24933892591
 11
1622.22897730964
 21
-1953.24933892591
  0
LINE
  5
55E
100
AcDbEntity
  8
0
100
AcDbLine
  6
BYLAYER
 10
1622.22897730964
 20
-1953.24933892591
 11
1622.22897730964
 21
-1833.24933892591
  0
LINE
  5
55F
100
AcDbEntity
  8
0
100
AcDbLine
  6
BYLAYER
 10
1623.72897730964
 20
-1833.24933892591
 11
1623.72897730964
 21
-1953.24933892591
  0
LINE
  5
560
100
AcDbEntity
  8
BASE
100
AcDbLine
  6
BYLAYER
370
0
 10
1722.72897730964
 20
-1708.24933892591
 11
1722.72897730964
 21
-1828.24933892591
  0
ARC
  5
561
100
AcDbEntity
  8
BASE
100
AcDbCircle
  6
BYLAYER
370
0
 10
1717.72897730964
 20
-1828.24933892591
 40
5
100
AcDbArc
 50
-90
 51
-360
  0
LINE
  5
562
100
AcDbEntity
  8
BASE
100
AcDbLine
  6
BYLAYER
370
0
 10
1717.72897730964
 20
-1833.24933892591
 11
1597.72897730964
 21
-1833.24933892591
  0
ARC
  5
563
100
AcDbEntity
  8
BASE
100
AcDbCircle
  6
BYLAYER
370
0
 10
1597.72897730964
 20
-1828.24933892591
 40
4.99999999999954
100
AcDbArc
 50
179.999999999995
 51
-90.0000000000052
  0
LINE
  5
564
100
AcDbEntity
  8
BASE
100
AcDbLine
  6
BYLAYER
370
0
 10
1592.72897730964
 20
-1828.24933892591
 11
1592.72897730964
 21
-1708.24933892591
  0
ARC
  5
565
100
AcDbEntity
  8
BASE
100
AcDbCircle
  6
BYLAYER
370
0
 10
1597.72897730964
 20
-1708.24933892591
 40
4.99999999999954
100
AcDbArc
 50
90.0000000000052
 51
-179.999999999995
  0
LINE
  5
566
100
AcDbEntity
  8
BASE
100
AcDbLine
  6
BYLAYER
370
0
 10
1597.72897730964
 20
-1703.24933892591
 11
1717.72897730964
 21
-1703.24933892591
  0
ARC
  5
567
100
AcDbEntity
  8
BASE
100
AcDbCircle
  6
BYLAYER
370
0
 10
1717.72897730964
 20
-1708.24933892591
 40
5
100
AcDbArc
 50
0
 51
-270
  0
LINE
  5
568
100
AcDbEntity
  8
0
100
AcDbLine
  6
BYLAYER
 10
1691.72897730964
 20
-1957.91933892591
 11
1691.72897730964
 21
-1833.24933892591
  0
LINE
  5
569
100
AcDbEntity
  8
0
100
AcDbLine
  6
BYLAYER
 10
1691.72897730964
 20
-1957.91933892591
 11
1681.72897730964
 21
-1957.91933892591
  0
LINE
  5
56A
100
AcDbEntity
  8
0
100
AcDbLine
  6
BYLAYER
 10
1681.72897730964
 20
-1957.91933892591
 11
1681.72897730964
 21
-1833.24933892591
  0
LINE
  5
56B
100
AcDbEntity
  8
0
100
AcDbLine
  6
BYLAYER
 10
1633.72897730964
 20
-1957.91933892591
 11
1633.72897730964
 21
-1833.24933892591
  0
LINE
  5
56C
100
AcDbEntity
  8
0
100
AcDbLine
  6
BYLAYER
 10
1623.72897730964
 20
-1957.91933892591
 11
1623.72897730964
 21
-1833.24933892591
  0
LINE
  5
56D
100
AcDbEntity
  8
0
100
AcDbLine
  6
BYLAYER
 10
1623.72897730964
 20
-1957.91933892591
 11
1633.72897730964
 21
-1957.91933892591
  0
LINE
  5
56E
100
AcDbEntity
  8
0
100
AcDbLine
  6
BYLAYER
 10
1681.72897730964
 20
-1956.91933892591
 11
1633.72897730964
 21
-1956.91933892591
  0
CIRCLE
  5
56F
100
AcDbEntity
  8
BASE
100
AcDbCircle
  6
BYLAYER
 10
1602.72897730964
 20
-1713.24933892591
 40
4.25
  0
CIRCLE
  5
570
100
AcDbEntity
  8
BASE
100
AcDbCircle
  6
BYLAYER
 10
1712.72897730964
 20
-1713.24933892591
 40
4.25
  0
CIRCLE
  5
571
100
AcDbEntity
  8
0
100
AcDbCircle
  6
BYLAYER
 10
1712.72897730964
 20
-1823.24933892591
 40
4.25
  0
CIRCLE
  5
572
100
AcDbEntity
  8
0
100
AcDbCircle
  6
BYLAYER
 10
1602.72897730964
 20
-1823.24933892591
 40
4.25
  0
LINE
  5
573
100
AcDbEntity
  8
0
100
AcDbLine
  6
BYLAYER
 10
1691.72897730964
 20
-1723.24933892591
 11
1691.72897730964
 21
-1813.24933892591
  0
LINE
  5
574
100
AcDbEntity
  8
0
100
AcDbLine
  6
BYLAYER
 10
1691.72897730964
 20
-1813.24933892591
 11
1681.72897730964
 21
-1813.24933892591
  0
LINE
  5
575
100
AcDbEntity
  8
0
100
AcDbLine
  6
BYLAYER
 10
1623.72897730964
 20
-1813.24933892591
 11
1623.72897730964
 21
-1723.24933892591
  0
LINE
  5
576
100
AcDbEntity
  8
0
100
AcDbLine
  6
BYLAYER
 10
1623.72897730964
 20
-1723.24933892591
 11
1633.72897730964
 21
-1723.24933892591
  0
LINE
  5
577
100
AcDbEntity
  8
0
100
AcDbLine
  6
BYLAYER
 10
1690.72897730964
 20
-1811.44933892591
 11
1624.72897730964
 21
-1811.44933892591
  0
LINE
  5
578
100
AcDbEntity
  8
0
100
AcDbLine
  6
BYLAYER
 10
1624.72897730964
 20
-1725.04933892591
 11
1690.72897730964
 21
-1725.04933892591
  0
LINE
  5
579
100
AcDbEntity
  8
0
100
AcDbLine
  6
BYLAYER
 10
1690.72897730964
 20
-1724.24933892591
 11
1690.72897730964
 21
-1812.24933892591
  0
LINE
  5
57A
100
AcDbEntity
  8
0
100
AcDbLine
  6
BYLAYER
 10
1690.72897730964
 20
-1812.24933892591
 11
1624.72897730964
 21
-1812.24933892591
  0
LINE
  5
57B
100
AcDbEntity
  8
0
100
AcDbLine
  6
BYLAYER
 10
1624.72897730964
 20
-1812.24933892591
 11
1624.72897730964
 21
-1724.24933892591
  0
LINE
  5
57C
100
AcDbEntity
  8
0
100
AcDbLine
  6
BYLAYER
 10
1624.72897730964
 20
-1724.24933892591
 11
1690.72897730964
 21
-1724.24933892591
  0
LINE
  5
57D
100
AcDbEntity
  8
0
100
AcDbLine
  6
BYLAYER
 10
1681.72897730964
 20
-1723.24933892591
 11
1681.72897730964
 21
-1724.24933892591
  0
LINE
  5
57E
100
AcDbEntity
  8
0
100
AcDbLine
  6
BYLAYER
 10
1633.72897730964
 20
-1813.24933892591
 11
1633.72897730964
 21
-1812.24933892591
  0
LINE
  5
57F
100
AcDbEntity
  8
0
100
AcDbLine
  6
BYLAYER
 10
1681.72897730964
 20
-1723.24933892591
 11
1691.72897730964
 21
-1723.24933892591
  0
LINE
  5
580
100
AcDbEntity
  8
0
100
AcDbLine
  6
BYLAYER
 10
1633.72897730964
 20
-1813.24933892591
 11
1623.72897730964
 21
-1813.24933892591
  0
LINE
  5
581
100
AcDbEntity
  8
0
100
AcDbLine
  6
BYLAYER
 10
1681.72897730964
 20
-1812.24933892591
 11
1681.72897730964
 21
-1813.24933892591
  0
LINE
  5
582
100
AcDbEntity
  8
0
100
AcDbLine
  6
BYLAYER
 10
1633.72897730964
 20
-1724.24933892591
 11
1633.72897730964
 21
-1723.24933892591
  0
LINE
  5
583
100
AcDbEntity
  8
0
100
AcDbLine
  6
BYLAYER
 10
1681.72897730964
 20
-1723.24933892591
 11
1633.72897730964
 21
-1723.24933892591
  0
LINE
  5
584
100
AcDbEntity
  8
0
100
AcDbLine
  6
BYLAYER
 10
1681.72897730964
 20
-1813.24933892591
 11
1633.72897730964
 21
-1813.24933892591
  0
LINE
  5
585
100
AcDbEntity
  8
0
100
AcDbLine
  6
BYLAYER
 10
1622.22897730964
 20
-1863.24933892591
 11
1614.22897730964
 21
-1863.24933892591
  0
LINE
  5
586
100
AcDbEntity
  8
0
100
AcDbLine
  6
BYLAYER
 10
1475.72897730964
 20
-1781.24933892591
 11
1592.72897730964
 21
-1781.24933892591
  0
LINE
  5
587
100
AcDbEntity
  8
0
100
AcDbLine
  6
BYLAYER
 10
1622.22897730964
 20
-1843.24933892591
 11
1614.22897730964
 21
-1843.24933892591
  0
LINE
  5
588
100
AcDbEntity
  8
0
100
AcDbLine
  6
BYLAYER
 10
1618.22897730964
 20
-1878.49933892591
 11
1614.22897730964
 21
-1878.49933892591
  0
ARC
  5
589
100
AcDbEntity
  8
0
100
AcDbCircle
  6
BYLAYER
 10
1618.22897730964
 20
-1876.99933892591
 40
1.5
100
AcDbArc
 50
270
 51
0
  0
LINE
  5
58A
100
AcDbEntity
  8
0
100
AcDbLine
  6
BYLAYER
 10
1622.22897730964
 20
-1910.38076635425
 11
1614.22897730964
 21
-1910.38076635425
  0
LINE
  5
58B
100
AcDbEntity
  8
0
100
AcDbLine
  6
BYLAYER
 10
1619.72897730964
 20
-1876.99933892591
 11
1619.72897730964
 21
-1863.24933892591
  0
LINE
  5
58C
100
AcDbEntity
  8
0
100
AcDbLine
  6
BYLAYER
 10
1619.72897730964
 20
-1833.24933892591
 11
1619.72897730964
 21
-1843.24933892591
  0
LINE
  5
58D
100
AcDbEntity
  8
0
100
AcDbLine
  6
BYLAYER
 10
1622.22897730964
 20
-1925.24933892591
 11
1446.22897730964
 21
-1925.24933892591
  0
LINE
  5
58E
100
AcDbEntity
  8
0
100
AcDbLine
  6
BYLAYER
 10
1599.22897730964
 20
-1925.24933892591
 11
1599.22897730964
 21
-1833.24933892591
  0
LINE
  5
58F
100
AcDbEntity
  8
0
100
AcDbLine
  6
BYLAYER
 10
1614.22897730964
 20
-1833.24933892591
 11
1614.22897730964
 21
-1925.24933892591
  0
LINE
  5
590
100
AcDbEntity
  8
0
100
AcDbLine
  6
BYLAYER
 10
1469.22897730964
 20
-1925.24933892591
 11
1469.22897730964
 21
-1833.24933892591
  0
LINE
  5
591
100
AcDbEntity
  8
0
100
AcDbLine
  6
BYLAYER
 10
1454.22897730964
 20
-1833.24933892591
 11
1454.22897730964
 21
-1925.24933892591
  0
LINE
  5
592
100
AcDbEntity
  8
0
100
AcDbLine
  6
BYLAYER
 10
1448.72897730964
 20
-1833.24933892591
 11
1448.72897730964
 21
-1843.24933892591
  0
LINE
  5
593
100
AcDbEntity
  8
0
100
AcDbLine
  6
BYLAYER
 10
1448.72897730964
 20
-1876.99933892591
 11
1448.72897730964
 21
-1863.24933892591
  0
LINE
  5
594
100
AcDbEntity
  8
0
100
AcDbLine
  6
BYLAYER
 10
1446.22897730964
 20
-1910.38076635425
 11
1454.22897730964
 21
-1910.38076635425
  0
LINE
  5
595
100
AcDbEntity
  8
0
100
AcDbLine
  6
BYLAYER
 10
1450.22897730964
 20
-1878.49933892591
 11
1454.22897730964
 21
-1878.49933892591
  0
ARC
  5
596
100
AcDbEntity
  8
0
100
AcDbCircle
  6
BYLAYER
 10
1450.22897730964
 20
-1876.99933892591
 40
1.5
100
AcDbArc
 50
180
 51
270
  0
LINE
  5
597
100
AcDbEntity
  8
0
100
AcDbLine
  6
BYLAYER
 10
1446.22897730964
 20
-1863.24933892591
 11
1454.22897730964
 21
-1863.24933892591
  0
LINE
  5
598
100
AcDbEntity
  8
0
100
AcDbLine
  6
BYLAYER
 10
1446.22897730964
 20
-1843.24933892591
 11
1454.22897730964
 21
-1843.24933892591
  0
LINE
  5
599
100
AcDbEntity
  8
DIM
100
AcDbLine
  6
BYLAYER
 62
0
370
  -2
 10
1465.72897730964
 20
-1710.74933892591
 11
1465.72897730964
 21
-1666.55737776777
  0
LINE
  5
59A
100
AcDbEntity
  8
DIM
100
AcDbLine
  6
BYLAYER
 62
0
370
  -2
 10
1602.72897730964
 20
-1710.74933892591
 11
1602.72897730964
 21
-1666.55737776777
  0
LINE
  5
59B
100
AcDbEntity
  8
DIM
100
AcDbLine
  6
BYLAYER
 62
0
370
  -2
 10
1474.47897730964
 20
-1669.05737776777
 11
1502.97897730964
 21
-1669.05737776777
  0
LINE
  5
59C
100
AcDbEntity
  8
DIM
100
AcDbLine
  6
BYLAYER
 62
0
370
  -2
 10
1593.97897730964
 20
-1669.05737776777
 11
1565.47897730964
 21
-1669.05737776777
  0
SOLID
  5
59D
100
AcDbEntity
  8
DIM
100
AcDbTrace
 10
1465.72897730964
 20
-1669.05737776777
 30
0.0
 11
1474.47897730964
 21
-1670.5157111011
 31
0.0
 12
1474.47897730964
 22
-1667.59904443443
 32
0.0
 13
1474.47897730964
 23
-1667.59904443443
 33
0.0
  0
SOLID
  5
59E
100
AcDbEntity
  8
DIM
100
AcDbTrace
 10
1593.97897730964
 20
-1667.59904443443
 30
0.0
 11
1593.97897730964
 21
-1670.5157111011
 31
0.0
 12
1602.72897730964
 22
-1669.05737776777
 32
0.0
 13
1602.72897730964
 23
-1669.05737776777
 33
0.0
  0
MTEXT
  5
59F
100
AcDbEntity
  8
DIM
 62
0
100
AcDbMText
 10
1534.22897730964
 20
-1669.05737776777
 40
15
 41
  0.0
  1
137\P(150)
 71
5
  7
Font_0
  0
LINE
  5
5A0
100
AcDbEntity
  8
0
100
AcDbLine
  6
BYLAYER
 10
1374.92897730964
 20
-1938.24933892591
 11
1375.72897730964
 21
-1938.24933892591
  0
LWPOLYLINE
  5
5A1
100
AcDbEntity
  8
0
100
AcDbPolyline
  6
BYLAYER
370
0
 90
     4
 10
1375.72897730964
  20
-1833.24933892591
 10
1375.72897730964
  20
-1953.24933892591
 10
1376.72897730964
  20
-1953.24933892591
 10
1376.72897730964
  20
-1833.24933892591
  0
LWPOLYLINE
  5
5A2
100
AcDbEntity
  8
0
100
AcDbPolyline
  6
BYLAYER
370
0
 90
     4
 10
1373.92897730964
  20
-1833.24933892591
 10
1373.92897730964
  20
-1953.24933892591
 10
1374.92897730964
  20
-1953.24933892591
 10
1374.92897730964
  20
-1833.24933892591
  0
LINE
  5
5A3
100
AcDbEntity
  8
0
100
AcDbLine
  6
BYLAYER
 10
1692.72897730964
 20
-1938.24933892591
 11
1693.52897730964
 21
-1938.24933892591
  0
LWPOLYLINE
  5
5A4
100
AcDbEntity
  8
0
100
AcDbPolyline
  6
BYLAYER
370
0
 90
     4
 10
1693.52897730964
  20
-1833.24933892591
 10
1693.52897730964
  20
-1953.24933892591
 10
1694.52897730964
  20
-1953.24933892591
 10
1694.52897730964
  20
-1833.24933892591
  0
LWPOLYLINE
  5
5A5
100
AcDbEntity
  8
0
100
AcDbPolyline
  6
BYLAYER
370
0
 90
     4
 10
1691.72897730964
  20
-1833.24933892591
 10
1691.72897730964
  20
-1953.24933892591
 10
1692.72897730964
  20
-1953.24933892591
 10
1692.72897730964
  20
-1833.24933892591
  0
LINE
  5
5A6
100
AcDbEntity
  8
DIM
100
AcDbLine
  6
BYLAYER
 62
0
370
  -2
 10
1377.72897730964
 20
-1721.74933892591
 11
1377.72897730964
 21
-1710.42063501665
  0
LINE
  5
5A7
100
AcDbEntity
  8
DIM
100
AcDbLine
  6
BYLAYER
 62
0
370
  -2
 10
1443.72897730964
 20
-1721.74933892591
 11
1443.72897730964
 21
-1710.42063501665
  0
LINE
  5
5A8
100
AcDbEntity
  8
DIM
100
AcDbLine
  6
BYLAYER
 62
0
370
  -2
 10
1386.47897730964
 20
-1712.92063501665
 11
1393.22897730964
 21
-1712.92063501665
  0
LINE
  5
5A9
100
AcDbEntity
  8
DIM
100
AcDbLine
  6
BYLAYER
 62
0
370
  -2
 10
1434.97897730964
 20
-1712.92063501665
 11
1428.22897730964
 21
-1712.92063501665
  0
SOLID
  5
5AA
100
AcDbEntity
  8
DIM
100
AcDbTrace
 10
1377.72897730964
 20
-1712.92063501665
 30
0.0
 11
1386.47897730964
 21
-1714.37896834998
 31
0.0
 12
1386.47897730964
 22
-1711.46230168331
 32
0.0
 13
1386.47897730964
 23
-1711.46230168331
 33
0.0
  0
SOLID
  5
5AB
100
AcDbEntity
  8
DIM
100
AcDbTrace
 10
1434.97897730964
 20
-1711.46230168331
 30
0.0
 11
1434.97897730964
 21
-1714.37896834998
 31
0.0
 12
1443.72897730964
 22
-1712.92063501665
 32
0.0
 13
1443.72897730964
 23
-1712.92063501665
 33
0.0
  0
TEXT
  5
5AC
100
AcDbEntity
  8
DIM
 62
0
100
AcDbText
  6
BYLAYER
 62
0
 10
1403.22897730964
 20
-1720.42063501665
 40
15
  1
66
  7
Font_0
 72
1
 11
1410.72897730964
 21
-1712.92063501665
100
AcDbText
 73
2
  0
LINE
  5
5AD
100
AcDbEntity
  8
DIM
100
AcDbLine
  6
BYLAYER
 62
0
370
  -2
 10
1345.72897730964
 20
-1705.74933892591
 11
1345.72897730964
 21
-1609.8046099787
  0
LINE
  5
5AE
100
AcDbEntity
  8
DIM
100
AcDbLine
  6
BYLAYER
 62
0
370
  -2
 10
1722.72897730964
 20
-1705.74933892591
 11
1722.72897730964
 21
-1609.8046099787
  0
LINE
  5
5AF
100
AcDbEntity
  8
DIM
100
AcDbLine
  6
BYLAYER
 62
0
370
  -2
 10
1354.47897730964
 20
-1612.3046099787
 11
1500.47897730964
 21
-1612.3046099787
  0
LINE
  5
5B0
100
AcDbEntity
  8
DIM
100
AcDbLine
  6
BYLAYER
 62
0
370
  -2
 10
1713.97897730964
 20
-1612.3046099787
 11
1567.97897730964
 21
-1612.3046099787
  0
SOLID
  5
5B1
100
AcDbEntity
  8
DIM
100
AcDbTrace
 10
1345.72897730964
 20
-1612.3046099787
 30
0.0
 11
1354.47897730964
 21
-1613.76294331203
 31
0.0
 12
1354.47897730964
 22
-1610.84627664536
 32
0.0
 13
1354.47897730964
 23
-1610.84627664536
 33
0.0
  0
SOLID
  5
5B2
100
AcDbEntity
  8
DIM
100
AcDbTrace
 10
1713.97897730964
 20
-1610.84627664536
 30
0.0
 11
1713.97897730964
 21
-1613.76294331203
 31
0.0
 12
1722.72897730964
 22
-1612.3046099787
 32
0.0
 13
1722.72897730964
 23
-1612.3046099787
 33
0.0
  0
MTEXT
  5
5B3
100
AcDbEntity
  8
DIM
 62
0
100
AcDbMText
 10
1534.22897730964
 20
-1612.3046099787
 40
15
 41
  0.0
  1
377\P(390)
 71
5
  7
Font_0
  0
LINE
  5
5B4
100
AcDbEntity
  8
DIM
100
AcDbLine
  6
BYLAYER
 62
0
370
  -2
 10
1375.22897730964
 20
-1725.04933892591
 11
1327.00503885578
 21
-1725.04933892591
  0
LINE
  5
5B5
100
AcDbEntity
  8
DIM
100
AcDbLine
  6
BYLAYER
 62
0
370
  -2
 10
1375.22897730964
 20
-1811.44933892591
 11
1327.00503885578
 21
-1811.44933892591
  0
LINE
  5
5B6
100
AcDbEntity
  8
DIM
100
AcDbLine
  6
BYLAYER
 62
0
370
  -2
 10
1329.50503885578
 20
-1733.79933892591
 11
1329.50503885578
 21
-1750.74933892591
  0
LINE
  5
5B7
100
AcDbEntity
  8
DIM
100
AcDbLine
  6
BYLAYER
 62
0
370
  -2
 10
1329.50503885578
 20
-1802.69933892591
 11
1329.50503885578
 21
-1785.74933892591
  0
SOLID
  5
5B8
100
AcDbEntity
  8
DIM
100
AcDbTrace
 10
1328.04670552245
 20
-1733.79933892591
 30
0.0
 11
1330.96337218912
 21
-1733.79933892591
 31
0.0
 12
1329.50503885578
 22
-1725.04933892591
 32
0.0
 13
1329.50503885578
 23
-1725.04933892591
 33
0.0
  0
SOLID
  5
5B9
100
AcDbEntity
  8
DIM
100
AcDbTrace
 10
1329.50503885578
 20
-1811.44933892591
 30
0.0
 11
1330.96337218912
 21
-1802.69933892591
 31
0.0
 12
1328.04670552245
 22
-1802.69933892591
 32
0.0
 13
1328.04670552245
 23
-1802.69933892591
 33
0.0
  0
TEXT
  5
5BA
100
AcDbEntity
  8
DIM
 62
0
100
AcDbText
  6
BYLAYER
 62
0
 10
1337.00503885578
 20
-1775.74933892591
 40
15
  1
86
  7
Font_0
 50
90
 72
1
 11
1329.50503885578
 21
-1768.24933892591
100
AcDbText
 73
2
  0
LINE
  5
5BB
100
AcDbEntity
  8
DIM
100
AcDbLine
  6
BYLAYER
 62
0
370
  -2
 10
1353.22897730964
 20
-1713.24933892591
 11
1304.56588537347
 21
-1713.24933892591
  0
LINE
  5
5BC
100
AcDbEntity
  8
DIM
100
AcDbLine
  6
BYLAYER
 62
0
370
  -2
 10
1353.22897730964
 20
-1823.24933892591
 11
1304.56588537347
 21
-1823.24933892591
  0
LINE
  5
5BD
100
AcDbEntity
  8
DIM
100
AcDbLine
  6
BYLAYER
 62
0
370
  -2
 10
1307.06588537347
 20
-1721.99933892591
 11
1307.06588537347
 21
-1749.49933892591
  0
LINE
  5
5BE
100
AcDbEntity
  8
DIM
100
AcDbLine
  6
BYLAYER
 62
0
370
  -2
 10
1307.06588537347
 20
-1814.49933892591
 11
1307.06588537347
 21
-1786.99933892591
  0
SOLID
  5
5BF
100
AcDbEntity
  8
DIM
100
AcDbTrace
 10
1305.60755204014
 20
-1721.99933892591
 30
0.0
 11
1308.5242187068
 21
-1721.99933892591
 31
0.0
 12
1307.06588537347
 22
-1713.24933892591
 32
0.0
 13
1307.06588537347
 23
-1713.24933892591
 33
0.0
  0
SOLID
  5
5C0
100
AcDbEntity
  8
DIM
100
AcDbTrace
 10
1307.06588537347
 20
-1823.24933892591
 30
0.0
 11
1308.5242187068
 21
-1814.49933892591
 31
0.0
 12
1305.60755204014
 22
-1814.49933892591
 32
0.0
 13
1305.60755204014
 23
-1814.49933892591
 33
0.0
  0
TEXT
  5
5C1
100
AcDbEntity
  8
DIM
 62
0
100
AcDbText
  6
BYLAYER
 62
0
 10
1314.56588537347
 20
-1779.49933892591
 40
15
  1
110
  7
Font_0
 50
90
 72
1
 11
1307.06588537347
 21
-1768.24933892591
100
AcDbText
 73
2
  0
LINE
  5
5C2
100
AcDbEntity
  8
DIM
100
AcDbLine
  6
BYLAYER
 62
0
370
  -2
 10
1348.22897730964
 20
-1703.24933892591
 11
1281.83267736209
 21
-1703.24933892591
  0
LINE
  5
5C3
100
AcDbEntity
  8
DIM
100
AcDbLine
  6
BYLAYER
 62
0
370
  -2
 10
1348.22897730964
 20
-1833.24933892591
 11
1281.83267736209
 21
-1833.24933892591
  0
LINE
  5
5C4
100
AcDbEntity
  8
DIM
100
AcDbLine
  6
BYLAYER
 62
0
370
  -2
 10
1284.33267736209
 20
-1711.99933892591
 11
1284.33267736209
 21
-1746.99933892591
  0
LINE
  5
5C5
100
AcDbEntity
  8
DIM
100
AcDbLine
  6
BYLAYER
 62
0
370
  -2
 10
1284.33267736209
 20
-1824.49933892591
 11
1284.33267736209
 21
-1789.49933892591
  0
SOLID
  5
5C6
100
AcDbEntity
  8
DIM
100
AcDbTrace
 10
1282.87434402876
 20
-1711.99933892591
 30
0.0
 11
1285.79101069543
 21
-1711.99933892591
 31
0.0
 12
1284.33267736209
 22
-1703.24933892591
 32
0.0
 13
1284.33267736209
 23
-1703.24933892591
 33
0.0
  0
SOLID
  5
5C7
100
AcDbEntity
  8
DIM
100
AcDbTrace
 10
1284.33267736209
 20
-1833.24933892591
 30
0.0
 11
1285.79101069543
 21
-1824.49933892591
 31
0.0
 12
1282.87434402876
 22
-1824.49933892591
 32
0.0
 13
1282.87434402876
 23
-1824.49933892591
 33
0.0
  0
TEXT
  5
5C8
100
AcDbEntity
  8
DIM
 62
0
100
AcDbText
  6
BYLAYER
 62
0
 10
1291.83267736209
 20
-1779.49933892591
 40
15
  1
130
  7
Font_0
 50
90
 72
1
 11
1284.33267736209
 21
-1768.24933892591
100
AcDbText
 73
2
  0
LINE
  5
5C9
100
AcDbEntity
  8
DIM
100
AcDbLine
  6
BYLAYER
 62
0
370
  -2
 10
1623.72897730964
 20
-1960.41933892591
 11
1623.72897730964
 21
-1978.20162538958
  0
LINE
  5
5CA
100
AcDbEntity
  8
DIM
100
AcDbLine
  6
BYLAYER
 62
0
370
  -2
 10
1691.72897730964
 20
-1960.41933892591
 11
1691.72897730964
 21
-1978.20162538958
  0
LINE
  5
5CB
100
AcDbEntity
  8
DIM
100
AcDbLine
  6
BYLAYER
 62
0
370
  -2
 10
1632.47897730964
 20
-1975.70162538958
 11
1640.22897730964
 21
-1975.70162538958
  0
LINE
  5
5CC
100
AcDbEntity
  8
DIM
100
AcDbLine
  6
BYLAYER
 62
0
370
  -2
 10
1682.97897730964
 20
-1975.70162538958
 11
1675.22897730964
 21
-1975.70162538958
  0
SOLID
  5
5CD
100
AcDbEntity
  8
DIM
100
AcDbTrace
 10
1623.72897730964
 20
-1975.70162538958
 30
0.0
 11
1632.47897730964
 21
-1977.15995872291
 31
0.0
 12
1632.47897730964
 22
-1974.24329205625
 32
0.0
 13
1632.47897730964
 23
-1974.24329205625
 33
0.0
  0
SOLID
  5
5CE
100
AcDbEntity
  8
DIM
100
AcDbTrace
 10
1682.97897730964
 20
-1974.24329205625
 30
0.0
 11
1682.97897730964
 21
-1977.15995872291
 31
0.0
 12
1691.72897730964
 22
-1975.70162538958
 32
0.0
 13
1691.72897730964
 23
-1975.70162538958
 33
0.0
  0
TEXT
  5
5CF
100
AcDbEntity
  8
DIM
 62
0
100
AcDbText
  6
BYLAYER
 62
0
 10
1650.22897730964
 20
-1983.20162538958
 40
15
  1
68
  7
Font_0
 72
1
 11
1657.72897730964
 21
-1975.70162538958
100
AcDbText
 73
2
  0
LINE
  5
5D0
100
AcDbEntity
  8
0
100
AcDbLine
  6
BYLAYER
 10
1215.03015539638
 20
-1742.24933892591
 11
1215.03015539638
 21
-1794.24933892591
  0
LINE
  5
5D1
100
AcDbEntity
  8
BASE
100
AcDbLine
  6
BYLAYER
 10
1231.53015539638
 20
-1703.24933892591
 11
1231.53015539638
 21
-1833.24933892591
  0
LINE
  5
5D2
100
AcDbEntity
  8
BASE
100
AcDbLine
  6
BYLAYER
 10
1230.03015539638
 20
-1703.24933892591
 11
1230.03015539638
 21
-1833.24933892591
  0
LINE
  5
5D3
100
AcDbEntity
  8
0
100
AcDbLine
  6
BYLAYER
 10
1096.53015539638
 20
-1853.48701394795
 11
1096.53015539638
 21
-1853.01166390386
  0
LINE
  5
5D4
100
AcDbEntity
  8
0
100
AcDbLine
  6
BYLAYER
 10
1096.29248037433
 20
-1853.24933892591
 11
1096.76783041843
 21
-1853.24933892591
  0
LINE
  5
5D5
100
AcDbEntity
  8
0
100
AcDbLine
  6
BYLAYER
 10
1226.53015539638
 20
-1813.24933892591
 11
1211.22099369827
 21
-1813.24933892591
  0
LINE
  5
5D6
100
AcDbEntity
  8
0
100
AcDbLine
  6
BYLAYER
 10
1215.03015539638
 20
-1814.74933892591
 11
1215.03015539638
 21
-1813.24933892591
  0
LINE
  5
5D7
100
AcDbEntity
  8
0
100
AcDbLine
  6
BYLAYER
 10
1226.53015539638
 20
-1814.74933892591
 11
1226.53015539638
 21
-1806.24933892591
  0
LINE
  5
5D8
100
AcDbEntity
  8
0
100
AcDbLine
  6
BYLAYER
 10
1215.03015539638
 20
-1813.24933892591
 11
1215.03015539638
 21
-1814.74933892591
  0
LINE
  5
5D9
100
AcDbEntity
  8
0
100
AcDbLine
  6
BYLAYER
 10
1215.03015539638
 20
-1814.74933892591
 11
1230.03015539638
 21
-1814.74933892591
  0
LINE
  5
5DA
100
AcDbEntity
  8
0
100
AcDbLine
  6
BYLAYER
 10
1215.03015539638
 20
-1813.24933892591
 11
1226.53015539638
 21
-1813.24933892591
  0
LINE
  5
5DB
100
AcDbEntity
  8
0
100
AcDbLine
  6
BYLAYER
 10
1226.53015539638
 20
-1806.24933892591
 11
1215.03015539638
 21
-1794.24933892591
  0
LINE
  5
5DC
100
AcDbEntity
  8
0
100
AcDbLine
  6
BYLAYER
 10
1096.53015539638
 20
-1723.24933892591
 11
1226.53015539638
 21
-1723.24933892591
  0
LINE
  5
5DD
100
AcDbEntity
  8
0
100
AcDbLine
  6
BYLAYER
 10
1226.53015539638
 20
-1730.24933892591
 11
1215.03015539638
 21
-1742.24933892591
  0
LINE
  5
5DE
100
AcDbEntity
  8
0
100
AcDbLine
  6
BYLAYER
 10
1215.03015539638
 20
-1721.74933892591
 11
1230.03015539638
 21
-1721.74933892591
  0
LINE
  5
5DF
100
AcDbEntity
  8
0
100
AcDbLine
  6
BYLAYER
 10
1215.03015539638
 20
-1723.24933892591
 11
1226.53015539638
 21
-1723.24933892591
  0
LINE
  5
5E0
100
AcDbEntity
  8
0
100
AcDbLine
  6
BYLAYER
 10
1215.03015539638
 20
-1721.74933892591
 11
1215.03015539638
 21
-1723.24933892591
  0
LINE
  5
5E1
100
AcDbEntity
  8
0
100
AcDbLine
  6
BYLAYER
 10
1226.53015539638
 20
-1721.74933892591
 11
1226.53015539638
 21
-1730.24933892591
  0
LINE
  5
5E2
100
AcDbEntity
  8
BASE
100
AcDbLine
  6
BYLAYER
 10
1231.53015539638
 20
-1703.24933892591
 11
1231.53015539638
 21
-1833.24933892591
  0
ARC
  5
5E3
100
AcDbEntity
  8
0
100
AcDbCircle
  6
BYLAYER
 10
1096.53015539638
 20
-1853.24933892591
 40
100
100
AcDbArc
 50
26.3145585604738
 51
333.685441439526
  0
CIRCLE
  5
5E4
100
AcDbEntity
  8
0
100
AcDbCircle
  6
BYLAYER
 10
1032.89054508959
 20
-1916.8889492327
 40
3.25
  0
CIRCLE
  5
5E5
100
AcDbEntity
  8
0
100
AcDbCircle
  6
BYLAYER
 10
1032.89054508959
 20
-1789.60972861912
 40
3.25
  0
ARC
  5
5E6
100
AcDbEntity
  8
0
100
AcDbCircle
  6
BYLAYER
 10
1096.53015539638
 20
-1853.24933892591
 40
88.7
100
AcDbArc
 50
338.066355485612
 51
21.9336445143877
  0
CIRCLE
  5
5E7
100
AcDbEntity
  8
0
100
AcDbCircle
  6
BYLAYER
 10
1160.16976570317
 20
-1916.8889492327
 40
3.25
  0
ARC
  5
5E8
100
AcDbEntity
  8
0
100
AcDbCircle
  6
BYLAYER
 10
1183.47841587352
 20
-1896.24933892591
 40
3
100
AcDbArc
 50
333.685441439847
 51
90
  0
LINE
  5
5E9
100
AcDbEntity
  8
0
100
AcDbLine
  6
BYLAYER
 10
1183.47841587352
 20
-1893.24933892591
 11
1183.44787510876
 21
-1893.24933892591
  0
CIRCLE
  5
5EA
100
AcDbEntity
  8
0
100
AcDbCircle
  6
BYLAYER
 10
1160.16976570317
 20
-1789.60972861912
 40
3.25
  0
ARC
  5
5EB
100
AcDbEntity
  8
0
100
AcDbCircle
  6
BYLAYER
 10
1183.47841587352
 20
-1810.24933892591
 40
3
100
AcDbArc
 50
270
 51
26.3145585601527
  0
LINE
  5
5EC
100
AcDbEntity
  8
DIM
100
AcDbLine
  6
BYLAYER
 62
0
370
  -2
 10
1231.53015539638
 20
-1700.74933892591
 11
1231.53015539638
 21
-1662.92627639582
  0
LINE
  5
5ED
100
AcDbEntity
  8
DIM
100
AcDbLine
  6
BYLAYER
 62
0
370
  -2
 10
979.190155396381
 20
-1841.69795582112
 11
979.190155396381
 21
-1662.92627639582
  0
LINE
  5
5EE
100
AcDbEntity
  8
DIM
100
AcDbLine
  6
BYLAYER
 62
0
370
  -2
 10
1222.78015539638
 20
-1665.42627639582
 11
1130.14565244698
 21
-1665.42627639582
  0
LINE
  5
5EF
100
AcDbEntity
  8
DIM
100
AcDbLine
  6
BYLAYER
 62
0
370
  -2
 10
987.940155396381
 20
-1665.42627639582
 11
1080.14565244698
 21
-1665.42627639582
  0
SOLID
  5
5F0
100
AcDbEntity
  8
DIM
100
AcDbTrace
 10
1222.78015539638
 20
-1663.96794306249
 30
0.0
 11
1222.78015539638
 21
-1666.88460972915
 31
0.0
 12
1231.53015539638
 22
-1665.42627639582
 32
0.0
 13
1231.53015539638
 23
-1665.42627639582
 33
0.0
  0
SOLID
  5
5F1
100
AcDbEntity
  8
DIM
100
AcDbTrace
 10
979.190155396381
 20
-1665.42627639582
 30
0.0
 11
987.940155396381
 21
-1666.88460972915
 31
0.0
 12
987.940155396381
 22
-1663.96794306249
 32
0.0
 13
987.940155396381
 23
-1663.96794306249
 33
0.0
  0
TEXT
  5
5F2
100
AcDbEntity
  8
DIM
 62
0
100
AcDbText
  6
BYLAYER
 62
0
 10
1093.89565244697
 20
-1672.92627639582
 40
15
  1
252
  7
Font_0
 72
1
 11
1105.14565244697
 21
-1665.42627639582
100
AcDbText
 73
2
  0
LINE
  5
5F3
100
AcDbEntity
  8
DIM
100
AcDbLine
  6
BYLAYER
 62
0
370
  -2
 10
1227.53015539638
 20
-1703.24933892591
 11
940.076826959988
 21
-1703.24933892591
  0
LINE
  5
5F4
100
AcDbEntity
  8
DIM
100
AcDbLine
  6
BYLAYER
 62
0
370
  -2
 10
1084.96877229159
 20
-1957.91933892591
 11
940.076826959988
 21
-1957.91933892591
  0
LINE
  5
5F5
100
AcDbEntity
  8
DIM
100
AcDbLine
  6
BYLAYER
 62
0
370
  -2
 10
942.576826959988
 20
-1711.99933892591
 11
942.576826959988
 21
-1815.58433892591
  0
LINE
  5
5F6
100
AcDbEntity
  8
DIM
100
AcDbLine
  6
BYLAYER
 62
0
370
  -2
 10
942.576826959988
 20
-1949.16933892591
 11
942.576826959988
 21
-1865.58433892591
  0
SOLID
  5
5F7
100
AcDbEntity
  8
DIM
100
AcDbTrace
 10
941.118493626654
 20
-1711.99933892591
 30
0.0
 11
944.035160293321
 21
-1711.99933892591
 31
0.0
 12
942.576826959988
 22
-1703.24933892591
 32
0.0
 13
942.576826959988
 23
-1703.24933892591
 33
0.0
  0
SOLID
  5
5F8
100
AcDbEntity
  8
DIM
100
AcDbTrace
 10
942.576826959988
 20
-1957.91933892591
 30
0.0
 11
944.035160293321
 21
-1949.16933892591
 31
0.0
 12
941.118493626654
 22
-1949.16933892591
 32
0.0
 13
941.118493626654
 23
-1949.16933892591
 33
0.0
  0
TEXT
  5
5F9
100
AcDbEntity
  8
DIM
 62
0
100
AcDbText
  6
BYLAYER
 62
0
 10
950.076826959988
 20
-1851.83433892591
 40
15
  1
255
  7
Font_0
 50
90
 72
1
 11
942.576826959988
 21
-1840.58433892591
100
AcDbText
 73
2
  0
LINE
  5
5FA
100
AcDbEntity
  8
BASE
100
AcDbLine
  6
BYLAYER
 10
1231.53015539638
 20
-1703.24933892591
 11
1230.03015539638
 21
-1703.24933892591
  0
LINE
  5
5FB
100
AcDbEntity
  8
0
100
AcDbLine
  6
BYLAYER
 10
1231.53015539638
 20
-1833.24933892591
 11
1230.03015539638
 21
-1833.24933892591
  0
LINE
  5
5FC
100
AcDbEntity
  8
DIM
100
AcDbLine
  6
BYLAYER
 62
0
370
  -2
 10
1623.72897730964
 20
-1960.41933892591
 11
1623.72897730964
 21
-1978.20162538958
  0
LINE
  5
5FD
100
AcDbEntity
  8
DIM
100
AcDbLine
  6
BYLAYER
 62
0
370
  -2
 10
1444.72897730964
 20
-1960.41933892591
 11
1444.72897730964
 21
-1978.20162538958
  0
LINE
  5
5FE
100
AcDbEntity
  8
DIM
100
AcDbLine
  6
BYLAYER
 62
0
370
  -2
 10
1614.97897730964
 20
-1975.70162538958
 11
1566.72897730964
 21
-1975.70162538958
  0
LINE
  5
5FF
100
AcDbEntity
  8
DIM
100
AcDbLine
  6
BYLAYER
 62
0
370
  -2
 10
1453.47897730964
 20
-1975.70162538958
 11
1501.72897730964
 21
-1975.70162538958
  0
SOLID
  5
600
100
AcDbEntity
  8
DIM
100
AcDbTrace
 10
1614.97897730964
 20
-1974.24329205625
 30
0.0
 11
1614.97897730964
 21
-1977.15995872291
 31
0.0
 12
1623.72897730964
 22
-1975.70162538958
 32
0.0
 13
1623.72897730964
 23
-1975.70162538958
 33
0.0
  0
SOLID
  5
601
100
AcDbEntity
  8
DIM
100
AcDbTrace
 10
1444.72897730964
 20
-1975.70162538958
 30
0.0
 11
1453.47897730964
 21
-1977.15995872291
 31
0.0
 12
1453.47897730964
 22
-1974.24329205625
 32
0.0
 13
1453.47897730964
 23
-1974.24329205625
 33
0.0
  0
MTEXT
  5
602
100
AcDbEntity
  8
DIM
 62
0
100
AcDbMText
 10
1534.22897730964
 20
-1975.70162538958
 40
15
 41
  0.0
  1
179\P(192)
 71
5
  7
Font_0
  0
LINE
  5
603
100
AcDbEntity
  8
DIM
100
AcDbLine
  6
BYLAYER
 62
0
370
  -2
 10
1227.53015539638
 20
-1703.24933892591
 11
958.946584305219
 21
-1703.24933892591
  0
LINE
  5
604
100
AcDbEntity
  8
DIM
100
AcDbLine
  6
BYLAYER
 62
0
370
  -2
 10
1094.03015539638
 20
-1853.24933892591
 11
958.946584305219
 21
-1853.24933892591
  0
LINE
  5
605
100
AcDbEntity
  8
DIM
100
AcDbLine
  6
BYLAYER
 62
0
370
  -2
 10
961.44658430522
 20
-1711.99933892591
 11
961.44658430522
 21
-1756.99933892591
  0
LINE
  5
606
100
AcDbEntity
  8
DIM
100
AcDbLine
  6
BYLAYER
 62
0
370
  -2
 10
961.446584305219
 20
-1844.49933892591
 11
961.446584305219
 21
-1799.49933892591
  0
SOLID
  5
607
100
AcDbEntity
  8
DIM
100
AcDbTrace
 10
959.988250971886
 20
-1711.99933892591
 30
0.0
 11
962.904917638553
 21
-1711.99933892591
 31
0.0
 12
961.44658430522
 22
-1703.24933892591
 32
0.0
 13
961.44658430522
 23
-1703.24933892591
 33
0.0
  0
SOLID
  5
608
100
AcDbEntity
  8
DIM
100
AcDbTrace
 10
961.446584305219
 20
-1853.24933892591
 30
0.0
 11
962.904917638553
 21
-1844.49933892591
 31
0.0
 12
959.988250971886
 22
-1844.49933892591
 32
0.0
 13
959.988250971886
 23
-1844.49933892591
 33
0.0
  0
TEXT
  5
609
100
AcDbEntity
  8
DIM
 62
0
100
AcDbText
  6
BYLAYER
 62
0
 10
968.94658430522
 20
-1789.49933892591
 40
15
  1
150
  7
Font_0
 50
90
 72
1
 11
961.44658430522
 21
-1778.24933892591
100
AcDbText
 73
2
  0
LINE
  5
60A
100
AcDbEntity
  8
DIM
100
AcDbLine
  6
BYLAYER
 62
0
370
  -2
 10
1465.72897730964
 20
-1710.74933892591
 11
1465.72897730964
 21
-1666.55737776777
  0
LINE
  5
60B
100
AcDbEntity
  8
DIM
100
AcDbLine
  6
BYLAYER
 62
0
370
  -2
 10
1355.72897730964
 20
-1710.74933892591
 11
1355.72897730964
 21
-1666.55737776777
  0
LINE
  5
60C
100
AcDbEntity
  8
DIM
100
AcDbLine
  6
BYLAYER
 62
0
370
  -2
 10
1456.97897730964
 20
-1669.05737776777
 11
1429.47897730964
 21
-1669.05737776777
  0
LINE
  5
60D
100
AcDbEntity
  8
DIM
100
AcDbLine
  6
BYLAYER
 62
0
370
  -2
 10
1364.47897730964
 20
-1669.05737776777
 11
1391.97897730964
 21
-1669.05737776777
  0
SOLID
  5
60E
100
AcDbEntity
  8
DIM
100
AcDbTrace
 10
1456.97897730964
 20
-1667.59904443443
 30
0.0
 11
1456.97897730964
 21
-1670.5157111011
 31
0.0
 12
1465.72897730964
 22
-1669.05737776777
 32
0.0
 13
1465.72897730964
 23
-1669.05737776777
 33
0.0
  0
SOLID
  5
60F
100
AcDbEntity
  8
DIM
100
AcDbTrace
 10
1355.72897730964
 20
-1669.05737776777
 30
0.0
 11
1364.47897730964
 21
-1670.5157111011
 31
0.0
 12
1364.47897730964
 22
-1667.59904443443
 32
0.0
 13
1364.47897730964
 23
-1667.59904443443
 33
0.0
  0
TEXT
  5
610
100
AcDbEntity
  8
DIM
 62
0
100
AcDbText
  6
BYLAYER
 62
0
 10
1399.47897730964
 20
-1676.55737776777
 40
15
  1
110
  7
Font_0
 72
1
 11
1410.72897730964
 21
-1669.05737776777
100
AcDbText
 73
2
  0
LINE
  5
611
100
AcDbEntity
  8
DIM
100
AcDbLine
  6
BYLAYER
 62
0
370
  -2
 10
1583.97897730964
 20
-1726.70858822785
 11
1565.47897730964
 21
-1726.70858822785
  0
LINE
  5
612
100
AcDbEntity
  8
DIM
100
AcDbLine
  6
BYLAYER
 62
0
370
  -2
 10
1484.47897730964
 20
-1726.70858822785
 11
1502.97897730964
 21
-1726.70858822785
  0
SOLID
  5
613
100
AcDbEntity
  8
DIM
100
AcDbTrace
 10
1583.97897730964
 20
-1725.25025489452
 30
0.0
 11
1583.97897730964
 21
-1728.16692156118
 31
0.0
 12
1592.72897730964
 22
-1726.70858822785
 32
0.0
 13
1592.72897730964
 23
-1726.70858822785
 33
0.0
  0
SOLID
  5
614
100
AcDbEntity
  8
DIM
100
AcDbTrace
 10
1475.72897730964
 20
-1726.70858822785
 30
0.0
 11
1484.47897730964
 21
-1728.16692156118
 31
0.0
 12
1484.47897730964
 22
-1725.25025489452
 32
0.0
 13
1484.47897730964
 23
-1725.25025489452
 33
0.0
  0
MTEXT
  5
615
100
AcDbEntity
  8
DIM
 62
0
100
AcDbMText
 10
1534.22897730964
 20
-1726.70858822785
 40
15
 41
  0.0
  1
117\P(130)
 71
5
  7
Font_0
  0
POINT
  5
616
100
AcDbEntity
  8
DEFPOINTS
100
AcDbPoint
 62
0
 10
1596.11877245413
 20
-1312.75839478381
  0
CIRCLE
  5
617
100
AcDbEntity
  8
0
100
AcDbCircle
  6
BYLAYER
 10
1096.53015539638
 20
-1853.24933892591
 40
76
  0
CIRCLE
  5
618
100
AcDbEntity
  8
0
100
AcDbCircle
  6
BYLAYER
 10
1096.53015539638
 20
-1853.24933892591
 40
7
  0
LINE
  5
619
100
AcDbEntity
  8
0
100
AcDbLine
  6
BYLAYER
 10
1384.77897730964
 20
-1783.64933892591
 11
1384.77897730964
 21
-1811.44933892591
  0
LINE
  5
61A
100
AcDbEntity
  8
0
100
AcDbLine
  6
BYLAYER
 10
1388.72897730964
 20
-1778.89933892591
 11
1388.72897730964
 21
-1811.44933892591
  0
LINE
  5
61B
100
AcDbEntity
  8
0
100
AcDbLine
  6
BYLAYER
 10
1432.72897730964
 20
-1778.89933892591
 11
1432.72897730964
 21
-1811.44933892591
  0
LINE
  5
61C
100
AcDbEntity
  8
0
100
AcDbLine
  6
BYLAYER
 10
1381.97897730964
 20
-1811.44933892591
 11
1381.97897730964
 21
-1775.24933892591
  0
LINE
  5
61D
100
AcDbEntity
  8
0
100
AcDbLine
  6
BYLAYER
370
0
 10
1437.00416352738
 20
-1811.44933892591
 11
1439.47897730964
 21
-1797.24933892591
  0
LINE
  5
61E
100
AcDbEntity
  8
0
100
AcDbLine
  6
BYLAYER
370
0
 10
1439.47897730964
 20
-1797.24933892591
 11
1439.47897730964
 21
-1786.84933892591
  0
LINE
  5
61F
100
AcDbEntity
  8
0
100
AcDbLine
  6
BYLAYER
370
0
 10
1439.47897730964
 20
-1786.84933892591
 11
1435.97897730964
 21
-1783.84933892591
  0
LINE
  5
620
100
AcDbEntity
  8
0
100
AcDbLine
  6
BYLAYER
370
0
 10
1435.97897730964
 20
-1783.84933892591
 11
1435.97897730964
 21
-1781.04933892591
  0
ARC
  5
621
100
AcDbEntity
  8
0
100
AcDbCircle
  6
BYLAYER
370
0
 10
1437.97897730964
 20
-1781.04933892591
 40
1.99999999999954
100
AcDbArc
 50
90.000000000013
 51
-179.999999999987
  0
LINE
  5
622
100
AcDbEntity
  8
0
100
AcDbLine
  6
BYLAYER
370
0
 10
1437.97897730964
 20
-1779.04933892591
 11
1438.17897730964
 21
-1779.04933892591
  0
ARC
  5
623
100
AcDbEntity
  8
0
100
AcDbCircle
  6
BYLAYER
370
0
 10
1438.17897730964
 20
-1777.74933892591
 40
1.2999999999999
100
AcDbArc
 50
-90.0000000000125
 51
2.49991597963032E-12
  0
LINE
  5
624
100
AcDbEntity
  8
0
100
AcDbLine
  6
BYLAYER
370
0
 10
1439.47897730964
 20
-1777.74933892591
 11
1439.47897730964
 21
-1775.24933892591
  0
ARC
  5
625
100
AcDbEntity
  8
0
100
AcDbCircle
  6
BYLAYER
370
0
 10
1438.47897730964
 20
-1775.24933892591
 40
1
100
AcDbArc
 50
-6.36110936292703E-15
 51
90
  0
LINE
  5
626
100
AcDbEntity
  8
0
100
AcDbLine
  6
BYLAYER
370
0
 10
1438.47897730964
 20
-1774.24933892591
 11
1438.47897730964
 21
-1774.24933892591
  0
ARC
  5
627
100
AcDbEntity
  8
0
100
AcDbCircle
  6
BYLAYER
370
0
 10
1438.47897730964
 20
-1775.24933892591
 40
1
100
AcDbArc
 50
-270
 51
-180
  0
LINE
  5
628
100
AcDbEntity
  8
0
100
AcDbLine
  6
BYLAYER
370
0
 10
1437.47897730964
 20
-1775.24933892591
 11
1437.47897730964
 21
-1778.32553165478
  0
ARC
  5
629
100
AcDbEntity
  8
0
100
AcDbCircle
  6
BYLAYER
370
0
 10
1437.97897730964
 20
-1781.08052711757
 40
2.80000000000015
100
AcDbArc
 50
-259.713439388526
 51
-180.000000000004
  0
LINE
  5
62A
100
AcDbEntity
  8
0
100
AcDbLine
  6
BYLAYER
370
0
 10
1435.17897730964
 20
-1781.08052711757
 11
1435.17897730964
 21
-1784.24933892591
  0
LINE
  5
62B
100
AcDbEntity
  8
0
100
AcDbLine
  6
BYLAYER
370
0
 10
1435.17897730964
 20
-1784.24933892591
 11
1438.67897730964
 21
-1787.24933892591
  0
LINE
  5
62C
100
AcDbEntity
  8
0
100
AcDbLine
  6
BYLAYER
370
0
 10
1438.67897730964
 20
-1787.24933892591
 11
1438.67897730964
 21
-1797.24933892591
  0
LINE
  5
62D
100
AcDbEntity
  8
0
100
AcDbLine
  6
BYLAYER
370
0
 10
1438.67897730964
 20
-1797.24933892591
 11
1436.19397730964
 21
-1811.44933892591
  0
LINE
  5
62E
100
AcDbEntity
  8
0
100
AcDbLine
  6
BYLAYER
 10
1432.72897730964
 20
-1778.89933892591
 11
1436.22329565496
 21
-1778.89933892591
  0
LINE
  5
62F
100
AcDbEntity
  8
0
100
AcDbLine
  6
BYLAYER
 10
1427.49334186772
 20
-1777.54956654763
 11
1432.72897730964
 21
-1780.04946917414
  0
LINE
  5
630
100
AcDbEntity
  8
0
100
AcDbLine
  6
BYLAYER
 10
1427.49334186772
 20
-1778.80974873149
 11
1432.72897730964
 21
-1781.309651358
  0
LINE
  5
631
100
AcDbEntity
  8
0
100
AcDbLine
  6
BYLAYER
 10
1427.49334186772
 20
-1779.49542671896
 11
1432.72897730964
 21
-1781.99532934547
  0
ARC
  5
632
100
AcDbEntity
  8
0
100
AcDbCircle
  6
BYLAYER
 10
1383.40710027107
 20
-1780.42840366833
 40
1.37924621202461
100
AcDbArc
 50
5.92542732184279
 51
90.9294444521034
  0
ARC
  5
633
100
AcDbEntity
  8
0
100
AcDbCircle
  6
BYLAYER
 10
1383.40710027107
 20
-1780.42840366833
 40
2.17924621202456
100
AcDbArc
 50
44.5594100250683
 51
74.7863155326896
  0
LINE
  5
634
100
AcDbEntity
  8
0
100
AcDbLine
  6
BYLAYER
 10
1393.96461275155
 20
-1779.49542671896
 11
1388.72897730964
 21
-1781.99532934547
  0
LINE
  5
635
100
AcDbEntity
  8
0
100
AcDbLine
  6
BYLAYER
 10
1393.96461275155
 20
-1778.80974873149
 11
1388.72897730964
 21
-1781.309651358
  0
LINE
  5
636
100
AcDbEntity
  8
0
100
AcDbLine
  6
BYLAYER
 10
1393.96461275155
 20
-1777.54956654763
 11
1388.72897730964
 21
-1780.04946917414
  0
LINE
  5
637
100
AcDbEntity
  8
0
100
AcDbLine
  6
BYLAYER
 10
1393.96461275155
 20
-1785.99070112261
 11
1427.49334186772
 21
-1785.99070112261
  0
LINE
  5
638
100
AcDbEntity
  8
0
100
AcDbLine
  6
BYLAYER
 10
1393.96461275155
 20
-1782.70323677661
 11
1427.49334186772
 21
-1782.70323677661
  0
LINE
  5
639
100
AcDbEntity
  8
0
100
AcDbLine
  6
BYLAYER
 10
1393.96461275155
 20
-1781.82770103783
 11
1427.49334186772
 21
-1781.82770103783
  0
LINE
  5
63A
100
AcDbEntity
  8
0
100
AcDbLine
  6
BYLAYER
 10
1393.96461275155
 20
-1787.1181102011
 11
1427.49334186772
 21
-1787.1181102011
  0
LINE
  5
63B
100
AcDbEntity
  8
0
100
AcDbLine
  6
BYLAYER
 10
1393.96461275155
 20
-1799.24752763381
 11
1427.49334186772
 21
-1799.24752763381
  0
LINE
  5
63C
100
AcDbEntity
  8
0
100
AcDbLine
  6
BYLAYER
 10
1393.96461275155
 20
-1797.44855096648
 11
1427.49334186772
 21
-1797.44855096648
  0
LINE
  5
63D
100
AcDbEntity
  8
0
100
AcDbLine
  6
BYLAYER
 10
1393.96461275155
 20
-1792.66450728411
 11
1427.49334186772
 21
-1792.66450728411
  0
LINE
  5
63E
100
AcDbEntity
  8
0
100
AcDbLine
  6
BYLAYER
 10
1393.96461275155
 20
-1791.22751890019
 11
1427.49334186772
 21
-1791.22751890019
  0
LINE
  5
63F
100
AcDbEntity
  8
0
100
AcDbLine
  6
BYLAYER
 10
1393.96461275155
 20
-1791.22751890019
 11
1388.72897730964
 21
-1793.7274215267
  0
LINE
  5
640
100
AcDbEntity
  8
0
100
AcDbLine
  6
BYLAYER
 10
1393.96461275155
 20
-1799.24752763381
 11
1388.72897730964
 21
-1801.74743026031
  0
LINE
  5
641
100
AcDbEntity
  8
0
100
AcDbLine
  6
BYLAYER
 10
1393.96461275155
 20
-1797.44855096648
 11
1388.72897730964
 21
-1799.94845359299
  0
LINE
  5
642
100
AcDbEntity
  8
0
100
AcDbLine
  6
BYLAYER
 10
1393.96461275155
 20
-1792.66450728411
 11
1388.72897730964
 21
-1795.16440991062
  0
LINE
  5
643
100
AcDbEntity
  8
0
100
AcDbLine
  6
BYLAYER
 10
1393.96461275155
 20
-1787.1181102011
 11
1388.72897730964
 21
-1789.61801282761
  0
LINE
  5
644
100
AcDbEntity
  8
0
100
AcDbLine
  6
BYLAYER
 10
1393.96461275155
 20
-1785.99070112261
 11
1388.72897730964
 21
-1788.49060374912
  0
LINE
  5
645
100
AcDbEntity
  8
0
100
AcDbLine
  6
BYLAYER
 10
1384.77897730964
 20
-1780.28601861136
 11
1384.77897730964
 21
-1783.64933892591
  0
LINE
  5
646
100
AcDbEntity
  8
0
100
AcDbLine
  6
BYLAYER
 10
1393.96461275155
 20
-1782.70323677661
 11
1388.72897730964
 21
-1785.20313940312
  0
LINE
  5
647
100
AcDbEntity
  8
0
100
AcDbLine
  6
BYLAYER
 10
1393.96461275155
 20
-1781.82770103783
 11
1388.72897730964
 21
-1784.32760366434
  0
LINE
  5
648
100
AcDbEntity
  8
0
100
AcDbLine
  6
BYLAYER
 10
1427.49334186772
 20
-1791.22751890019
 11
1432.72897730964
 21
-1793.7274215267
  0
LINE
  5
649
100
AcDbEntity
  8
0
100
AcDbLine
  6
BYLAYER
 10
1427.49334186772
 20
-1799.24752763381
 11
1432.72897730964
 21
-1801.74743026031
  0
LINE
  5
64A
100
AcDbEntity
  8
0
100
AcDbLine
  6
BYLAYER
 10
1427.49334186772
 20
-1797.44855096648
 11
1432.72897730964
 21
-1799.94845359299
  0
LINE
  5
64B
100
AcDbEntity
  8
0
100
AcDbLine
  6
BYLAYER
 10
1427.49334186772
 20
-1792.66450728411
 11
1432.72897730964
 21
-1795.16440991062
  0
LINE
  5
64C
100
AcDbEntity
  8
0
100
AcDbLine
  6
BYLAYER
 10
1427.49334186772
 20
-1787.1181102011
 11
1432.72897730964
 21
-1789.61801282761
  0
LINE
  5
64D
100
AcDbEntity
  8
0
100
AcDbLine
  6
BYLAYER
 10
1427.49334186772
 20
-1785.99070112261
 11
1432.72897730964
 21
-1788.49060374912
  0
LINE
  5
64E
100
AcDbEntity
  8
0
100
AcDbLine
  6
BYLAYER
 10
1427.49334186772
 20
-1782.70323677661
 11
1432.72897730964
 21
-1785.20313940312
  0
LINE
  5
64F
100
AcDbEntity
  8
0
100
AcDbLine
  6
BYLAYER
 10
1427.49334186772
 20
-1781.82770103783
 11
1432.72897730964
 21
-1784.32760366434
  0
LINE
  5
650
100
AcDbEntity
  8
0
100
AcDbLine
  6
BYLAYER
 10
1393.96461275155
 20
-1779.49542671896
 11
1427.49334186772
 21
-1779.49542671896
  0
LINE
  5
651
100
AcDbEntity
  8
0
100
AcDbLine
  6
BYLAYER
 10
1393.96461275155
 20
-1778.80974873149
 11
1427.49334186772
 21
-1778.80974873149
  0
LINE
  5
652
100
AcDbEntity
  8
0
100
AcDbLine
  6
BYLAYER
 10
1393.96461275155
 20
-1776.98962503171
 11
1427.49334186772
 21
-1776.98962503171
  0
LINE
  5
653
100
AcDbEntity
  8
0
100
AcDbLine
  6
BYLAYER
 10
1393.96461275155
 20
-1777.54956654763
 11
1427.49334186772
 21
-1777.54956654763
  0
LINE
  5
654
100
AcDbEntity
  8
0
100
AcDbLine
  6
BYLAYER
 10
1393.96461275155
 20
-1776.89895046963
 11
1427.49334186772
 21
-1776.89895046963
  0
LINE
  5
655
100
AcDbEntity
  8
0
100
AcDbLine
  6
BYLAYER
 10
1393.96461275155
 20
-1776.3994362994
 11
1427.49334186772
 21
-1776.3994362994
  0
ARC
  5
656
100
AcDbEntity
  8
0
100
AcDbCircle
  6
BYLAYER
 10
1382.97897730964
 20
-1775.24933892591
 40
1
100
AcDbArc
 50
0
 51
90
  0
ARC
  5
657
100
AcDbEntity
  8
0
100
AcDbCircle
  6
BYLAYER
 10
1382.97897730964
 20
-1775.24933892591
 40
1
100
AcDbArc
 50
90
 51
180
  0
LINE
  5
658
100
AcDbEntity
  8
0
100
AcDbLine
  6
BYLAYER
 10
1384.95986395757
 20
-1778.89933892591
 11
1388.72897730964
 21
-1778.89933892591
  0
LINE
  5
659
100
AcDbEntity
  8
0
100
AcDbLine
  6
BYLAYER
 10
1382.97897730964
 20
-1774.24933892591
 11
1382.97897730964
 21
-1774.24933892591
  0
LINE
  5
65A
100
AcDbEntity
  8
0
100
AcDbLine
  6
BYLAYER
 10
1381.97897730964
 20
-1775.24933892591
 11
1381.97897730964
 21
-1777.74933892591
  0
ARC
  5
65B
100
AcDbEntity
  8
0
100
AcDbCircle
  6
BYLAYER
 10
1383.27897730964
 20
-1777.74933892591
 40
1.30000000000001
100
AcDbArc
 50
180
 51
270.000000000013
  0
LINE
  5
65C
100
AcDbEntity
  8
0
100
AcDbLine
  6
BYLAYER
 10
1383.27897730964
 20
-1779.04933892591
 11
1383.38472730524
 21
-1779.04933892591
  0
LINE
  5
65D
100
AcDbEntity
  8
0
100
AcDbLine
  6
BYLAYER
 10
1383.97897730964
 20
-1778.32553165478
 11
1383.97897730964
 21
-1775.24933892591
  0
LINE
  5
65E
100
AcDbEntity
  8
0
100
AcDbLine
  6
BYLAYER
 10
1393.96461275155
 20
-1776.89895046963
 11
1388.72897730964
 21
-1779.39885309614
  0
LINE
  5
65F
100
AcDbEntity
  8
0
100
AcDbLine
  6
BYLAYER
 10
1393.96461275155
 20
-1776.3994362994
 11
1388.72897730964
 21
-1778.89933892591
  0
LINE
  5
660
100
AcDbEntity
  8
0
100
AcDbLine
  6
BYLAYER
 10
1427.49334186772
 20
-1776.3994362994
 11
1432.72897730964
 21
-1778.89933892591
  0
LINE
  5
661
100
AcDbEntity
  8
0
100
AcDbLine
  6
BYLAYER
 10
1427.49334186772
 20
-1776.89895046963
 11
1432.72897730964
 21
-1779.39885309614
  0
LINE
  5
662
100
AcDbEntity
  8
0
100
AcDbLine
  6
BYLAYER
 10
1439.47897730964
 20
-1777.74933892591
 11
1439.47897730964
 21
-1811.44933892591
  0
LINE
  5
663
100
AcDbEntity
  8
0
100
AcDbLine
  6
BYLAYER
 10
1683.67897730964
 20
-1783.64933892591
 11
1683.67897730964
 21
-1811.44933892591
  0
LINE
  5
664
100
AcDbEntity
  8
0
100
AcDbLine
  6
BYLAYER
 10
1679.72897730964
 20
-1778.89933892591
 11
1679.72897730964
 21
-1811.44933892591
  0
LINE
  5
665
100
AcDbEntity
  8
0
100
AcDbLine
  6
BYLAYER
 10
1635.72897730964
 20
-1778.89933892591
 11
1635.72897730964
 21
-1811.44933892591
  0
LINE
  5
666
100
AcDbEntity
  8
0
100
AcDbLine
  6
BYLAYER
 10
1686.47897730964
 20
-1811.44933892591
 11
1686.47897730964
 21
-1775.24933892591
  0
LINE
  5
667
100
AcDbEntity
  8
0
100
AcDbLine
  6
BYLAYER
370
0
 10
1631.45379109189
 20
-1811.44933892591
 11
1628.97897730964
 21
-1797.24933892591
  0
LINE
  5
668
100
AcDbEntity
  8
0
100
AcDbLine
  6
BYLAYER
370
0
 10
1628.97897730964
 20
-1797.24933892591
 11
1628.97897730964
 21
-1786.84933892591
  0
LINE
  5
669
100
AcDbEntity
  8
0
100
AcDbLine
  6
BYLAYER
370
0
 10
1628.97897730964
 20
-1786.84933892591
 11
1632.47897730964
 21
-1783.84933892591
  0
LINE
  5
66A
100
AcDbEntity
  8
0
100
AcDbLine
  6
BYLAYER
370
0
 10
1632.47897730964
 20
-1783.84933892591
 11
1632.47897730964
 21
-1781.04933892591
  0
ARC
  5
66B
100
AcDbEntity
  8
0
100
AcDbCircle
  6
BYLAYER
370
0
 10
1630.47897730964
 20
-1781.04933892591
 40
2
100
AcDbArc
 50
-6.36110936292703E-15
 51
90
  0
LINE
  5
66C
100
AcDbEntity
  8
0
100
AcDbLine
  6
BYLAYER
370
0
 10
1630.47897730964
 20
-1779.04933892591
 11
1630.27897730964
 21
-1779.04933892591
  0
ARC
  5
66D
100
AcDbEntity
  8
0
100
AcDbCircle
  6
BYLAYER
370
0
 10
1630.27897730964
 20
-1777.74933892591
 40
1.30000000000024
100
AcDbArc
 50
180.000000000013
 51
-89.9999999999724
  0
LINE
  5
66E
100
AcDbEntity
  8
0
100
AcDbLine
  6
BYLAYER
370
0
 10
1628.97897730964
 20
-1777.74933892591
 11
1628.97897730964
 21
-1775.24933892591
  0
ARC
  5
66F
100
AcDbEntity
  8
0
100
AcDbCircle
  6
BYLAYER
370
0
 10
1629.97897730964
 20
-1775.24933892591
 40
1
100
AcDbArc
 50
90
 51
-180
  0
LINE
  5
670
100
AcDbEntity
  8
0
100
AcDbLine
  6
BYLAYER
370
0
 10
1629.97897730964
 20
-1774.24933892591
 11
1629.97897730964
 21
-1774.24933892591
  0
ARC
  5
671
100
AcDbEntity
  8
0
100
AcDbCircle
  6
BYLAYER
370
0
 10
1629.97897730964
 20
-1775.24933892591
 40
1
100
AcDbArc
 50
0
 51
-270
  0
LINE
  5
672
100
AcDbEntity
  8
0
100
AcDbLine
  6
BYLAYER
370
0
 10
1630.97897730964
 20
-1775.24933892591
 11
1630.97897730964
 21
-1778.32553165478
  0
ARC
  5
673
100
AcDbEntity
  8
0
100
AcDbCircle
  6
BYLAYER
370
0
 10
1630.47897730964
 20
-1781.08052711757
 40
2.79999999999958
100
AcDbArc
 50
-1.02541082930384E-11
 51
-280.286560611488
  0
LINE
  5
674
100
AcDbEntity
  8
0
100
AcDbLine
  6
BYLAYER
370
0
 10
1633.27897730964
 20
-1781.08052711757
 11
1633.27897730964
 21
-1784.24933892591
  0
LINE
  5
675
100
AcDbEntity
  8
0
100
AcDbLine
  6
BYLAYER
370
0
 10
1633.27897730964
 20
-1784.24933892591
 11
1629.77897730964
 21
-1787.24933892591
  0
LINE
  5
676
100
AcDbEntity
  8
0
100
AcDbLine
  6
BYLAYER
370
0
 10
1629.77897730964
 20
-1787.24933892591
 11
1629.77897730964
 21
-1797.24933892591
  0
LINE
  5
677
100
AcDbEntity
  8
0
100
AcDbLine
  6
BYLAYER
370
0
 10
1629.77897730964
 20
-1797.24933892591
 11
1632.26397730964
 21
-1811.44933892591
  0
LINE
  5
678
100
AcDbEntity
  8
0
100
AcDbLine
  6
BYLAYER
 10
1635.72897730964
 20
-1778.89933892591
 11
1632.23465896431
 21
-1778.89933892591
  0
LINE
  5
679
100
AcDbEntity
  8
0
100
AcDbLine
  6
BYLAYER
 10
1640.96461275155
 20
-1777.54956654763
 11
1635.72897730964
 21
-1780.04946917414
  0
LINE
  5
67A
100
AcDbEntity
  8
0
100
AcDbLine
  6
BYLAYER
 10
1640.96461275155
 20
-1778.80974873149
 11
1635.72897730964
 21
-1781.309651358
  0
LINE
  5
67B
100
AcDbEntity
  8
0
100
AcDbLine
  6
BYLAYER
 10
1640.96461275155
 20
-1779.49542671896
 11
1635.72897730964
 21
-1781.99532934547
  0
ARC
  5
67C
100
AcDbEntity
  8
0
100
AcDbCircle
  6
BYLAYER
 10
1685.0508543482
 20
-1780.42840366833
 40
1.37924621202461
100
AcDbArc
 50
89.0705555478836
 51
174.074572678157
  0
ARC
  5
67D
100
AcDbEntity
  8
0
100
AcDbCircle
  6
BYLAYER
 10
1685.0508543482
 20
-1780.42840366833
 40
2.17924621202455
100
AcDbArc
 50
105.213684467298
 51
135.440589974939
  0
LINE
  5
67E
100
AcDbEntity
  8
0
100
AcDbLine
  6
BYLAYER
 10
1674.49334186772
 20
-1779.49542671896
 11
1679.72897730964
 21
-1781.99532934547
  0
LINE
  5
67F
100
AcDbEntity
  8
0
100
AcDbLine
  6
BYLAYER
 10
1674.49334186772
 20
-1778.80974873149
 11
1679.72897730964
 21
-1781.309651358
  0
LINE
  5
680
100
AcDbEntity
  8
0
100
AcDbLine
  6
BYLAYER
 10
1674.49334186772
 20
-1777.54956654763
 11
1679.72897730964
 21
-1780.04946917414
  0
LINE
  5
681
100
AcDbEntity
  8
0
100
AcDbLine
  6
BYLAYER
 10
1674.49334186772
 20
-1785.99070112261
 11
1640.96461275155
 21
-1785.99070112261
  0
LINE
  5
682
100
AcDbEntity
  8
0
100
AcDbLine
  6
BYLAYER
 10
1674.49334186772
 20
-1782.70323677661
 11
1640.96461275155
 21
-1782.70323677661
  0
LINE
  5
683
100
AcDbEntity
  8
0
100
AcDbLine
  6
BYLAYER
 10
1674.49334186772
 20
-1781.82770103783
 11
1640.96461275155
 21
-1781.82770103783
  0
LINE
  5
684
100
AcDbEntity
  8
0
100
AcDbLine
  6
BYLAYER
 10
1674.49334186772
 20
-1787.1181102011
 11
1640.96461275155
 21
-1787.1181102011
  0
LINE
  5
685
100
AcDbEntity
  8
0
100
AcDbLine
  6
BYLAYER
 10
1674.49334186772
 20
-1799.24752763381
 11
1640.96461275155
 21
-1799.24752763381
  0
LINE
  5
686
100
AcDbEntity
  8
0
100
AcDbLine
  6
BYLAYER
 10
1674.49334186772
 20
-1797.44855096648
 11
1640.96461275155
 21
-1797.44855096648
  0
LINE
  5
687
100
AcDbEntity
  8
0
100
AcDbLine
  6
BYLAYER
 10
1674.49334186772
 20
-1792.66450728411
 11
1640.96461275155
 21
-1792.66450728411
  0
LINE
  5
688
100
AcDbEntity
  8
0
100
AcDbLine
  6
BYLAYER
 10
1674.49334186772
 20
-1791.22751890019
 11
1640.96461275155
 21
-1791.22751890019
  0
LINE
  5
689
100
AcDbEntity
  8
0
100
AcDbLine
  6
BYLAYER
 10
1674.49334186772
 20
-1791.22751890019
 11
1679.72897730964
 21
-1793.7274215267
  0
LINE
  5
68A
100
AcDbEntity
  8
0
100
AcDbLine
  6
BYLAYER
 10
1674.49334186772
 20
-1799.24752763381
 11
1679.72897730964
 21
-1801.74743026031
  0
LINE
  5
68B
100
AcDbEntity
  8
0
100
AcDbLine
  6
BYLAYER
 10
1674.49334186772
 20
-1797.44855096648
 11
1679.72897730964
 21
-1799.94845359299
  0
LINE
  5
68C
100
AcDbEntity
  8
0
100
AcDbLine
  6
BYLAYER
 10
1674.49334186772
 20
-1792.66450728411
 11
1679.72897730964
 21
-1795.16440991062
  0
LINE
  5
68D
100
AcDbEntity
  8
0
100
AcDbLine
  6
BYLAYER
 10
1674.49334186772
 20
-1787.1181102011
 11
1679.72897730964
 21
-1789.61801282761
  0
LINE
  5
68E
100
AcDbEntity
  8
0
100
AcDbLine
  6
BYLAYER
 10
1674.49334186772
 20
-1785.99070112261
 11
1679.72897730964
 21
-1788.49060374912
  0
LINE
  5
68F
100
AcDbEntity
  8
0
100
AcDbLine
  6
BYLAYER
 10
1683.67897730964
 20
-1780.28601861136
 11
1683.67897730964
 21
-1783.64933892591
  0
LINE
  5
690
100
AcDbEntity
  8
0
100
AcDbLine
  6
BYLAYER
 10
1674.49334186772
 20
-1782.70323677661
 11
1679.72897730964
 21
-1785.20313940312
  0
LINE
  5
691
100
AcDbEntity
  8
0
100
AcDbLine
  6
BYLAYER
 10
1674.49334186772
 20
-1781.82770103783
 11
1679.72897730964
 21
-1784.32760366434
  0
LINE
  5
692
100
AcDbEntity
  8
0
100
AcDbLine
  6
BYLAYER
 10
1640.96461275155
 20
-1791.22751890019
 11
1635.72897730964
 21
-1793.7274215267
  0
LINE
  5
693
100
AcDbEntity
  8
0
100
AcDbLine
  6
BYLAYER
 10
1640.96461275155
 20
-1799.24752763381
 11
1635.72897730964
 21
-1801.74743026031
  0
LINE
  5
694
100
AcDbEntity
  8
0
100
AcDbLine
  6
BYLAYER
 10
1640.96461275155
 20
-1797.44855096648
 11
1635.72897730964
 21
-1799.94845359299
  0
LINE
  5
695
100
AcDbEntity
  8
0
100
AcDbLine
  6
BYLAYER
 10
1640.96461275155
 20
-1792.66450728411
 11
1635.72897730964
 21
-1795.16440991062
  0
LINE
  5
696
100
AcDbEntity
  8
0
100
AcDbLine
  6
BYLAYER
 10
1640.96461275155
 20
-1787.1181102011
 11
1635.72897730964
 21
-1789.61801282761
  0
LINE
  5
697
100
AcDbEntity
  8
0
100
AcDbLine
  6
BYLAYER
 10
1640.96461275155
 20
-1785.99070112261
 11
1635.72897730964
 21
-1788.49060374912
  0
LINE
  5
698
100
AcDbEntity
  8
0
100
AcDbLine
  6
BYLAYER
 10
1640.96461275155
 20
-1782.70323677661
 11
1635.72897730964
 21
-1785.20313940312
  0
LINE
  5
699
100
AcDbEntity
  8
0
100
AcDbLine
  6
BYLAYER
 10
1640.96461275155
 20
-1781.82770103783
 11
1635.72897730964
 21
-1784.32760366434
  0
LINE
  5
69A
100
AcDbEntity
  8
0
100
AcDbLine
  6
BYLAYER
 10
1674.49334186772
 20
-1779.49542671896
 11
1640.96461275155
 21
-1779.49542671896
  0
LINE
  5
69B
100
AcDbEntity
  8
0
100
AcDbLine
  6
BYLAYER
 10
1674.49334186772
 20
-1778.80974873149
 11
1640.96461275155
 21
-1778.80974873149
  0
LINE
  5
69C
100
AcDbEntity
  8
0
100
AcDbLine
  6
BYLAYER
 10
1674.49334186772
 20
-1776.98962503171
 11
1640.96461275155
 21
-1776.98962503171
  0
LINE
  5
69D
100
AcDbEntity
  8
0
100
AcDbLine
  6
BYLAYER
 10
1674.49334186772
 20
-1777.54956654763
 11
1640.96461275155
 21
-1777.54956654763
  0
LINE
  5
69E
100
AcDbEntity
  8
0
100
AcDbLine
  6
BYLAYER
 10
1674.49334186772
 20
-1776.89895046963
 11
1640.96461275155
 21
-1776.89895046963
  0
LINE
  5
69F
100
AcDbEntity
  8
0
100
AcDbLine
  6
BYLAYER
 10
1674.49334186772
 20
-1776.3994362994
 11
1640.96461275155
 21
-1776.3994362994
  0
ARC
  5
6A0
100
AcDbEntity
  8
0
100
AcDbCircle
  6
BYLAYER
 10
1685.47897730964
 20
-1775.24933892591
 40
1
100
AcDbArc
 50
90
 51
180
  0
ARC
  5
6A1
100
AcDbEntity
  8
0
100
AcDbCircle
  6
BYLAYER
 10
1685.47897730964
 20
-1775.24933892591
 40
1
100
AcDbArc
 50
7E-15
 51
90
  0
LINE
  5
6A2
100
AcDbEntity
  8
0
100
AcDbLine
  6
BYLAYER
 10
1683.4980906617
 20
-1778.89933892591
 11
1679.72897730964
 21
-1778.89933892591
  0
LINE
  5
6A3
100
AcDbEntity
  8
0
100
AcDbLine
  6
BYLAYER
 10
1685.47897730964
 20
-1774.24933892591
 11
1685.47897730964
 21
-1774.24933892591
  0
LINE
  5
6A4
100
AcDbEntity
  8
0
100
AcDbLine
  6
BYLAYER
 10
1686.47897730964
 20
-1775.24933892591
 11
1686.47897730964
 21
-1777.74933892591
  0
ARC
  5
6A5
100
AcDbEntity
  8
0
100
AcDbCircle
  6
BYLAYER
 10
1685.17897730964
 20
-1777.74933892591
 40
1.30000000000001
100
AcDbArc
 50
270
 51
7E-15
  0
LINE
  5
6A6
100
AcDbEntity
  8
0
100
AcDbLine
  6
BYLAYER
 10
1685.17897730964
 20
-1779.04933892591
 11
1685.07322731403
 21
-1779.04933892591
  0
LINE
  5
6A7
100
AcDbEntity
  8
0
100
AcDbLine
  6
BYLAYER
 10
1684.47897730964
 20
-1778.32553165478
 11
1684.47897730964
 21
-1775.24933892591
  0
LINE
  5
6A8
100
AcDbEntity
  8
0
100
AcDbLine
  6
BYLAYER
 10
1674.49334186772
 20
-1776.89895046963
 11
1679.72897730964
 21
-1779.39885309614
  0
LINE
  5
6A9
100
AcDbEntity
  8
0
100
AcDbLine
  6
BYLAYER
 10
1674.49334186772
 20
-1776.3994362994
 11
1679.72897730964
 21
-1778.89933892591
  0
LINE
  5
6AA
100
AcDbEntity
  8
0
100
AcDbLine
  6
BYLAYER
 10
1640.96461275155
 20
-1776.3994362994
 11
1635.72897730964
 21
-1778.89933892591
  0
LINE
  5
6AB
100
AcDbEntity
  8
0
100
AcDbLine
  6
BYLAYER
 10
1640.96461275155
 20
-1776.89895046963
 11
1635.72897730964
 21
-1779.39885309614
  0
LINE
  5
6AC
100
AcDbEntity
  8
0
100
AcDbLine
  6
BYLAYER
 10
1628.97897730964
 20
-1777.74933892591
 11
1628.97897730964
 21
-1811.44933892591
  0
CIRCLE
  5
6AD
100
AcDbEntity
  8
0
100
AcDbCircle
  6
BYLAYER
 10
1096.53015539638
 20
-1853.24933892591
 40
65
  0
LINE
  5
6AE
100
AcDbEntity
  8
DIM
100
AcDbLine
  6
BYLAYER
 62
0
370
  -2
 10
1039.17740929828
 20
-1724.62907596766
 11
1047.92740929828
 21
-1724.62907596766
  0
LINE
  5
6AF
100
AcDbEntity
  8
DIM
100
AcDbLine
  6
BYLAYER
 62
0
370
  -2
 10
1047.92740929828
 20
-1724.62907596766
 11
1070.46082302505
 21
-1784.26055425975
  0
TEXT
  5
6B0
100
AcDbEntity
  8
DIM
 62
0
100
AcDbText
  6
BYLAYER
 62
0
 10
991.677425398984
 20
-1732.1291162193
 40
15
  1
φ130
  7
Font_0
 50
0.000123000000002786
 72
1
 11
1010.42740929828
 21
-1724.62907596766
100
AcDbText
 73
2
  0
SOLID
  5
6B1
100
AcDbEntity
  8
DIM
100
AcDbTrace
 10
1071.82500803258
 20
-1783.74505898687
 30
0.0
 11
1069.09663801753
 21
-1784.77604953263
 31
0.0
 12
1073.55379466233
 22
-1792.44566430489
 32
0.0
 13
1073.55379466233
 23
-1792.44566430489
 33
0.0
  0
LINE
  5
6B2
100
AcDbEntity
  8
DIM
100
AcDbLine
  6
BYLAYER
 62
0
370
  -2
 10
1096.30515539638
 20
-1853.24933892591
 11
1096.75515539638
 21
-1853.24933892591
  0
LINE
  5
6B3
100
AcDbEntity
  8
DIM
100
AcDbLine
  6
BYLAYER
 62
0
370
  -2
 10
1096.53015539638
 20
-1853.47433892591
 11
1096.53015539638
 21
-1853.02433892591
  0
LINE
  5
6B4
100
AcDbEntity
  8
DIM
100
AcDbLine
  6
BYLAYER
 62
0
370
  -2
 10
1343.55721154536
 20
-1856.11883841147
 11
1352.30721154536
 21
-1856.11883841147
  0
LINE
  5
6B5
100
AcDbEntity
  8
DIM
100
AcDbLine
  6
BYLAYER
 62
0
370
  -2
 10
1352.30721154536
 20
-1856.11883841147
 11
1354.382931177
 21
-1836.17946498132
  0
TEXT
  5
6B6
100
AcDbEntity
  8
DIM
 62
0
100
AcDbText
  6
BYLAYER
 62
0
 10
1274.80722764609
 20
-1863.61889476377
 40
15
  1
8-φ8.5
  7
Font_0
 50
0.000123000000002786
 72
1
 11
1301.05721154536
 21
-1856.11883841147
100
AcDbText
 73
2
  0
SOLID
  5
6B7
100
AcDbEntity
  8
DIM
100
AcDbTrace
 10
1352.93243626694
 20
-1836.02846621644
 30
0.0
 11
1355.83342608706
 21
-1836.3304637462
 31
0.0
 12
1355.28892376628
 22
-1827.47649552095
 32
0.0
 13
1355.28892376628
 23
-1827.47649552095
 33
0.0
  0
LINE
  5
6B8
100
AcDbEntity
  8
DIM
100
AcDbLine
  6
BYLAYER
 62
0
370
  -2
 10
1355.50397730964
 20
-1823.24933892591
 11
1355.95397730964
 21
-1823.24933892591
  0
LINE
  5
6B9
100
AcDbEntity
  8
DIM
100
AcDbLine
  6
BYLAYER
 62
0
370
  -2
 10
1355.72897730964
 20
-1823.47433892591
 11
1355.72897730964
 21
-1823.02433892591
  0
LINE
  5
6BA
100
AcDbEntity
  8
DIM
100
AcDbLine
  6
BYLAYER
 62
0
370
  -2
 10
1231.53015539638
 20
-1700.74933892591
 11
1231.53015539638
 21
-1683.27515049755
  0
LINE
  5
6BB
100
AcDbEntity
  8
DIM
100
AcDbLine
  6
BYLAYER
 62
0
370
  -2
 10
1096.53015539638
 20
-1850.74933892591
 11
1096.53015539638
 21
-1683.27515049755
  0
LINE
  5
6BC
100
AcDbEntity
  8
DIM
100
AcDbLine
  6
BYLAYER
 62
0
370
  -2
 10
1222.78015539638
 20
-1685.77515049755
 11
1186.53015539638
 21
-1685.77515049755
  0
LINE
  5
6BD
100
AcDbEntity
  8
DIM
100
AcDbLine
  6
BYLAYER
 62
0
370
  -2
 10
1105.28015539638
 20
-1685.77515049755
 11
1141.53015539638
 21
-1685.77515049755
  0
SOLID
  5
6BE
100
AcDbEntity
  8
DIM
100
AcDbTrace
 10
1222.78015539638
 20
-1684.31681716421
 30
0.0
 11
1222.78015539638
 21
-1687.23348383088
 31
0.0
 12
1231.53015539638
 22
-1685.77515049755
 32
0.0
 13
1231.53015539638
 23
-1685.77515049755
 33
0.0
  0
SOLID
  5
6BF
100
AcDbEntity
  8
DIM
100
AcDbTrace
 10
1096.53015539638
 20
-1685.77515049755
 30
0.0
 11
1105.28015539638
 21
-1687.23348383088
 31
0.0
 12
1105.28015539638
 22
-1684.31681716421
 32
0.0
 13
1105.28015539638
 23
-1684.31681716421
 33
0.0
  0
TEXT
  5
6C0
100
AcDbEntity
  8
DIM
 62
0
100
AcDbText
  6
BYLAYER
 62
0
 10
1152.78015539638
 20
-1693.27515049755
 40
15
  1
135
  7
Font_0
 72
1
 11
1164.03015539638
 21
-1685.77515049755
100
AcDbText
 73
2
  0
LINE
  5
6C1
100
AcDbEntity
  8
DIM
100
AcDbLine
  6
BYLAYER
 62
0
370
  -2
 10
1096.53015539638
 20
-1850.74933892591
 11
1096.53015539638
 21
-1683.27515049755
  0
LINE
  5
6C2
100
AcDbEntity
  8
DIM
100
AcDbLine
  6
BYLAYER
 62
0
370
  -2
 10
979.19015539638
 20
-1841.69795582112
 11
979.19015539638
 21
-1683.27515049755
  0
LINE
  5
6C3
100
AcDbEntity
  8
DIM
100
AcDbLine
  6
BYLAYER
 62
0
370
  -2
 10
1087.78015539638
 20
-1685.77515049755
 11
1057.86015539638
 21
-1685.77515049755
  0
LINE
  5
6C4
100
AcDbEntity
  8
DIM
100
AcDbLine
  6
BYLAYER
 62
0
370
  -2
 10
987.94015539638
 20
-1685.77515049755
 11
1017.86015539638
 21
-1685.77515049755
  0
SOLID
  5
6C5
100
AcDbEntity
  8
DIM
100
AcDbTrace
 10
1087.78015539638
 20
-1684.31681716421
 30
0.0
 11
1087.78015539638
 21
-1687.23348383088
 31
0.0
 12
1096.53015539638
 22
-1685.77515049755
 32
0.0
 13
1096.53015539638
 23
-1685.77515049755
 33
0.0
  0
SOLID
  5
6C6
100
AcDbEntity
  8
DIM
100
AcDbTrace
 10
979.19015539638
 20
-1685.77515049755
 30
0.0
 11
987.94015539638
 21
-1687.23348383088
 31
0.0
 12
987.94015539638
 22
-1684.31681716421
 32
0.0
 13
987.94015539638
 23
-1684.31681716421
 33
0.0
  0
TEXT
  5
6C7
100
AcDbEntity
  8
DIM
 62
0
100
AcDbText
  6
BYLAYER
 62
0
 10
1026.61015539638
 20
-1693.27515049755
 40
15
  1
117
  7
Font_0
 72
1
 11
1037.86015539638
 21
-1685.77515049755
100
AcDbText
 73
2
  0
LINE
  5
6C8
100
AcDbEntity
  8
DIM
100
AcDbLine
  6
BYLAYER
 62
0
370
  -2
 10
1094.03015539638
 20
-1853.24933892591
 11
958.946584305219
 21
-1853.24933892591
  0
LINE
  5
6C9
100
AcDbEntity
  8
DIM
100
AcDbLine
  6
BYLAYER
 62
0
370
  -2
 10
1084.96877229159
 20
-1957.91933892591
 11
958.946584305219
 21
-1957.91933892591
  0
LINE
  5
6CA
100
AcDbEntity
  8
DIM
100
AcDbLine
  6
BYLAYER
 62
0
370
  -2
 10
961.446584305219
 20
-1861.99933892591
 11
961.446584305219
 21
-1884.33433892591
  0
LINE
  5
6CB
100
AcDbEntity
  8
DIM
100
AcDbLine
  6
BYLAYER
 62
0
370
  -2
 10
961.446584305219
 20
-1949.16933892591
 11
961.446584305219
 21
-1926.83433892591
  0
SOLID
  5
6CC
100
AcDbEntity
  8
DIM
100
AcDbTrace
 10
959.988250971886
 20
-1861.99933892591
 30
0.0
 11
962.904917638553
 21
-1861.99933892591
 31
0.0
 12
961.446584305219
 22
-1853.24933892591
 32
0.0
 13
961.446584305219
 23
-1853.24933892591
 33
0.0
  0
SOLID
  5
6CD
100
AcDbEntity
  8
DIM
100
AcDbTrace
 10
961.446584305219
 20
-1957.91933892591
 30
0.0
 11
962.904917638553
 21
-1949.16933892591
 31
0.0
 12
959.988250971886
 22
-1949.16933892591
 32
0.0
 13
959.988250971886
 23
-1949.16933892591
 33
0.0
  0
TEXT
  5
6CE
100
AcDbEntity
  8
DIM
 62
0
100
AcDbText
  6
BYLAYER
 62
0
 10
968.94658430522
 20
-1916.83433892591
 40
15
  1
105
  7
Font_0
 50
90
 72
1
 11
961.44658430522
 21
-1905.58433892591
100
AcDbText
 73
2
  0
LINE
  5
6CF
100
AcDbEntity
  8
DIM
100
AcDbLine
  6
BYLAYER
 62
0
370
  -2
 10
1602.72897730964
 20
-1710.74933892591
 11
1602.72897730964
 21
-1666.55737776777
  0
LINE
  5
6D0
100
AcDbEntity
  8
DIM
100
AcDbLine
  6
BYLAYER
 62
0
370
  -2
 10
1712.72897730964
 20
-1710.74933892591
 11
1712.72897730964
 21
-1666.55737776777
  0
LINE
  5
6D1
100
AcDbEntity
  8
DIM
100
AcDbLine
  6
BYLAYER
 62
0
370
  -2
 10
1611.47897730964
 20
-1669.05737776777
 11
1638.97897730964
 21
-1669.05737776777
  0
LINE
  5
6D2
100
AcDbEntity
  8
DIM
100
AcDbLine
  6
BYLAYER
 62
0
370
  -2
 10
1703.97897730964
 20
-1669.05737776777
 11
1676.47897730964
 21
-1669.05737776777
  0
SOLID
  5
6D3
100
AcDbEntity
  8
DIM
100
AcDbTrace
 10
1602.72897730964
 20
-1669.05737776777
 30
0.0
 11
1611.47897730964
 21
-1670.5157111011
 31
0.0
 12
1611.47897730964
 22
-1667.59904443443
 32
0.0
 13
1611.47897730964
 23
-1667.59904443443
 33
0.0
  0
SOLID
  5
6D4
100
AcDbEntity
  8
DIM
100
AcDbTrace
 10
1703.97897730964
 20
-1667.59904443443
 30
0.0
 11
1703.97897730964
 21
-1670.5157111011
 31
0.0
 12
1712.72897730964
 22
-1669.05737776777
 32
0.0
 13
1712.72897730964
 23
-1669.05737776777
 33
0.0
  0
TEXT
  5
6D5
100
AcDbEntity
  8
DIM
 62
0
100
AcDbText
  6
BYLAYER
 62
0
 10
1646.47897730964
 20
-1676.55737776777
 40
15
  1
110
  7
Font_0
 72
1
 11
1657.72897730964
 21
-1669.05737776777
100
AcDbText
 73
2
  0
ARC
  5
6D6
100
AcDbEntity
  8
0
100
AcDbCircle
  6
BYLAYER
 10
1183.44787510876
 20
-1818.24933892591
 40
5
100
AcDbArc
 50
90
 51
201.933644514387
  0
ARC
  5
6D7
100
AcDbEntity
  8
0
100
AcDbCircle
  6
BYLAYER
 10
1183.44787510876
 20
-1888.24933892591
 40
5
100
AcDbArc
 50
158.066355485613
 51
270
  0
ARC
  5
6D8
100
AcDbEntity
  8
0
100
AcDbCircle
  6
BYLAYER
 10
1096.83674333972
 20
-1840.36502348357
 40
117.554315442342
100
AcDbArc
 50
136.525283952139
 51
13.3362354373777
  0
ARC
  5
6D9
100
AcDbEntity
  8
0
100
AcDbCircle
  6
BYLAYER
 10
1095.38290154237
 20
-1838.37362708126
 40
115.130004406683
100
AcDbArc
 50
89.4290463887989
 51
136.746654077375
  0
ENDSEC
  0
SECTION
  2
OBJECTS
  0
DICTIONARY
  5
6DA
100
AcDbDictionary
  3
ACAD_GROUP
350
6DB
  3
ACAD_MLINESTYLE
350
6DC
  0
DICTIONARY
  5
6DB
102
{ACAD_REACTORS
330
6DA
102
}
100
AcDbDictionary
  0
DICTIONARY
  5
6DC
102
{ACAD_REACTORS
330
6DA
102
}
100
AcDbDictionary
  3
STANDARD
350
6DD
  0
MLINESTYLE
  5
6DD
102
{ACAD_REACTORS
330
6DC
102
}
100
AcDbMlineStyle
  2
Standard
 70
     0
  3

 62
     0
 51
90.0
 52
90.0
 71
     2
 49
0.5
 62
   256
  6
ByLayer
 49
-0.5
 62
   256
  6
ByLayer
  0
ENDSEC
  0
EOF
