999
Outputted By AR_CAD Ver.1.6.0
  0
SECTION
  2
HEADER
  9
$ACADVER
  1
AC1014
  9
$DWGCODEPAGE
  3
ANSI_932
  9
$EXTMIN
 10
0
 20
0
  9
$EXTMAX
 10
891
 20
630
  9
$INSBASE
 10
0.0
 20
0.0
 30
0.0
  9
$HANDLING
 70
     1
  9
$HANDSEED
  5
711
  9
$LTSCALE
 40
1
  0
ENDSEC
  0
SECTION
  2
TABLES
  0
TABLE
  2
VPORT
  5
1
100
AcDbSymbolTable
 70
     1
  0
VPORT
  5
30
100
AcDbSymbolTableRecord
100
AcDbViewportTableRecord
  2
*ACTIVE
 70
     0
 10
0.0
 20
0.0
 11
1.0
 21
1.0
 12
210.0
 22
148.5
 13
0.0
 23
0.0
 14
10.0
 24
10.0
 15
10.0
 25
10.0
 16
0.0
 26
0.0
 36
1.0
 17
0.0
 27
0.0
 37
0.0
 40
302.94
 41
1.333333
 42
50.0
 43
0.0
 44
0.0
 50
0.0
 51
0.0
 71
     0
 72
   100
 73
     1
 74
     1
 75
     0
 76
     0
 77
     0
 78
     0
  0
ENDTAB
  0
TABLE
  2
LTYPE
  5
2
100
AcDbSymbolTable
 70
     28
  0
LTYPE
  5
31
100
AcDbSymbolTableRecord
100
AcDbLinetypeTableRecord
  2
BYBLOCK
 70
    64
 3

 72
    65
 73
    0
 40
    0
  0
LTYPE
  5
32
100
AcDbSymbolTableRecord
100
AcDbLinetypeTableRecord
  2
BYLAYER
 70
    64
 3

 72
    65
 73
    0
 40
    0
  0
LTYPE
  5
33
100
AcDbSymbolTableRecord
100
AcDbLinetypeTableRecord
  2
CONTINUOUS
 70
    64
 3
CONTINUOUS
 72
    65
 73
    0
 40
    0
  0
LTYPE
  5
34
100
AcDbSymbolTableRecord
100
AcDbLinetypeTableRecord
  2
DASHED
 70
    64
 3

 72
    65
 73
    2
 40
    3.5
 49
    2.91666666666667
 74
    0
 49
    -0.583333333333333
 74
    0
  0
LTYPE
  5
35
100
AcDbSymbolTableRecord
100
AcDbLinetypeTableRecord
  2
DOT
 70
    64
 3

 72
    65
 73
    2
 40
    0.5
 49
    0.25
 74
    0
 49
    -0.25
 74
    0
  0
LTYPE
  5
36
100
AcDbSymbolTableRecord
100
AcDbLinetypeTableRecord
  2
DASHDOT
 70
    64
 3

 72
    65
 73
    4
 40
    3.5
 49
    1.84210526315789
 74
    0
 49
    -0.552631578947368
 74
    0
 49
    0.552631578947368
 74
    0
 49
    -0.552631578947368
 74
    0
  0
LTYPE
  5
37
100
AcDbSymbolTableRecord
100
AcDbLinetypeTableRecord
  2
DIVIDE
 70
    64
 3

 72
    65
 73
    6
 40
    3.5
 49
    1.4
 74
    0
 49
    -0.42
 74
    0
 49
    0.42
 74
    0
 49
    -0.42
 74
    0
 49
    0.42
 74
    0
 49
    -0.42
 74
    0
  0
LTYPE
  5
38
100
AcDbSymbolTableRecord
100
AcDbLinetypeTableRecord
  2
HIDDEN
 70
    64
 3

 72
    65
 73
    2
 40
    9.525
 49
    6.35
 74
    0
 49
    -3.175
 74
    0
  0
LTYPE
  5
39
100
AcDbSymbolTableRecord
100
AcDbLinetypeTableRecord
  2
CENTERX2
 70
    64
 3

 72
    65
 73
    4
 40
    4
 49
    2.5
 74
    0
 49
    -0.5
 74
    0
 49
    0.5
 74
    0
 49
    -0.5
 74
    0
  0
LTYPE
  5
3A
100
AcDbSymbolTableRecord
100
AcDbLinetypeTableRecord
  2
CENTER
 70
    64
 3

 72
    65
 73
    4
 40
    50.8
 49
    31.75
 74
    0
 49
    -6.35
 74
    0
 49
    6.35
 74
    0
 49
    -6.35
 74
    0
  0
LTYPE
  5
3B
100
AcDbSymbolTableRecord
100
AcDbLinetypeTableRecord
  2
BORDER
 70
    64
 3

 72
    65
 73
    6
 40
    44.45
 49
    12.7
 74
    0
 49
    -6.35
 74
    0
 49
    12.7
 74
    0
 49
    -6.35
 74
    0
 49
    0
 74
    0
 49
    -6.35
 74
    0
  0
LTYPE
  5
3C
100
AcDbSymbolTableRecord
100
AcDbLinetypeTableRecord
  2
AM_ISO02W050
 70
    64
 3

 72
    65
 73
    2
 40
    7.5
 49
    6
 74
    0
 49
    -1.5
 74
    0
  0
LTYPE
  5
3D
100
AcDbSymbolTableRecord
100
AcDbLinetypeTableRecord
  2
AM_ISO08W050
 70
    64
 3

 72
    65
 73
    4
 40
    18
 49
    12
 74
    0
 49
    -1.5
 74
    0
 49
    3
 74
    0
 49
    -1.5
 74
    0
  0
LTYPE
  5
3E
100
AcDbSymbolTableRecord
100
AcDbLinetypeTableRecord
  2
AM_ISO09W050
 70
    64
 3

 72
    65
 73
    6
 40
    22.5
 49
    12
 74
    0
 49
    -1.5
 74
    0
 49
    3
 74
    0
 49
    -1.5
 74
    0
 49
    3
 74
    0
 49
    -1.5
 74
    0
  0
LTYPE
  5
3F
100
AcDbSymbolTableRecord
100
AcDbLinetypeTableRecord
  2
Amconstr
 70
    64
 3

 72
    65
 73
    1
 40
    9999
 49
    9999
 74
    0
  0
LTYPE
  5
40
100
AcDbSymbolTableRecord
100
AcDbLinetypeTableRecord
  2
AM_ISO08W050x2
 70
    64
 3

 72
    65
 73
    4
 40
    9
 49
    6
 74
    0
 49
    -0.75
 74
    0
 49
    1.5
 74
    0
 49
    -0.75
 74
    0
  0
LTYPE
  5
41
100
AcDbSymbolTableRecord
100
AcDbLinetypeTableRecord
  2
AM_ISO02W050x2
 70
    64
 3

 72
    65
 73
    2
 40
    3.75
 49
    3
 74
    0
 49
    -0.75
 74
    0
  0
LTYPE
  5
42
100
AcDbSymbolTableRecord
100
AcDbLinetypeTableRecord
  2
Amzigzag
 70
    64
 3

 72
    65
 73
    2
 40
    4
 49
    2
 74
    0
 49
    -2
 74
    0
  0
LTYPE
  5
43
100
AcDbSymbolTableRecord
100
AcDbLinetypeTableRecord
  2
PHANTOM2
 70
    64
 3

 72
    65
 73
    6
 40
    1.25
 49
    0.625
 74
    0
 49
    -0.125
 74
    0
 49
    0.125
 74
    0
 49
    -0.125
 74
    0
 49
    0.125
 74
    0
 49
    -0.125
 74
    0
  0
LTYPE
  5
44
100
AcDbSymbolTableRecord
100
AcDbLinetypeTableRecord
  2
CENTER2
 70
    64
 3

 72
    65
 73
    4
 40
    1.125
 49
    0.75
 74
    0
 49
    -0.125
 74
    0
 49
    0.125
 74
    0
 49
    -0.125
 74
    0
  0
LTYPE
  5
45
100
AcDbSymbolTableRecord
100
AcDbLinetypeTableRecord
  2
HIDDEN2
 70
    64
 3

 72
    65
 73
    2
 40
    0.188
 49
    0.125668449197861
 74
    0
 49
    -0.062331550802139
 74
    0
  0
LTYPE
  5
46
100
AcDbSymbolTableRecord
100
AcDbLinetypeTableRecord
  2
Amzigzag2
 70
    64
 3

 72
    65
 73
    2
 40
    4
 49
    2
 74
    0
 49
    -2
 74
    0
  0
LTYPE
  5
47
100
AcDbSymbolTableRecord
100
AcDbLinetypeTableRecord
  2
ACANSTGB
 70
    64
 3

 72
    65
 73
    6
 40
    0.354
 49
    0.157892045454545
 74
    0
 49
    -0.0392215909090909
 74
    0
 49
    0.0392215909090909
 74
    0
 49
    -0.0392215909090909
 74
    0
 49
    0.0392215909090909
 74
    0
 49
    -0.0392215909090909
 74
    0
  0
LTYPE
  5
48
100
AcDbSymbolTableRecord
100
AcDbLinetypeTableRecord
  2
ACANSTGL
 70
    64
 3

 72
    65
 73
    2
 40
    0.118
 49
    0.079
 74
    0
 49
    -0.039
 74
    0
  0
LTYPE
  5
49
100
AcDbSymbolTableRecord
100
AcDbLinetypeTableRecord
  2
BORDERX2
 70
    64
 3

 72
    65
 73
    6
 40
    3.5
 49
    1
 74
    0
 49
    -0.5
 74
    0
 49
    1
 74
    0
 49
    -0.5
 74
    0
 49
    0
 74
    0
 49
    -0.5
 74
    0
  0
LTYPE
  5
4A
100
AcDbSymbolTableRecord
100
AcDbLinetypeTableRecord
  2
BORDER2
 70
    64
 3

 72
    65
 73
    6
 40
    0.875
 49
    0.25
 74
    0
 49
    -0.125
 74
    0
 49
    0.25
 74
    0
 49
    -0.125
 74
    0
 49
    0
 74
    0
 49
    -0.125
 74
    0
  0
LTYPE
  5
4B
100
AcDbSymbolTableRecord
100
AcDbLinetypeTableRecord
  2
ACISOWELD
 70
    64
 3

 72
    65
 73
    2
 40
    2
 49
    1.33333333333333
 74
    0
 49
    -0.666666666666667
 74
    0
  0
LTYPE
  5
4C
100
AcDbSymbolTableRecord
100
AcDbLinetypeTableRecord
  2
ACISOTGB
 70
    64
 3

 72
    65
 73
    6
 40
    9
 49
    4
 74
    0
 49
    -1
 74
    0
 49
    1
 74
    0
 49
    -1
 74
    0
 49
    1
 74
    0
 49
    -1
 74
    0
  0
LTYPE
  5
4D
100
AcDbSymbolTableRecord
100
AcDbLinetypeTableRecord
  2
ACISOTGL
 70
    64
 3

 72
    65
 73
    2
 40
    3
 49
    2
 74
    0
 49
    -1
 74
    0
  0
ENDTAB
  0
TABLE
  2
LAYER
  5
3
100
AcDbSymbolTable
 70
   257
  0
LAYER
  5
4E
100
AcDbSymbolTableRecord
100
AcDbLayerTableRecord
  2
0
 70
    0
 62
7
  6
CONTINUOUS
  0
LAYER
  5
4F
100
AcDbSymbolTableRecord
100
AcDbLayerTableRecord
  2
DEFPOINTS
 70
    0
 62
7
  6
CONTINUOUS
  0
LAYER
  5
50
100
AcDbSymbolTableRecord
100
AcDbLayerTableRecord
  2
ASHADE
 70
    4
 62
7
  6
CONTINUOUS
  0
LAYER
  5
51
100
AcDbSymbolTableRecord
100
AcDbLayerTableRecord
  2
CEN
 70
    0
 62
3
  6
AM_ISO08W050
  0
LAYER
  5
52
100
AcDbSymbolTableRecord
100
AcDbLayerTableRecord
  2
DIM
 70
    0
 62
1
  6
CONTINUOUS
  0
LAYER
  5
53
100
AcDbSymbolTableRecord
100
AcDbLayerTableRecord
  2
HIDDEN
 70
    0
 62
3
  6
CONTINUOUS
  0
LAYER
  5
54
100
AcDbSymbolTableRecord
100
AcDbLayerTableRecord
  2
HATCH
 70
    0
 62
5
  6
CONTINUOUS
  0
LAYER
  5
55
100
AcDbSymbolTableRecord
100
AcDbLayerTableRecord
  2
TEXT
 70
    0
 62
7
  6
CONTINUOUS
  0
LAYER
  5
56
100
AcDbSymbolTableRecord
100
AcDbLayerTableRecord
  2
M
 70
    0
 62
6
  6
CONTINUOUS
  0
LAYER
  5
57
100
AcDbSymbolTableRecord
100
AcDbLayerTableRecord
  2
BREAK
 70
    0
 62
3
  6
AM_ISO09W050
  0
LAYER
  5
58
100
AcDbSymbolTableRecord
100
AcDbLayerTableRecord
  2
01
 70
    0
 62
3
  6
CONTINUOUS
  0
LAYER
  5
59
100
AcDbSymbolTableRecord
100
AcDbLayerTableRecord
  2
7475A
 70
    0
 62
1
  6
CONTINUOUS
  0
LAYER
  5
5A
100
AcDbSymbolTableRecord
100
AcDbLayerTableRecord
  2
BASE
 70
    0
 62
7
  6
CONTINUOUS
  0
LAYER
  5
5B
100
AcDbSymbolTableRecord
100
AcDbLayerTableRecord
  2
AME
 70
    0
 62
7
  6
CONTINUOUS
  0
LAYER
  5
5C
100
AcDbSymbolTableRecord
100
AcDbLayerTableRecord
  2
4
 70
    0
 62
4
  6
CONTINUOUS
  0
LAYER
  5
5D
100
AcDbSymbolTableRecord
100
AcDbLayerTableRecord
  2
AM_CL
 70
    0
 62
1
  6
Amzigzag
  0
LAYER
  5
5E
100
AcDbSymbolTableRecord
100
AcDbLayerTableRecord
  2
PV-25B
 70
    0
 62
7
  6
CONTINUOUS
  0
LAYER
  5
5F
100
AcDbSymbolTableRecord
100
AcDbLayerTableRecord
  2
PV-5756
 70
    0
 62
7
  6
CONTINUOUS
  0
LAYER
  5
60
100
AcDbSymbolTableRecord
100
AcDbLayerTableRecord
  2
画層18
 70
    0
 62
211
  6
CONTINUOUS
  0
LAYER
  5
61
100
AcDbSymbolTableRecord
100
AcDbLayerTableRecord
  2
画層19
 70
    0
 62
137
  6
CONTINUOUS
  0
LAYER
  5
62
100
AcDbSymbolTableRecord
100
AcDbLayerTableRecord
  2
画層20
 70
    0
 62
4
  6
CONTINUOUS
  0
LAYER
  5
63
100
AcDbSymbolTableRecord
100
AcDbLayerTableRecord
  2
画層21
 70
    0
 62
131
  6
CONTINUOUS
  0
LAYER
  5
64
100
AcDbSymbolTableRecord
100
AcDbLayerTableRecord
  2
画層22
 70
    0
 62
4
  6
CONTINUOUS
  0
LAYER
  5
65
100
AcDbSymbolTableRecord
100
AcDbLayerTableRecord
  2
画層23
 70
    0
 62
4
  6
CONTINUOUS
  0
LAYER
  5
66
100
AcDbSymbolTableRecord
100
AcDbLayerTableRecord
  2
画層24
 70
    0
 62
7
  6
CONTINUOUS
  0
LAYER
  5
67
100
AcDbSymbolTableRecord
100
AcDbLayerTableRecord
  2
画層25
 70
    0
 62
7
  6
CONTINUOUS
  0
LAYER
  5
68
100
AcDbSymbolTableRecord
100
AcDbLayerTableRecord
  2
画層26
 70
    0
 62
7
  6
CONTINUOUS
  0
LAYER
  5
69
100
AcDbSymbolTableRecord
100
AcDbLayerTableRecord
  2
画層27
 70
    0
 62
7
  6
CONTINUOUS
  0
LAYER
  5
6A
100
AcDbSymbolTableRecord
100
AcDbLayerTableRecord
  2
画層28
 70
    0
 62
7
  6
CONTINUOUS
  0
LAYER
  5
6B
100
AcDbSymbolTableRecord
100
AcDbLayerTableRecord
  2
画層29
 70
    0
 62
7
  6
CONTINUOUS
  0
LAYER
  5
6C
100
AcDbSymbolTableRecord
100
AcDbLayerTableRecord
  2
画層30
 70
    0
 62
7
  6
CONTINUOUS
  0
LAYER
  5
6D
100
AcDbSymbolTableRecord
100
AcDbLayerTableRecord
  2
画層31
 70
    0
 62
7
  6
CONTINUOUS
  0
LAYER
  5
6E
100
AcDbSymbolTableRecord
100
AcDbLayerTableRecord
  2
画層32
 70
    0
 62
7
  6
CONTINUOUS
  0
LAYER
  5
6F
100
AcDbSymbolTableRecord
100
AcDbLayerTableRecord
  2
画層33
 70
    0
 62
7
  6
CONTINUOUS
  0
LAYER
  5
70
100
AcDbSymbolTableRecord
100
AcDbLayerTableRecord
  2
画層34
 70
    0
 62
7
  6
CONTINUOUS
  0
LAYER
  5
71
100
AcDbSymbolTableRecord
100
AcDbLayerTableRecord
  2
画層35
 70
    0
 62
7
  6
CONTINUOUS
  0
LAYER
  5
72
100
AcDbSymbolTableRecord
100
AcDbLayerTableRecord
  2
画層36
 70
    0
 62
7
  6
CONTINUOUS
  0
LAYER
  5
73
100
AcDbSymbolTableRecord
100
AcDbLayerTableRecord
  2
画層37
 70
    0
 62
7
  6
CONTINUOUS
  0
LAYER
  5
74
100
AcDbSymbolTableRecord
100
AcDbLayerTableRecord
  2
画層38
 70
    0
 62
7
  6
CONTINUOUS
  0
LAYER
  5
75
100
AcDbSymbolTableRecord
100
AcDbLayerTableRecord
  2
画層39
 70
    0
 62
7
  6
CONTINUOUS
  0
LAYER
  5
76
100
AcDbSymbolTableRecord
100
AcDbLayerTableRecord
  2
画層40
 70
    0
 62
7
  6
CONTINUOUS
  0
LAYER
  5
77
100
AcDbSymbolTableRecord
100
AcDbLayerTableRecord
  2
画層41
 70
    0
 62
7
  6
CONTINUOUS
  0
LAYER
  5
78
100
AcDbSymbolTableRecord
100
AcDbLayerTableRecord
  2
画層42
 70
    0
 62
7
  6
CONTINUOUS
  0
LAYER
  5
79
100
AcDbSymbolTableRecord
100
AcDbLayerTableRecord
  2
画層43
 70
    0
 62
7
  6
CONTINUOUS
  0
LAYER
  5
7A
100
AcDbSymbolTableRecord
100
AcDbLayerTableRecord
  2
画層44
 70
    0
 62
7
  6
CONTINUOUS
  0
LAYER
  5
7B
100
AcDbSymbolTableRecord
100
AcDbLayerTableRecord
  2
画層45
 70
    0
 62
7
  6
CONTINUOUS
  0
LAYER
  5
7C
100
AcDbSymbolTableRecord
100
AcDbLayerTableRecord
  2
画層46
 70
    0
 62
7
  6
CONTINUOUS
  0
LAYER
  5
7D
100
AcDbSymbolTableRecord
100
AcDbLayerTableRecord
  2
画層47
 70
    0
 62
7
  6
CONTINUOUS
  0
LAYER
  5
7E
100
AcDbSymbolTableRecord
100
AcDbLayerTableRecord
  2
画層48
 70
    0
 62
7
  6
CONTINUOUS
  0
LAYER
  5
7F
100
AcDbSymbolTableRecord
100
AcDbLayerTableRecord
  2
画層49
 70
    0
 62
7
  6
CONTINUOUS
  0
LAYER
  5
80
100
AcDbSymbolTableRecord
100
AcDbLayerTableRecord
  2
画層50
 70
    0
 62
7
  6
CONTINUOUS
  0
LAYER
  5
81
100
AcDbSymbolTableRecord
100
AcDbLayerTableRecord
  2
画層51
 70
    0
 62
7
  6
CONTINUOUS
  0
LAYER
  5
82
100
AcDbSymbolTableRecord
100
AcDbLayerTableRecord
  2
画層52
 70
    0
 62
7
  6
CONTINUOUS
  0
LAYER
  5
83
100
AcDbSymbolTableRecord
100
AcDbLayerTableRecord
  2
画層53
 70
    0
 62
7
  6
CONTINUOUS
  0
LAYER
  5
84
100
AcDbSymbolTableRecord
100
AcDbLayerTableRecord
  2
画層54
 70
    0
 62
7
  6
CONTINUOUS
  0
LAYER
  5
85
100
AcDbSymbolTableRecord
100
AcDbLayerTableRecord
  2
画層55
 70
    0
 62
7
  6
CONTINUOUS
  0
LAYER
  5
86
100
AcDbSymbolTableRecord
100
AcDbLayerTableRecord
  2
画層56
 70
    0
 62
7
  6
CONTINUOUS
  0
LAYER
  5
87
100
AcDbSymbolTableRecord
100
AcDbLayerTableRecord
  2
画層57
 70
    0
 62
7
  6
CONTINUOUS
  0
LAYER
  5
88
100
AcDbSymbolTableRecord
100
AcDbLayerTableRecord
  2
画層58
 70
    0
 62
7
  6
CONTINUOUS
  0
LAYER
  5
89
100
AcDbSymbolTableRecord
100
AcDbLayerTableRecord
  2
画層59
 70
    0
 62
7
  6
CONTINUOUS
  0
LAYER
  5
8A
100
AcDbSymbolTableRecord
100
AcDbLayerTableRecord
  2
画層60
 70
    0
 62
7
  6
CONTINUOUS
  0
LAYER
  5
8B
100
AcDbSymbolTableRecord
100
AcDbLayerTableRecord
  2
画層61
 70
    0
 62
7
  6
CONTINUOUS
  0
LAYER
  5
8C
100
AcDbSymbolTableRecord
100
AcDbLayerTableRecord
  2
画層62
 70
    0
 62
7
  6
CONTINUOUS
  0
LAYER
  5
8D
100
AcDbSymbolTableRecord
100
AcDbLayerTableRecord
  2
画層63
 70
    0
 62
7
  6
CONTINUOUS
  0
LAYER
  5
8E
100
AcDbSymbolTableRecord
100
AcDbLayerTableRecord
  2
画層64
 70
    0
 62
7
  6
CONTINUOUS
  0
LAYER
  5
8F
100
AcDbSymbolTableRecord
100
AcDbLayerTableRecord
  2
画層65
 70
    0
 62
7
  6
CONTINUOUS
  0
LAYER
  5
90
100
AcDbSymbolTableRecord
100
AcDbLayerTableRecord
  2
画層66
 70
    0
 62
7
  6
CONTINUOUS
  0
LAYER
  5
91
100
AcDbSymbolTableRecord
100
AcDbLayerTableRecord
  2
画層67
 70
    0
 62
7
  6
CONTINUOUS
  0
LAYER
  5
92
100
AcDbSymbolTableRecord
100
AcDbLayerTableRecord
  2
画層68
 70
    0
 62
7
  6
CONTINUOUS
  0
LAYER
  5
93
100
AcDbSymbolTableRecord
100
AcDbLayerTableRecord
  2
画層69
 70
    0
 62
7
  6
CONTINUOUS
  0
LAYER
  5
94
100
AcDbSymbolTableRecord
100
AcDbLayerTableRecord
  2
画層70
 70
    0
 62
7
  6
CONTINUOUS
  0
LAYER
  5
95
100
AcDbSymbolTableRecord
100
AcDbLayerTableRecord
  2
画層71
 70
    0
 62
7
  6
CONTINUOUS
  0
LAYER
  5
96
100
AcDbSymbolTableRecord
100
AcDbLayerTableRecord
  2
画層72
 70
    0
 62
7
  6
CONTINUOUS
  0
LAYER
  5
97
100
AcDbSymbolTableRecord
100
AcDbLayerTableRecord
  2
画層73
 70
    0
 62
7
  6
CONTINUOUS
  0
LAYER
  5
98
100
AcDbSymbolTableRecord
100
AcDbLayerTableRecord
  2
画層74
 70
    0
 62
7
  6
CONTINUOUS
  0
LAYER
  5
99
100
AcDbSymbolTableRecord
100
AcDbLayerTableRecord
  2
画層75
 70
    0
 62
7
  6
CONTINUOUS
  0
LAYER
  5
9A
100
AcDbSymbolTableRecord
100
AcDbLayerTableRecord
  2
画層76
 70
    0
 62
7
  6
CONTINUOUS
  0
LAYER
  5
9B
100
AcDbSymbolTableRecord
100
AcDbLayerTableRecord
  2
画層77
 70
    0
 62
7
  6
CONTINUOUS
  0
LAYER
  5
9C
100
AcDbSymbolTableRecord
100
AcDbLayerTableRecord
  2
画層78
 70
    0
 62
7
  6
CONTINUOUS
  0
LAYER
  5
9D
100
AcDbSymbolTableRecord
100
AcDbLayerTableRecord
  2
画層79
 70
    0
 62
7
  6
CONTINUOUS
  0
LAYER
  5
9E
100
AcDbSymbolTableRecord
100
AcDbLayerTableRecord
  2
画層80
 70
    0
 62
7
  6
CONTINUOUS
  0
LAYER
  5
9F
100
AcDbSymbolTableRecord
100
AcDbLayerTableRecord
  2
画層81
 70
    0
 62
7
  6
CONTINUOUS
  0
LAYER
  5
A0
100
AcDbSymbolTableRecord
100
AcDbLayerTableRecord
  2
画層82
 70
    0
 62
7
  6
CONTINUOUS
  0
LAYER
  5
A1
100
AcDbSymbolTableRecord
100
AcDbLayerTableRecord
  2
画層83
 70
    0
 62
7
  6
CONTINUOUS
  0
LAYER
  5
A2
100
AcDbSymbolTableRecord
100
AcDbLayerTableRecord
  2
画層84
 70
    0
 62
7
  6
CONTINUOUS
  0
LAYER
  5
A3
100
AcDbSymbolTableRecord
100
AcDbLayerTableRecord
  2
画層85
 70
    0
 62
7
  6
CONTINUOUS
  0
LAYER
  5
A4
100
AcDbSymbolTableRecord
100
AcDbLayerTableRecord
  2
画層86
 70
    0
 62
7
  6
CONTINUOUS
  0
LAYER
  5
A5
100
AcDbSymbolTableRecord
100
AcDbLayerTableRecord
  2
画層87
 70
    0
 62
7
  6
CONTINUOUS
  0
LAYER
  5
A6
100
AcDbSymbolTableRecord
100
AcDbLayerTableRecord
  2
画層88
 70
    0
 62
7
  6
CONTINUOUS
  0
LAYER
  5
A7
100
AcDbSymbolTableRecord
100
AcDbLayerTableRecord
  2
画層89
 70
    0
 62
7
  6
CONTINUOUS
  0
LAYER
  5
A8
100
AcDbSymbolTableRecord
100
AcDbLayerTableRecord
  2
画層90
 70
    0
 62
7
  6
CONTINUOUS
  0
LAYER
  5
A9
100
AcDbSymbolTableRecord
100
AcDbLayerTableRecord
  2
画層91
 70
    0
 62
7
  6
CONTINUOUS
  0
LAYER
  5
AA
100
AcDbSymbolTableRecord
100
AcDbLayerTableRecord
  2
画層92
 70
    0
 62
7
  6
CONTINUOUS
  0
LAYER
  5
AB
100
AcDbSymbolTableRecord
100
AcDbLayerTableRecord
  2
画層93
 70
    0
 62
7
  6
CONTINUOUS
  0
LAYER
  5
AC
100
AcDbSymbolTableRecord
100
AcDbLayerTableRecord
  2
画層94
 70
    0
 62
7
  6
CONTINUOUS
  0
LAYER
  5
AD
100
AcDbSymbolTableRecord
100
AcDbLayerTableRecord
  2
画層95
 70
    0
 62
7
  6
CONTINUOUS
  0
LAYER
  5
AE
100
AcDbSymbolTableRecord
100
AcDbLayerTableRecord
  2
画層96
 70
    0
 62
7
  6
CONTINUOUS
  0
LAYER
  5
AF
100
AcDbSymbolTableRecord
100
AcDbLayerTableRecord
  2
画層97
 70
    0
 62
7
  6
CONTINUOUS
  0
LAYER
  5
B0
100
AcDbSymbolTableRecord
100
AcDbLayerTableRecord
  2
画層98
 70
    0
 62
7
  6
CONTINUOUS
  0
LAYER
  5
B1
100
AcDbSymbolTableRecord
100
AcDbLayerTableRecord
  2
画層99
 70
    0
 62
7
  6
CONTINUOUS
  0
LAYER
  5
B2
100
AcDbSymbolTableRecord
100
AcDbLayerTableRecord
  2
画層100
 70
    0
 62
7
  6
CONTINUOUS
  0
LAYER
  5
B3
100
AcDbSymbolTableRecord
100
AcDbLayerTableRecord
  2
画層101
 70
    0
 62
7
  6
CONTINUOUS
  0
LAYER
  5
B4
100
AcDbSymbolTableRecord
100
AcDbLayerTableRecord
  2
画層102
 70
    0
 62
7
  6
CONTINUOUS
  0
LAYER
  5
B5
100
AcDbSymbolTableRecord
100
AcDbLayerTableRecord
  2
画層103
 70
    0
 62
7
  6
CONTINUOUS
  0
LAYER
  5
B6
100
AcDbSymbolTableRecord
100
AcDbLayerTableRecord
  2
画層104
 70
    0
 62
7
  6
CONTINUOUS
  0
LAYER
  5
B7
100
AcDbSymbolTableRecord
100
AcDbLayerTableRecord
  2
画層105
 70
    0
 62
7
  6
CONTINUOUS
  0
LAYER
  5
B8
100
AcDbSymbolTableRecord
100
AcDbLayerTableRecord
  2
画層106
 70
    0
 62
7
  6
CONTINUOUS
  0
LAYER
  5
B9
100
AcDbSymbolTableRecord
100
AcDbLayerTableRecord
  2
画層107
 70
    0
 62
7
  6
CONTINUOUS
  0
LAYER
  5
BA
100
AcDbSymbolTableRecord
100
AcDbLayerTableRecord
  2
画層108
 70
    0
 62
7
  6
CONTINUOUS
  0
LAYER
  5
BB
100
AcDbSymbolTableRecord
100
AcDbLayerTableRecord
  2
画層109
 70
    0
 62
7
  6
CONTINUOUS
  0
LAYER
  5
BC
100
AcDbSymbolTableRecord
100
AcDbLayerTableRecord
  2
画層110
 70
    0
 62
7
  6
CONTINUOUS
  0
LAYER
  5
BD
100
AcDbSymbolTableRecord
100
AcDbLayerTableRecord
  2
画層111
 70
    0
 62
7
  6
CONTINUOUS
  0
LAYER
  5
BE
100
AcDbSymbolTableRecord
100
AcDbLayerTableRecord
  2
画層112
 70
    0
 62
7
  6
CONTINUOUS
  0
LAYER
  5
BF
100
AcDbSymbolTableRecord
100
AcDbLayerTableRecord
  2
画層113
 70
    0
 62
7
  6
CONTINUOUS
  0
LAYER
  5
C0
100
AcDbSymbolTableRecord
100
AcDbLayerTableRecord
  2
画層114
 70
    0
 62
7
  6
CONTINUOUS
  0
LAYER
  5
C1
100
AcDbSymbolTableRecord
100
AcDbLayerTableRecord
  2
画層115
 70
    0
 62
7
  6
CONTINUOUS
  0
LAYER
  5
C2
100
AcDbSymbolTableRecord
100
AcDbLayerTableRecord
  2
画層116
 70
    0
 62
7
  6
CONTINUOUS
  0
LAYER
  5
C3
100
AcDbSymbolTableRecord
100
AcDbLayerTableRecord
  2
画層117
 70
    0
 62
7
  6
CONTINUOUS
  0
LAYER
  5
C4
100
AcDbSymbolTableRecord
100
AcDbLayerTableRecord
  2
画層118
 70
    0
 62
7
  6
CONTINUOUS
  0
LAYER
  5
C5
100
AcDbSymbolTableRecord
100
AcDbLayerTableRecord
  2
画層119
 70
    0
 62
7
  6
CONTINUOUS
  0
LAYER
  5
C6
100
AcDbSymbolTableRecord
100
AcDbLayerTableRecord
  2
画層120
 70
    0
 62
7
  6
CONTINUOUS
  0
LAYER
  5
C7
100
AcDbSymbolTableRecord
100
AcDbLayerTableRecord
  2
画層121
 70
    0
 62
7
  6
CONTINUOUS
  0
LAYER
  5
C8
100
AcDbSymbolTableRecord
100
AcDbLayerTableRecord
  2
画層122
 70
    0
 62
7
  6
CONTINUOUS
  0
LAYER
  5
C9
100
AcDbSymbolTableRecord
100
AcDbLayerTableRecord
  2
画層123
 70
    0
 62
7
  6
CONTINUOUS
  0
LAYER
  5
CA
100
AcDbSymbolTableRecord
100
AcDbLayerTableRecord
  2
画層124
 70
    0
 62
7
  6
CONTINUOUS
  0
LAYER
  5
CB
100
AcDbSymbolTableRecord
100
AcDbLayerTableRecord
  2
画層125
 70
    0
 62
7
  6
CONTINUOUS
  0
LAYER
  5
CC
100
AcDbSymbolTableRecord
100
AcDbLayerTableRecord
  2
画層126
 70
    0
 62
7
  6
CONTINUOUS
  0
LAYER
  5
CD
100
AcDbSymbolTableRecord
100
AcDbLayerTableRecord
  2
画層127
 70
    0
 62
7
  6
CONTINUOUS
  0
LAYER
  5
CE
100
AcDbSymbolTableRecord
100
AcDbLayerTableRecord
  2
画層128
 70
    0
 62
7
  6
CONTINUOUS
  0
LAYER
  5
CF
100
AcDbSymbolTableRecord
100
AcDbLayerTableRecord
  2
画層129
 70
    0
 62
7
  6
CONTINUOUS
  0
LAYER
  5
D0
100
AcDbSymbolTableRecord
100
AcDbLayerTableRecord
  2
画層130
 70
    0
 62
7
  6
CONTINUOUS
  0
LAYER
  5
D1
100
AcDbSymbolTableRecord
100
AcDbLayerTableRecord
  2
画層131
 70
    0
 62
7
  6
CONTINUOUS
  0
LAYER
  5
D2
100
AcDbSymbolTableRecord
100
AcDbLayerTableRecord
  2
画層132
 70
    0
 62
7
  6
CONTINUOUS
  0
LAYER
  5
D3
100
AcDbSymbolTableRecord
100
AcDbLayerTableRecord
  2
画層133
 70
    0
 62
7
  6
CONTINUOUS
  0
LAYER
  5
D4
100
AcDbSymbolTableRecord
100
AcDbLayerTableRecord
  2
画層134
 70
    0
 62
7
  6
CONTINUOUS
  0
LAYER
  5
D5
100
AcDbSymbolTableRecord
100
AcDbLayerTableRecord
  2
画層135
 70
    0
 62
7
  6
CONTINUOUS
  0
LAYER
  5
D6
100
AcDbSymbolTableRecord
100
AcDbLayerTableRecord
  2
画層136
 70
    0
 62
7
  6
CONTINUOUS
  0
LAYER
  5
D7
100
AcDbSymbolTableRecord
100
AcDbLayerTableRecord
  2
画層137
 70
    0
 62
7
  6
CONTINUOUS
  0
LAYER
  5
D8
100
AcDbSymbolTableRecord
100
AcDbLayerTableRecord
  2
画層138
 70
    0
 62
7
  6
CONTINUOUS
  0
LAYER
  5
D9
100
AcDbSymbolTableRecord
100
AcDbLayerTableRecord
  2
画層139
 70
    0
 62
7
  6
CONTINUOUS
  0
LAYER
  5
DA
100
AcDbSymbolTableRecord
100
AcDbLayerTableRecord
  2
画層140
 70
    0
 62
7
  6
CONTINUOUS
  0
LAYER
  5
DB
100
AcDbSymbolTableRecord
100
AcDbLayerTableRecord
  2
画層141
 70
    0
 62
7
  6
CONTINUOUS
  0
LAYER
  5
DC
100
AcDbSymbolTableRecord
100
AcDbLayerTableRecord
  2
画層142
 70
    0
 62
7
  6
CONTINUOUS
  0
LAYER
  5
DD
100
AcDbSymbolTableRecord
100
AcDbLayerTableRecord
  2
画層143
 70
    0
 62
7
  6
CONTINUOUS
  0
LAYER
  5
DE
100
AcDbSymbolTableRecord
100
AcDbLayerTableRecord
  2
画層144
 70
    0
 62
7
  6
CONTINUOUS
  0
LAYER
  5
DF
100
AcDbSymbolTableRecord
100
AcDbLayerTableRecord
  2
画層145
 70
    0
 62
7
  6
CONTINUOUS
  0
LAYER
  5
E0
100
AcDbSymbolTableRecord
100
AcDbLayerTableRecord
  2
画層146
 70
    0
 62
7
  6
CONTINUOUS
  0
LAYER
  5
E1
100
AcDbSymbolTableRecord
100
AcDbLayerTableRecord
  2
画層147
 70
    0
 62
7
  6
CONTINUOUS
  0
LAYER
  5
E2
100
AcDbSymbolTableRecord
100
AcDbLayerTableRecord
  2
画層148
 70
    0
 62
7
  6
CONTINUOUS
  0
LAYER
  5
E3
100
AcDbSymbolTableRecord
100
AcDbLayerTableRecord
  2
画層149
 70
    0
 62
7
  6
CONTINUOUS
  0
LAYER
  5
E4
100
AcDbSymbolTableRecord
100
AcDbLayerTableRecord
  2
画層150
 70
    0
 62
7
  6
CONTINUOUS
  0
LAYER
  5
E5
100
AcDbSymbolTableRecord
100
AcDbLayerTableRecord
  2
画層151
 70
    0
 62
7
  6
CONTINUOUS
  0
LAYER
  5
E6
100
AcDbSymbolTableRecord
100
AcDbLayerTableRecord
  2
画層152
 70
    0
 62
7
  6
CONTINUOUS
  0
LAYER
  5
E7
100
AcDbSymbolTableRecord
100
AcDbLayerTableRecord
  2
画層153
 70
    0
 62
7
  6
CONTINUOUS
  0
LAYER
  5
E8
100
AcDbSymbolTableRecord
100
AcDbLayerTableRecord
  2
画層154
 70
    0
 62
7
  6
CONTINUOUS
  0
LAYER
  5
E9
100
AcDbSymbolTableRecord
100
AcDbLayerTableRecord
  2
画層155
 70
    0
 62
7
  6
CONTINUOUS
  0
LAYER
  5
EA
100
AcDbSymbolTableRecord
100
AcDbLayerTableRecord
  2
画層156
 70
    0
 62
7
  6
CONTINUOUS
  0
LAYER
  5
EB
100
AcDbSymbolTableRecord
100
AcDbLayerTableRecord
  2
画層157
 70
    0
 62
7
  6
CONTINUOUS
  0
LAYER
  5
EC
100
AcDbSymbolTableRecord
100
AcDbLayerTableRecord
  2
画層158
 70
    0
 62
7
  6
CONTINUOUS
  0
LAYER
  5
ED
100
AcDbSymbolTableRecord
100
AcDbLayerTableRecord
  2
画層159
 70
    0
 62
7
  6
CONTINUOUS
  0
LAYER
  5
EE
100
AcDbSymbolTableRecord
100
AcDbLayerTableRecord
  2
画層160
 70
    0
 62
7
  6
CONTINUOUS
  0
LAYER
  5
EF
100
AcDbSymbolTableRecord
100
AcDbLayerTableRecord
  2
画層161
 70
    0
 62
7
  6
CONTINUOUS
  0
LAYER
  5
F0
100
AcDbSymbolTableRecord
100
AcDbLayerTableRecord
  2
画層162
 70
    0
 62
7
  6
CONTINUOUS
  0
LAYER
  5
F1
100
AcDbSymbolTableRecord
100
AcDbLayerTableRecord
  2
画層163
 70
    0
 62
7
  6
CONTINUOUS
  0
LAYER
  5
F2
100
AcDbSymbolTableRecord
100
AcDbLayerTableRecord
  2
画層164
 70
    0
 62
7
  6
CONTINUOUS
  0
LAYER
  5
F3
100
AcDbSymbolTableRecord
100
AcDbLayerTableRecord
  2
画層165
 70
    0
 62
7
  6
CONTINUOUS
  0
LAYER
  5
F4
100
AcDbSymbolTableRecord
100
AcDbLayerTableRecord
  2
画層166
 70
    0
 62
7
  6
CONTINUOUS
  0
LAYER
  5
F5
100
AcDbSymbolTableRecord
100
AcDbLayerTableRecord
  2
画層167
 70
    0
 62
7
  6
CONTINUOUS
  0
LAYER
  5
F6
100
AcDbSymbolTableRecord
100
AcDbLayerTableRecord
  2
画層168
 70
    0
 62
7
  6
CONTINUOUS
  0
LAYER
  5
F7
100
AcDbSymbolTableRecord
100
AcDbLayerTableRecord
  2
画層169
 70
    0
 62
7
  6
CONTINUOUS
  0
LAYER
  5
F8
100
AcDbSymbolTableRecord
100
AcDbLayerTableRecord
  2
画層170
 70
    0
 62
7
  6
CONTINUOUS
  0
LAYER
  5
F9
100
AcDbSymbolTableRecord
100
AcDbLayerTableRecord
  2
画層171
 70
    0
 62
7
  6
CONTINUOUS
  0
LAYER
  5
FA
100
AcDbSymbolTableRecord
100
AcDbLayerTableRecord
  2
画層172
 70
    0
 62
7
  6
CONTINUOUS
  0
LAYER
  5
FB
100
AcDbSymbolTableRecord
100
AcDbLayerTableRecord
  2
画層173
 70
    0
 62
7
  6
CONTINUOUS
  0
LAYER
  5
FC
100
AcDbSymbolTableRecord
100
AcDbLayerTableRecord
  2
画層174
 70
    0
 62
7
  6
CONTINUOUS
  0
LAYER
  5
FD
100
AcDbSymbolTableRecord
100
AcDbLayerTableRecord
  2
画層175
 70
    0
 62
7
  6
CONTINUOUS
  0
LAYER
  5
FE
100
AcDbSymbolTableRecord
100
AcDbLayerTableRecord
  2
画層176
 70
    0
 62
7
  6
CONTINUOUS
  0
LAYER
  5
FF
100
AcDbSymbolTableRecord
100
AcDbLayerTableRecord
  2
画層177
 70
    0
 62
7
  6
CONTINUOUS
  0
LAYER
  5
100
100
AcDbSymbolTableRecord
100
AcDbLayerTableRecord
  2
画層178
 70
    0
 62
7
  6
CONTINUOUS
  0
LAYER
  5
101
100
AcDbSymbolTableRecord
100
AcDbLayerTableRecord
  2
画層179
 70
    0
 62
7
  6
CONTINUOUS
  0
LAYER
  5
102
100
AcDbSymbolTableRecord
100
AcDbLayerTableRecord
  2
画層180
 70
    0
 62
7
  6
CONTINUOUS
  0
LAYER
  5
103
100
AcDbSymbolTableRecord
100
AcDbLayerTableRecord
  2
画層181
 70
    0
 62
7
  6
CONTINUOUS
  0
LAYER
  5
104
100
AcDbSymbolTableRecord
100
AcDbLayerTableRecord
  2
画層182
 70
    0
 62
7
  6
CONTINUOUS
  0
LAYER
  5
105
100
AcDbSymbolTableRecord
100
AcDbLayerTableRecord
  2
画層183
 70
    0
 62
7
  6
CONTINUOUS
  0
LAYER
  5
106
100
AcDbSymbolTableRecord
100
AcDbLayerTableRecord
  2
画層184
 70
    0
 62
7
  6
CONTINUOUS
  0
LAYER
  5
107
100
AcDbSymbolTableRecord
100
AcDbLayerTableRecord
  2
画層185
 70
    0
 62
7
  6
CONTINUOUS
  0
LAYER
  5
108
100
AcDbSymbolTableRecord
100
AcDbLayerTableRecord
  2
画層186
 70
    0
 62
7
  6
CONTINUOUS
  0
LAYER
  5
109
100
AcDbSymbolTableRecord
100
AcDbLayerTableRecord
  2
画層187
 70
    0
 62
7
  6
CONTINUOUS
  0
LAYER
  5
10A
100
AcDbSymbolTableRecord
100
AcDbLayerTableRecord
  2
画層188
 70
    0
 62
7
  6
CONTINUOUS
  0
LAYER
  5
10B
100
AcDbSymbolTableRecord
100
AcDbLayerTableRecord
  2
画層189
 70
    0
 62
7
  6
CONTINUOUS
  0
LAYER
  5
10C
100
AcDbSymbolTableRecord
100
AcDbLayerTableRecord
  2
画層190
 70
    0
 62
7
  6
CONTINUOUS
  0
LAYER
  5
10D
100
AcDbSymbolTableRecord
100
AcDbLayerTableRecord
  2
画層191
 70
    0
 62
7
  6
CONTINUOUS
  0
LAYER
  5
10E
100
AcDbSymbolTableRecord
100
AcDbLayerTableRecord
  2
画層192
 70
    0
 62
7
  6
CONTINUOUS
  0
LAYER
  5
10F
100
AcDbSymbolTableRecord
100
AcDbLayerTableRecord
  2
画層193
 70
    0
 62
7
  6
CONTINUOUS
  0
LAYER
  5
110
100
AcDbSymbolTableRecord
100
AcDbLayerTableRecord
  2
画層194
 70
    0
 62
7
  6
CONTINUOUS
  0
LAYER
  5
111
100
AcDbSymbolTableRecord
100
AcDbLayerTableRecord
  2
画層195
 70
    0
 62
7
  6
CONTINUOUS
  0
LAYER
  5
112
100
AcDbSymbolTableRecord
100
AcDbLayerTableRecord
  2
画層196
 70
    0
 62
7
  6
CONTINUOUS
  0
LAYER
  5
113
100
AcDbSymbolTableRecord
100
AcDbLayerTableRecord
  2
画層197
 70
    0
 62
7
  6
CONTINUOUS
  0
LAYER
  5
114
100
AcDbSymbolTableRecord
100
AcDbLayerTableRecord
  2
画層198
 70
    0
 62
7
  6
CONTINUOUS
  0
LAYER
  5
115
100
AcDbSymbolTableRecord
100
AcDbLayerTableRecord
  2
画層199
 70
    0
 62
7
  6
CONTINUOUS
  0
LAYER
  5
116
100
AcDbSymbolTableRecord
100
AcDbLayerTableRecord
  2
画層200
 70
    0
 62
7
  6
CONTINUOUS
  0
LAYER
  5
117
100
AcDbSymbolTableRecord
100
AcDbLayerTableRecord
  2
画層201
 70
    0
 62
7
  6
CONTINUOUS
  0
LAYER
  5
118
100
AcDbSymbolTableRecord
100
AcDbLayerTableRecord
  2
画層202
 70
    0
 62
7
  6
CONTINUOUS
  0
LAYER
  5
119
100
AcDbSymbolTableRecord
100
AcDbLayerTableRecord
  2
画層203
 70
    0
 62
7
  6
CONTINUOUS
  0
LAYER
  5
11A
100
AcDbSymbolTableRecord
100
AcDbLayerTableRecord
  2
画層204
 70
    0
 62
7
  6
CONTINUOUS
  0
LAYER
  5
11B
100
AcDbSymbolTableRecord
100
AcDbLayerTableRecord
  2
画層205
 70
    0
 62
7
  6
CONTINUOUS
  0
LAYER
  5
11C
100
AcDbSymbolTableRecord
100
AcDbLayerTableRecord
  2
画層206
 70
    0
 62
7
  6
CONTINUOUS
  0
LAYER
  5
11D
100
AcDbSymbolTableRecord
100
AcDbLayerTableRecord
  2
画層207
 70
    0
 62
7
  6
CONTINUOUS
  0
LAYER
  5
11E
100
AcDbSymbolTableRecord
100
AcDbLayerTableRecord
  2
画層208
 70
    0
 62
7
  6
CONTINUOUS
  0
LAYER
  5
11F
100
AcDbSymbolTableRecord
100
AcDbLayerTableRecord
  2
画層209
 70
    0
 62
7
  6
CONTINUOUS
  0
LAYER
  5
120
100
AcDbSymbolTableRecord
100
AcDbLayerTableRecord
  2
画層210
 70
    0
 62
7
  6
CONTINUOUS
  0
LAYER
  5
121
100
AcDbSymbolTableRecord
100
AcDbLayerTableRecord
  2
画層211
 70
    0
 62
7
  6
CONTINUOUS
  0
LAYER
  5
122
100
AcDbSymbolTableRecord
100
AcDbLayerTableRecord
  2
画層212
 70
    0
 62
7
  6
CONTINUOUS
  0
LAYER
  5
123
100
AcDbSymbolTableRecord
100
AcDbLayerTableRecord
  2
画層213
 70
    0
 62
7
  6
CONTINUOUS
  0
LAYER
  5
124
100
AcDbSymbolTableRecord
100
AcDbLayerTableRecord
  2
画層214
 70
    0
 62
7
  6
CONTINUOUS
  0
LAYER
  5
125
100
AcDbSymbolTableRecord
100
AcDbLayerTableRecord
  2
画層215
 70
    0
 62
7
  6
CONTINUOUS
  0
LAYER
  5
126
100
AcDbSymbolTableRecord
100
AcDbLayerTableRecord
  2
画層216
 70
    0
 62
7
  6
CONTINUOUS
  0
LAYER
  5
127
100
AcDbSymbolTableRecord
100
AcDbLayerTableRecord
  2
画層217
 70
    0
 62
7
  6
CONTINUOUS
  0
LAYER
  5
128
100
AcDbSymbolTableRecord
100
AcDbLayerTableRecord
  2
画層218
 70
    0
 62
7
  6
CONTINUOUS
  0
LAYER
  5
129
100
AcDbSymbolTableRecord
100
AcDbLayerTableRecord
  2
画層219
 70
    0
 62
7
  6
CONTINUOUS
  0
LAYER
  5
12A
100
AcDbSymbolTableRecord
100
AcDbLayerTableRecord
  2
画層220
 70
    0
 62
7
  6
CONTINUOUS
  0
LAYER
  5
12B
100
AcDbSymbolTableRecord
100
AcDbLayerTableRecord
  2
画層221
 70
    0
 62
7
  6
CONTINUOUS
  0
LAYER
  5
12C
100
AcDbSymbolTableRecord
100
AcDbLayerTableRecord
  2
画層222
 70
    0
 62
7
  6
CONTINUOUS
  0
LAYER
  5
12D
100
AcDbSymbolTableRecord
100
AcDbLayerTableRecord
  2
画層223
 70
    0
 62
7
  6
CONTINUOUS
  0
LAYER
  5
12E
100
AcDbSymbolTableRecord
100
AcDbLayerTableRecord
  2
画層224
 70
    0
 62
7
  6
CONTINUOUS
  0
LAYER
  5
12F
100
AcDbSymbolTableRecord
100
AcDbLayerTableRecord
  2
画層225
 70
    0
 62
7
  6
CONTINUOUS
  0
LAYER
  5
130
100
AcDbSymbolTableRecord
100
AcDbLayerTableRecord
  2
画層226
 70
    0
 62
7
  6
CONTINUOUS
  0
LAYER
  5
131
100
AcDbSymbolTableRecord
100
AcDbLayerTableRecord
  2
画層227
 70
    0
 62
7
  6
CONTINUOUS
  0
LAYER
  5
132
100
AcDbSymbolTableRecord
100
AcDbLayerTableRecord
  2
画層228
 70
    0
 62
7
  6
CONTINUOUS
  0
LAYER
  5
133
100
AcDbSymbolTableRecord
100
AcDbLayerTableRecord
  2
画層229
 70
    0
 62
7
  6
CONTINUOUS
  0
LAYER
  5
134
100
AcDbSymbolTableRecord
100
AcDbLayerTableRecord
  2
画層230
 70
    0
 62
7
  6
CONTINUOUS
  0
LAYER
  5
135
100
AcDbSymbolTableRecord
100
AcDbLayerTableRecord
  2
画層231
 70
    0
 62
7
  6
CONTINUOUS
  0
LAYER
  5
136
100
AcDbSymbolTableRecord
100
AcDbLayerTableRecord
  2
画層232
 70
    0
 62
7
  6
CONTINUOUS
  0
LAYER
  5
137
100
AcDbSymbolTableRecord
100
AcDbLayerTableRecord
  2
画層233
 70
    0
 62
7
  6
CONTINUOUS
  0
LAYER
  5
138
100
AcDbSymbolTableRecord
100
AcDbLayerTableRecord
  2
画層234
 70
    0
 62
7
  6
CONTINUOUS
  0
LAYER
  5
139
100
AcDbSymbolTableRecord
100
AcDbLayerTableRecord
  2
画層235
 70
    0
 62
7
  6
CONTINUOUS
  0
LAYER
  5
13A
100
AcDbSymbolTableRecord
100
AcDbLayerTableRecord
  2
画層236
 70
    0
 62
7
  6
CONTINUOUS
  0
LAYER
  5
13B
100
AcDbSymbolTableRecord
100
AcDbLayerTableRecord
  2
画層237
 70
    0
 62
7
  6
CONTINUOUS
  0
LAYER
  5
13C
100
AcDbSymbolTableRecord
100
AcDbLayerTableRecord
  2
画層238
 70
    0
 62
7
  6
CONTINUOUS
  0
LAYER
  5
13D
100
AcDbSymbolTableRecord
100
AcDbLayerTableRecord
  2
画層239
 70
    0
 62
7
  6
CONTINUOUS
  0
LAYER
  5
13E
100
AcDbSymbolTableRecord
100
AcDbLayerTableRecord
  2
画層240
 70
    0
 62
7
  6
CONTINUOUS
  0
LAYER
  5
13F
100
AcDbSymbolTableRecord
100
AcDbLayerTableRecord
  2
画層241
 70
    0
 62
7
  6
CONTINUOUS
  0
LAYER
  5
140
100
AcDbSymbolTableRecord
100
AcDbLayerTableRecord
  2
画層242
 70
    0
 62
7
  6
CONTINUOUS
  0
LAYER
  5
141
100
AcDbSymbolTableRecord
100
AcDbLayerTableRecord
  2
画層243
 70
    0
 62
7
  6
CONTINUOUS
  0
LAYER
  5
142
100
AcDbSymbolTableRecord
100
AcDbLayerTableRecord
  2
画層244
 70
    0
 62
7
  6
CONTINUOUS
  0
LAYER
  5
143
100
AcDbSymbolTableRecord
100
AcDbLayerTableRecord
  2
画層245
 70
    0
 62
7
  6
CONTINUOUS
  0
LAYER
  5
144
100
AcDbSymbolTableRecord
100
AcDbLayerTableRecord
  2
画層246
 70
    0
 62
7
  6
CONTINUOUS
  0
LAYER
  5
145
100
AcDbSymbolTableRecord
100
AcDbLayerTableRecord
  2
画層247
 70
    0
 62
7
  6
CONTINUOUS
  0
LAYER
  5
146
100
AcDbSymbolTableRecord
100
AcDbLayerTableRecord
  2
画層248
 70
    0
 62
7
  6
CONTINUOUS
  0
LAYER
  5
147
100
AcDbSymbolTableRecord
100
AcDbLayerTableRecord
  2
画層249
 70
    0
 62
7
  6
CONTINUOUS
  0
LAYER
  5
148
100
AcDbSymbolTableRecord
100
AcDbLayerTableRecord
  2
画層250
 70
    0
 62
7
  6
CONTINUOUS
  0
LAYER
  5
149
100
AcDbSymbolTableRecord
100
AcDbLayerTableRecord
  2
画層251
 70
    0
 62
7
  6
CONTINUOUS
  0
LAYER
  5
14A
100
AcDbSymbolTableRecord
100
AcDbLayerTableRecord
  2
画層252
 70
    0
 62
7
  6
CONTINUOUS
  0
LAYER
  5
14B
100
AcDbSymbolTableRecord
100
AcDbLayerTableRecord
  2
画層253
 70
    0
 62
7
  6
CONTINUOUS
  0
LAYER
  5
14C
100
AcDbSymbolTableRecord
100
AcDbLayerTableRecord
  2
画層254
 70
    0
 62
7
  6
CONTINUOUS
  0
LAYER
  5
14D
100
AcDbSymbolTableRecord
100
AcDbLayerTableRecord
  2
画層255
 70
    0
 62
7
  6
CONTINUOUS
  0
ENDTAB
  0
TABLE
  2
STYLE
  5
4
100
AcDbSymbolTable
 70
     1
  0
STYLE
  5
14E
100
AcDbSymbolTableRecord
100
AcDbTextStyleTableRecord
  2
Standard
 70
     0
 40
0.0
 41
1.0
 50
0.0
 71
     0
 42
3.2
  3
TXT
  4
BIGFONT
  0
STYLE
  5
14F
100
AcDbSymbolTableRecord
100
AcDbTextStyleTableRecord
  2
Font_0
 70
     0
 40
0.0
 41
1.0
 50
0.0
 71
     0
 42
3.2
  3
MS Gothic.ttf
  4

1001
ACAD
1000
MS Gothic
1071
  32817
  0
STYLE
  5
150
100
AcDbSymbolTableRecord
100
AcDbTextStyleTableRecord
  2
Font_1
 70
     0
 40
0.0
 41
1.0
 50
0.0
 71
     0
 42
3.2
  3
MS Gothic.ttf
  4

1001
ACAD
1000
@MS Gothic
1071
  32817
  0
ENDTAB
  0
TABLE
  2
VIEW
  5
5
100
AcDbSymbolTable
 70
     0
  0
ENDTAB
  0
TABLE
  2
UCS
  5
6
100
AcDbSymbolTable
 70
     0
  0
ENDTAB
  0
TABLE
  2
APPID
  5
7
100
AcDbSymbolTable
 70
     1
  0
APPID
  5
151
100
AcDbSymbolTableRecord
100
AcDbRegAppTableRecord
  2
ACAD
 70
     0
  0
ENDTAB
  0
TABLE
  2
DIMSTYLE
  5
8
100
AcDbSymbolTable
 70
     1
  0
DIMSTYLE
105
2A
100
AcDbSymbolTableRecord
100
AcDbDimStyleTableRecord
  2
STANDARD
 70
     0
  3

  4

  5

  6

  7

 40
1.0
 41
2.5
 42
2.0
 43
7.0
 44
1.25
 45
0.0
 46
0.0
 47
0.0
 48
0.0
 71
     0
 72
     0
 73
     0
 74
     0
 75
     0
 76
     0
 77
     1
 78
     0
140
2.5
141
2.5
142
0.0
143
0.0394
144
1.0
145
0.0
146
1.0
147
1.0
170
     0
171
     2
172
     0
173
     0
174
     1
175
     0
176
     0
177
     0
178
     0
270
     2
271
     2
272
     4
273
     2
274
     2
275
     0
280
     0
281
     0
282
     0
283
     1
284
     0
285
     0
286
     0
287
     3
288
     0
  0
ENDTAB
  0
TABLE
  2
BLOCK_RECORD
  5
9
100
AcDbSymbolTable
 70
     0
  0
BLOCK_RECORD
  5
152
100
AcDbSymbolTableRecord
100
AcDbBlockTableRecord
  2
*MODEL_SPACE
  0
BLOCK_RECORD
  5
153
100
AcDbSymbolTableRecord
100
AcDbBlockTableRecord
  2
*PAPER_SPACE
  0
BLOCK_RECORD
  5
154
100
AcDbSymbolTableRecord
100
AcDbBlockTableRecord
  2
0
  0
BLOCK_RECORD
  5
155
100
AcDbSymbolTableRecord
100
AcDbBlockTableRecord
  2
A4
  0
BLOCK_RECORD
  5
156
100
AcDbSymbolTableRecord
100
AcDbBlockTableRecord
  2
NOTE
  0
BLOCK_RECORD
  5
157
100
AcDbSymbolTableRecord
100
AcDbBlockTableRecord
  2
BASE
  0
BLOCK_RECORD
  5
158
100
AcDbSymbolTableRecord
100
AcDbBlockTableRecord
  2
LIST
  0
BLOCK_RECORD
  5
159
100
AcDbSymbolTableRecord
100
AcDbBlockTableRecord
  2
A4ｹﾏｮﾘ
  0
BLOCK_RECORD
  5
15A
100
AcDbSymbolTableRecord
100
AcDbBlockTableRecord
  2
JAME
  0
BLOCK_RECORD
  5
15B
100
AcDbSymbolTableRecord
100
AcDbBlockTableRecord
  2
GENAXEH
  0
BLOCK_RECORD
  5
15C
100
AcDbSymbolTableRecord
100
AcDbBlockTableRecord
  2
A$C36D836D4
  0
BLOCK_RECORD
  5
15D
100
AcDbSymbolTableRecord
100
AcDbBlockTableRecord
  2
A$C520435C5
  0
BLOCK_RECORD
  5
15E
100
AcDbSymbolTableRecord
100
AcDbBlockTableRecord
  2
A$C60F9129D
  0
BLOCK_RECORD
  5
15F
100
AcDbSymbolTableRecord
100
AcDbBlockTableRecord
  2
A
  0
BLOCK_RECORD
  5
160
100
AcDbSymbolTableRecord
100
AcDbBlockTableRecord
  2
B
  0
BLOCK_RECORD
  5
161
100
AcDbSymbolTableRecord
100
AcDbBlockTableRecord
  2
C
  0
BLOCK_RECORD
  5
162
100
AcDbSymbolTableRecord
100
AcDbBlockTableRecord
  2
D
  0
BLOCK_RECORD
  5
163
100
AcDbSymbolTableRecord
100
AcDbBlockTableRecord
  2
A4ｹﾏｮﾘ_JAME_
  0
BLOCK_RECORD
  5
164
100
AcDbSymbolTableRecord
100
AcDbBlockTableRecord
  2
A$C08DA6544
  0
BLOCK_RECORD
  5
165
100
AcDbSymbolTableRecord
100
AcDbBlockTableRecord
  2
A$C7924541D
  0
BLOCK_RECORD
  5
166
100
AcDbSymbolTableRecord
100
AcDbBlockTableRecord
  2
A$C49B62815
  0
BLOCK_RECORD
  5
167
100
AcDbSymbolTableRecord
100
AcDbBlockTableRecord
  2
A$C185366D6
  0
BLOCK_RECORD
  5
168
100
AcDbSymbolTableRecord
100
AcDbBlockTableRecord
  2
A$C75C87AE5
  0
ENDTAB
  0
ENDSEC
  0
SECTION
  2
BLOCKS
  0
BLOCK
  5
16A
100
AcDbEntity
  8
0
100
AcDbBlockBegin
2
*MODEL_SPACE
 70
     0
 10
0.0
 20
0.0
 30
0.0
  3
*MODEL_SPACE
  1

  0
ENDBLK
  5
16B
100
AcDbEntity
  8
0
100
AcDbBlockEnd
  0
BLOCK
  5
16C
100
AcDbEntity
 67
     1
  8
0
100
AcDbBlockBegin
  2
*PAPER_SPACE
 70
     0
 10
0.0
 20
0.0
 30
0.0
  3
*PAPER_SPACE
  1

  0
ENDBLK
  5
16D
100
AcDbEntity
 67
     1
  8
0
100
AcDbBlockEnd
  0
BLOCK
  5
16E
100
AcDbEntity
  8
0
100
AcDbBlockBegin
  2
0
 70
    0
 10
0
 20
0
 30
0.0
  3
0
  1

  0
LINE
  5
16F
100
AcDbEntity
  8
0
100
AcDbLine
  6
BYLAYER
 10
1
 20
1
 11
97.85
 21
1
  0
LINE
  5
170
100
AcDbEntity
  8
0
100
AcDbLine
  6
BYLAYER
 10
1
 20
201
 11
1
 21
1
  0
LINE
  5
171
100
AcDbEntity
  8
0
100
AcDbLine
  6
BYLAYER
 10
1
 20
1
 11
1
 21
35
  0
LINE
  5
172
100
AcDbEntity
  8
0
100
AcDbLine
  6
BYLAYER
 10
1
 20
7
 11
290
 21
7
  0
LINE
  5
173
100
AcDbEntity
  8
0
100
AcDbLine
  6
BYLAYER
 10
1
 20
13
 11
290
 21
13
  0
LINE
  5
174
100
AcDbEntity
  8
0
100
AcDbLine
  6
BYLAYER
 10
97.85
 20
19
 11
290
 21
19
  0
LINE
  5
175
100
AcDbEntity
  8
0
100
AcDbLine
  6
BYLAYER
 10
98
 20
25
 11
290
 21
25
  0
LINE
  5
176
100
AcDbEntity
  8
0
100
AcDbLine
  6
BYLAYER
 10
98
 20
31
 11
290
 21
31
  0
LINE
  5
177
100
AcDbEntity
  8
0
100
AcDbLine
  6
BYLAYER
 10
214
 20
37
 11
214
 21
1
  0
LINE
  5
178
100
AcDbEntity
  8
0
100
AcDbLine
  6
BYLAYER
 10
233
 20
37
 11
233
 21
1
  0
LINE
  5
179
100
AcDbEntity
  8
0
100
AcDbLine
  6
BYLAYER
 10
196.025
 20
31
 11
196.025
 21
1
  0
LINE
  5
17A
100
AcDbEntity
  8
0
100
AcDbLine
  6
BYLAYER
 10
196.025
 20
31
 11
290
 21
31
  0
LINE
  5
17B
100
AcDbEntity
  8
0
100
AcDbLine
  6
BYLAYER
 10
196.025
 20
1
 11
290
 21
1
  0
LINE
  5
17C
100
AcDbEntity
  8
0
100
AcDbLine
  6
BYLAYER
 10
196.15
 20
37
 11
196.15
 21
1
  0
LINE
  5
17D
100
AcDbEntity
  8
0
100
AcDbLine
  6
BYLAYER
 10
195.85
 20
37
 11
195.85
 21
1
  0
LINE
  5
17E
100
AcDbEntity
  8
0
100
AcDbLine
  6
BYLAYER
 10
98.15
 20
37
 11
98.15
 21
1
  0
LINE
  5
17F
100
AcDbEntity
  8
0
100
AcDbLine
  6
BYLAYER
 10
98.15
 20
31
 11
195.85
 21
31
  0
LINE
  5
180
100
AcDbEntity
  8
0
100
AcDbLine
  6
BYLAYER
 10
98.15
 20
1
 11
195.85
 21
1
  0
LINE
  5
181
100
AcDbEntity
  8
0
100
AcDbLine
  6
BYLAYER
 10
97.85
 20
37
 11
97.85
 21
1
  0
LINE
  5
182
100
AcDbEntity
  8
0
100
AcDbLine
  6
BYLAYER
 10
145
 20
37
 11
145
 21
1
  0
LINE
  5
183
100
AcDbEntity
  8
0
100
AcDbLine
  6
BYLAYER
 10
115
 20
37
 11
115
 21
1
  0
LINE
  5
184
100
AcDbEntity
  8
0
100
AcDbLine
  6
BYLAYER
 10
164
 20
37
 11
164
 21
1
  0
LINE
  5
185
100
AcDbEntity
  8
0
100
AcDbLine
  6
BYLAYER
 10
49
 20
13
 11
49
 21
1
  0
LINE
  5
186
100
AcDbEntity
  8
0
100
AcDbLine
  6
BYLAYER
 10
14
 20
13
 11
14
 21
1
  0
LINE
  5
187
100
AcDbEntity
  8
0
100
AcDbLine
  6
BYLAYER
 10
63
 20
13
 11
63
 21
1
  0
TEXT
  5
188
100
AcDbEntity
  8
0
100
AcDbText
  6
BYLAYER
 10
3
 20
7.72940914028269
 40
3
  1
TEL
  7
Font_0
100
AcDbText
  0
TEXT
  5
189
100
AcDbEntity
  8
0
100
AcDbText
  6
BYLAYER
 10
51
 20
7.91176142535337
 40
3
  1
FAX
  7
Font_0
100
AcDbText
  0
TEXT
  5
18A
100
AcDbEntity
  8
0
100
AcDbText
  6
BYLAYER
 10
16.5400336288223
 20
8.09411371042404
 40
3
  1
(04)3322627
  7
Font_0
100
AcDbText
  0
TEXT
  5
18B
100
AcDbEntity
  8
0
100
AcDbText
  6
BYLAYER
 10
67
 20
8.09411371042404
 40
3
  1
(04)3322629
  7
Font_0
100
AcDbText
  0
LINE
  5
18C
100
AcDbEntity
  8
0
100
AcDbLine
  6
BYLAYER
 10
1
 20
37
 11
290
 21
37
  0
TEXT
  5
18D
100
AcDbEntity
  8
0
100
AcDbText
  6
BYLAYER
 10
40.6536662502908
 20
8.06055328395253
 40
3
  1
~8
  7
Font_0
100
AcDbText
  0
TEXT
  5
18E
100
AcDbEntity
  8
0
100
AcDbText
  6
BYLAYER
 10
99.7036913346956
 20
32.2639399057443
 40
4
  1
･D ｺﾞ
  7
Font_0
100
AcDbText
  0
TEXT
  5
18F
100
AcDbEntity
  8
0
100
AcDbText
  6
BYLAYER
 10
99.7036913346956
 20
25.6992573518645
 40
4
  1
ｮﾖ ｹ�
  7
Font_0
100
AcDbText
  0
TEXT
  5
190
100
AcDbEntity
  8
0
100
AcDbText
  6
BYLAYER
 10
99.8861871848885
 20
19.8639838602288
 40
4
  1
ﾃｸ ｹﾏ
  7
Font_0
100
AcDbText
  0
TEXT
  5
191
100
AcDbEntity
  8
0
100
AcDbText
  6
BYLAYER
 10
99.8861871848885
 20
13.8463581030321
 40
4
  1
ｾ� ｺﾘ
  7
Font_0
100
AcDbText
  0
TEXT
  5
192
100
AcDbEntity
  8
0
100
AcDbText
  6
BYLAYER
 10
100.068683035081
 20
7.82873284267693
 40
4
  1
ｫ~ ｦW
  7
Font_0
100
AcDbText
  0
TEXT
  5
193
100
AcDbEntity
  8
0
100
AcDbText
  6
BYLAYER
 10
100.068683035081
 20
1.99345935104124
 40
4
  1
ｹﾏ ｸｹ
  7
Font_0
100
AcDbText
  0
TEXT
  5
194
100
AcDbEntity
  8
0
100
AcDbText
  6
BYLAYER
 10
146.605123404095
 20
31.8992353746223
 40
4
  1
ｧ� ｽ�
  7
Font_0
100
AcDbText
  0
TEXT
  5
195
100
AcDbEntity
  8
0
100
AcDbText
  6
BYLAYER
 10
146.605123404095
 20
25.8816096174256
 40
4
  1
､� ｨﾒ
  7
Font_0
100
AcDbText
  0
TEXT
  5
196
100
AcDbEntity
  8
0
100
AcDbText
  6
BYLAYER
 10
146.787619254287
 20
20.0463361257899
 40
4
  1
ｼﾆ ｶq
  7
Font_0
100
AcDbText
  0
TEXT
  5
197
100
AcDbEntity
  8
0
100
AcDbText
  6
BYLAYER
 10
146.97011510448
 20
14.0287103685931
 40
4
  1
ｳ� ｦ�
  7
Font_0
100
AcDbText
  0
TEXT
  5
198
100
AcDbEntity
  8
0
100
AcDbText
  6
BYLAYER
 10
146.422627553902
 20
8.01108510823795
 40
4
  1
ｪ揵ｱｳBｲz
  7
Font_0
100
AcDbText
  0
TEXT
  5
199
100
AcDbEntity
  8
0
100
AcDbText
  6
BYLAYER
 10
146.605123404095
 20
2.17581161660226
 40
4
  1
ｻsｹﾏ､魘ﾁ
  7
Font_0
100
AcDbText
  0
TEXT
  5
19A
100
AcDbEntity
  8
0
100
AcDbText
  6
BYLAYER
 10
197.77841370095
 20
32.2399819360484
 40
4
  1
､� ｴﾁ
  7
Font_0
100
AcDbText
  0
TEXT
  5
19B
100
AcDbEntity
  8
0
100
AcDbText
  6
BYLAYER
 10
215.423238216157
 20
32.0275605512105
 40
4
  1
ｭt
  7
Font_0
100
AcDbText
  0
TEXT
  5
19C
100
AcDbEntity
  8
0
100
AcDbText
  6
BYLAYER
 10
221.375709026727
 20
31.815139655317
 40
4
  1
ｳd
  7
Font_0
100
AcDbText
  0
TEXT
  5
19D
100
AcDbEntity
  8
0
100
AcDbText
  6
BYLAYER
 10
227.328179837297
 20
31.815139655317
 40
4
  1
､H
  7
Font_0
100
AcDbText
  0
TEXT
  5
19E
100
AcDbEntity
  8
0
100
AcDbText
  6
BYLAYER
 10
239.020533541933
 20
32.0275605512105
 40
4
  1
ｧ�
  7
Font_0
100
AcDbText
  0
TEXT
  5
19F
100
AcDbEntity
  8
0
100
AcDbText
  6
BYLAYER
 10
251.98841615305
 20
32.0275605512105
 40
4
  1
ｧ�
  7
Font_0
100
AcDbText
  0
TEXT
  5
1A0
100
AcDbEntity
  8
0
100
AcDbText
  6
BYLAYER
 10
264.531122227431
 20
32.0275605512105
 40
4
  1
､ｺ
  7
Font_0
100
AcDbText
  0
TEXT
  5
1A1
100
AcDbEntity
  8
0
100
AcDbText
  6
BYLAYER
 10
276.436064552298
 20
31.815139655317
 40
4
  1
ｮe
  7
Font_0
100
AcDbText
  0
TEXT
  5
1A2
100
AcDbEntity
  8
0
100
AcDbText
  6
BYLAYER
 10
23.0468952754036
 20
24.3731292136772
 40
7
  1
ｫﾘｷﾔ､uｷ~ｪﾑ･ｳｭｭ､ｽ･q
  7
Font_0
100
AcDbText
  0
TEXT
  5
1A3
100
AcDbEntity
  8
0
100
AcDbText
  6
BYLAYER
 10
22.2780828500217
 20
15.9228468305838
 40
3
  1
CHIEN YU INDUSTRIAL CO.,LTD.
  7
Font_0
100
AcDbText
  0
CIRCLE
  5
1A4
100
AcDbEntity
  8
0
100
AcDbCircle
  6
BYLAYER
 10
11.1054905349494
 20
25.350263158651
 40
9.36463111331499
  0
CIRCLE
  5
1A5
100
AcDbEntity
  8
0
100
AcDbCircle
  6
BYLAYER
 10
11.1054905349494
 20
25.350263158651
 40
7.62237416200057
  0
ARC
  5
1A6
100
AcDbEntity
  8
0
100
AcDbCircle
  6
BYLAYER
 10
11.1054905349494
 20
25.350263158651
 40
4.41008790801462
100
AcDbArc
 50
90
 51
0
  0
LINE
  5
1A7
100
AcDbEntity
  8
0
100
AcDbLine
  6
BYLAYER
 10
11.1054905349494
 20
29.7603510666656
 11
16.2233703294355
 21
29.7603510666656
  0
LINE
  5
1A8
100
AcDbEntity
  8
0
100
AcDbLine
  6
BYLAYER
 10
15.515578442964
 20
25.350263158651
 11
16.4411524483498
 21
25.350263158651
  0
TEXT
  5
1A9
100
AcDbEntity
  8
0
100
AcDbText
  6
BYLAYER
 10
8.49210581170386
 20
22.8477388856442
 40
5
  1
Y
  7
Font_0
100
AcDbText
  0
ARC
  5
1AA
100
AcDbEntity
  8
0
100
AcDbCircle
  6
BYLAYER
 10
11.5745216067836
 20
33.8983997393573
 40
0.704372460813671
100
AcDbArc
 50
83.8529806316668
 51
239.250071636948
  0
ARC
  5
1AB
100
AcDbEntity
  8
0
100
AcDbCircle
  6
BYLAYER
 10
7.23761506796891
 20
32.9876821284788
 40
0.704372460813671
100
AcDbArc
 50
113.852980631667
 51
269.250071636948
  0
ARC
  5
1AC
100
AcDbEntity
  8
0
100
AcDbCircle
  6
BYLAYER
 10
3.93710263695578
 20
30.0305242723769
 40
0.704372460813671
100
AcDbArc
 50
143.852980631667
 51
299.250071636948
  0
ARC
  5
1AD
100
AcDbEntity
  8
0
100
AcDbCircle
  6
BYLAYER
 10
2.55735395424305
 20
25.8192942304852
 40
0.704372460813671
100
AcDbArc
 50
173.852980631667
 51
329.250071636948
  0
ARC
  5
1AE
100
AcDbEntity
  8
0
100
AcDbCircle
  6
BYLAYER
 10
3.46807156512152
 20
21.4823876916705
 40
0.704372460813671
100
AcDbArc
 50
203.852980631667
 51
359.250071636948
  0
ARC
  5
1AF
100
AcDbEntity
  8
0
100
AcDbCircle
  6
BYLAYER
 10
6.42522942122351
 20
18.1818752606574
 40
0.704372460813671
100
AcDbArc
 50
233.852980631667
 51
29.2500716369476
  0
ARC
  5
1B0
100
AcDbEntity
  8
0
100
AcDbCircle
  6
BYLAYER
 10
10.6364594631151
 20
16.8021265779447
 40
0.704372460813671
100
AcDbArc
 50
263.852980631667
 51
59.2500716369476
  0
ARC
  5
1B1
100
AcDbEntity
  8
0
100
AcDbCircle
  6
BYLAYER
 10
14.9733660019298
 20
17.7128441888231
 40
0.704372460813671
100
AcDbArc
 50
293.852980631667
 51
89.2500716369476
  0
ARC
  5
1B2
100
AcDbEntity
  8
0
100
AcDbCircle
  6
BYLAYER
 10
18.273878432943
 20
20.6700020449251
 40
0.704372460813671
100
AcDbArc
 50
323.852980631667
 51
119.250071636948
  0
ARC
  5
1B3
100
AcDbEntity
  8
0
100
AcDbCircle
  6
BYLAYER
 10
19.6536271156557
 20
24.8812320868167
 40
0.704372460813671
100
AcDbArc
 50
353.852980631667
 51
149.250071636948
  0
ARC
  5
1B4
100
AcDbEntity
  8
0
100
AcDbCircle
  6
BYLAYER
 10
18.7429095047772
 20
29.2181386256314
 40
0.704372460813671
100
AcDbArc
 50
23.8529806316668
 51
179.250071636948
  0
ARC
  5
1B5
100
AcDbEntity
  8
0
100
AcDbCircle
  6
BYLAYER
 10
15.7857516486752
 20
32.5186510566446
 40
0.704372460813671
100
AcDbArc
 50
53.8529806316668
 51
209.250071636948
  0
LINE
  5
1B6
100
AcDbEntity
  8
0
100
AcDbLine
  6
BYLAYER
 10
1
 20
201
 11
290
 21
201
  0
LINE
  5
1B7
100
AcDbEntity
  8
0
100
AcDbLine
  6
BYLAYER
 10
290
 20
201
 11
290
 21
1
  0
ENDBLK
  5
1B8
100
AcDbEntity
  8
0
 67
     1
100
AcDbBlockEnd
  0
BLOCK
  5
1B9
100
AcDbEntity
  8
0
100
AcDbBlockBegin
  2
A4
 70
    0
 10
0
 20
0
 30
0.0
  3
A4
  1

  0
TEXT
  5
1BA
100
AcDbEntity
  8
0
100
AcDbText
  6
BYLAYER
 10
121.243373757434
 20
22.64898098486
 40
4.8
  1
ｿ� ｪ｢ ｵo
  7
Font_0
100
AcDbText
  0
TEXT
  5
1BB
100
AcDbEntity
  8
0
100
AcDbText
  6
BYLAYER
 10
175.643149157513
 20
16.5268633951276
 40
4.8
  1
M/M
  7
Font_0
100
AcDbText
  0
INSERT
  5
1BC
100
AcDbEntity
  8
0
100
AcDbBlockReference
  6
CONTINUOUS
  2
0
 10
2.77414193339833
 20
3.05830958210858
 30
0.0
  0
ENDBLK
  5
1BD
100
AcDbEntity
  8
0
 67
     1
100
AcDbBlockEnd
  0
BLOCK
  5
1BE
100
AcDbEntity
  8
0
100
AcDbBlockBegin
  2
NOTE
 70
    0
 10
0
 20
0
 30
0.0
  3
NOTE
  1

  0
LINE
  5
1BF
100
AcDbEntity
  8
0
100
AcDbLine
  6
BYLAYER
 10
0
 20
48
 11
244.5
 21
48
  0
LINE
  5
1C0
100
AcDbEntity
  8
0
100
AcDbLine
  6
BYLAYER
 10
0
 20
42
 11
244.5
 21
42
  0
LINE
  5
1C1
100
AcDbEntity
  8
0
100
AcDbLine
  6
BYLAYER
 10
0
 20
36
 11
244.5
 21
36
  0
LINE
  5
1C2
100
AcDbEntity
  8
0
100
AcDbLine
  6
BYLAYER
 10
0
 20
30
 11
244.5
 21
30
  0
LINE
  5
1C3
100
AcDbEntity
  8
0
100
AcDbLine
  6
BYLAYER
 10
0
 20
24
 11
244.5
 21
24
  0
LINE
  5
1C4
100
AcDbEntity
  8
0
100
AcDbLine
  6
BYLAYER
 10
0
 20
18
 11
244.5
 21
18
  0
LINE
  5
1C5
100
AcDbEntity
  8
0
100
AcDbLine
  6
BYLAYER
 10
0
 20
12
 11
244.5
 21
12
  0
LINE
  5
1C6
100
AcDbEntity
  8
0
100
AcDbLine
  6
BYLAYER
 10
0
 20
6
 11
244.5
 21
6
  0
LINE
  5
1C7
100
AcDbEntity
  8
0
100
AcDbLine
  6
BYLAYER
 62
3
 10
196.307106781187
 20
0.707106781186553
 11
211.192893218814
 21
0.707106781186553
  0
LINE
  5
1C8
100
AcDbEntity
  8
0
100
AcDbLine
  6
BYLAYER
 62
3
 10
196.307106781187
 20
6.70710678118655
 11
211.192893218814
 21
6.70710678118655
  0
LINE
  5
1C9
100
AcDbEntity
  8
0
100
AcDbLine
  6
BYLAYER
 62
3
 10
196.307106781187
 20
12.7071067811866
 11
211.192893218814
 21
12.7071067811866
  0
LINE
  5
1CA
100
AcDbEntity
  8
0
100
AcDbLine
  6
BYLAYER
 62
3
 10
196.307106781187
 20
18.7071067811866
 11
211.192893218814
 21
18.7071067811866
  0
LINE
  5
1CB
100
AcDbEntity
  8
0
100
AcDbLine
  6
BYLAYER
 62
3
 10
196.307106781187
 20
24.7071067811866
 11
211.192893218814
 21
24.7071067811866
  0
LINE
  5
1CC
100
AcDbEntity
  8
0
100
AcDbLine
  6
BYLAYER
 62
3
 10
196.307106781187
 20
30.7071067811865
 11
211.192893218814
 21
30.7071067811865
  0
LINE
  5
1CD
100
AcDbEntity
  8
0
100
AcDbLine
  6
BYLAYER
 62
3
 10
196.307106781187
 20
36.7071067811866
 11
211.192893218814
 21
36.7071067811866
  0
LINE
  5
1CE
100
AcDbEntity
  8
0
100
AcDbLine
  6
BYLAYER
 62
3
 10
65.9071067811866
 20
0.707106781186553
 11
80.7928932188135
 21
0.707106781186553
  0
LINE
  5
1CF
100
AcDbEntity
  8
0
100
AcDbLine
  6
BYLAYER
 62
3
 10
65.9071067811866
 20
6.70710678118655
 11
80.7928932188135
 21
6.70710678118655
  0
LINE
  5
1D0
100
AcDbEntity
  8
0
100
AcDbLine
  6
BYLAYER
 62
3
 10
65.9071067811866
 20
12.7071067811866
 11
80.7928932188135
 21
12.7071067811866
  0
LINE
  5
1D1
100
AcDbEntity
  8
0
100
AcDbLine
  6
BYLAYER
 62
3
 10
65.9071067811866
 20
18.7071067811866
 11
80.7928932188135
 21
18.7071067811866
  0
LINE
  5
1D2
100
AcDbEntity
  8
0
100
AcDbLine
  6
BYLAYER
 62
3
 10
65.9071067811866
 20
24.7071067811866
 11
80.7928932188135
 21
24.7071067811866
  0
LINE
  5
1D3
100
AcDbEntity
  8
0
100
AcDbLine
  6
BYLAYER
 62
3
 10
65.9071067811866
 20
30.7071067811865
 11
80.7928932188135
 21
30.7071067811865
  0
LINE
  5
1D4
100
AcDbEntity
  8
0
100
AcDbLine
  6
BYLAYER
 62
3
 10
65.9071067811866
 20
36.7071067811866
 11
80.7928932188135
 21
36.7071067811866
  0
LINE
  5
1D5
100
AcDbEntity
  8
0
100
AcDbLine
  6
BYLAYER
 10
65.2
 20
48
 11
65.2
 21
0
  0
LINE
  5
1D6
100
AcDbEntity
  8
0
100
AcDbLine
  6
BYLAYER
 10
32.6
 20
48
 11
32.6
 21
0
  0
LINE
  5
1D7
100
AcDbEntity
  8
0
100
AcDbLine
  6
BYLAYER
 10
16.3
 20
48
 11
16.3
 21
0
  0
LINE
  5
1D8
100
AcDbEntity
  8
0
100
AcDbLine
  6
BYLAYER
 10
48.9
 20
48
 11
48.9
 21
0
  0
LINE
  5
1D9
100
AcDbEntity
  8
0
100
AcDbLine
  6
BYLAYER
 62
3
 10
0.707106781186548
 20
0.707106781186553
 11
15.5928932188134
 21
0.707106781186553
  0
LINE
  5
1DA
100
AcDbEntity
  8
0
100
AcDbLine
  6
BYLAYER
 62
3
 10
0.707106781186548
 20
6.70710678118655
 11
15.5928932188134
 21
6.70710678118655
  0
LINE
  5
1DB
100
AcDbEntity
  8
0
100
AcDbLine
  6
BYLAYER
 62
3
 10
0.707106781186548
 20
12.7071067811866
 11
15.5928932188134
 21
12.7071067811866
  0
LINE
  5
1DC
100
AcDbEntity
  8
0
100
AcDbLine
  6
BYLAYER
 62
3
 10
0.707106781186548
 20
18.7071067811866
 11
15.5928932188134
 21
18.7071067811866
  0
LINE
  5
1DD
100
AcDbEntity
  8
0
100
AcDbLine
  6
BYLAYER
 62
3
 10
33.3071067811865
 20
0.707106781186553
 11
48.1928932188135
 21
0.707106781186553
  0
LINE
  5
1DE
100
AcDbEntity
  8
0
100
AcDbLine
  6
BYLAYER
 62
3
 10
33.3071067811865
 20
6.70710678118655
 11
48.1928932188135
 21
6.70710678118655
  0
LINE
  5
1DF
100
AcDbEntity
  8
0
100
AcDbLine
  6
BYLAYER
 62
3
 10
33.3071067811865
 20
12.7071067811866
 11
48.1928932188135
 21
12.7071067811866
  0
LINE
  5
1E0
100
AcDbEntity
  8
0
100
AcDbLine
  6
BYLAYER
 62
3
 10
33.3071067811865
 20
18.7071067811866
 11
48.1928932188135
 21
18.7071067811866
  0
LINE
  5
1E1
100
AcDbEntity
  8
0
100
AcDbLine
  6
BYLAYER
 62
3
 10
17.0071067811865
 20
0.707106781186553
 11
31.8928932188135
 21
0.707106781186553
  0
LINE
  5
1E2
100
AcDbEntity
  8
0
100
AcDbLine
  6
BYLAYER
 62
3
 10
17.0071067811865
 20
6.70710678118655
 11
31.8928932188135
 21
6.70710678118655
  0
LINE
  5
1E3
100
AcDbEntity
  8
0
100
AcDbLine
  6
BYLAYER
 62
3
 10
17.0071067811865
 20
12.7071067811866
 11
31.8928932188135
 21
12.7071067811866
  0
LINE
  5
1E4
100
AcDbEntity
  8
0
100
AcDbLine
  6
BYLAYER
 62
3
 10
17.0071067811865
 20
18.7071067811866
 11
31.8928932188135
 21
18.7071067811866
  0
LINE
  5
1E5
100
AcDbEntity
  8
0
100
AcDbLine
  6
BYLAYER
 62
3
 10
49.6071067811866
 20
0.707106781186553
 11
64.4928932188135
 21
0.707106781186553
  0
LINE
  5
1E6
100
AcDbEntity
  8
0
100
AcDbLine
  6
BYLAYER
 62
3
 10
49.6071067811866
 20
6.70710678118655
 11
64.4928932188135
 21
6.70710678118655
  0
LINE
  5
1E7
100
AcDbEntity
  8
0
100
AcDbLine
  6
BYLAYER
 62
3
 10
49.6071067811866
 20
12.7071067811866
 11
64.4928932188135
 21
12.7071067811866
  0
LINE
  5
1E8
100
AcDbEntity
  8
0
100
AcDbLine
  6
BYLAYER
 62
3
 10
49.6071067811866
 20
18.7071067811866
 11
64.4928932188135
 21
18.7071067811866
  0
LINE
  5
1E9
100
AcDbEntity
  8
0
100
AcDbLine
  6
BYLAYER
 62
3
 10
0.707106781186548
 20
24.7071067811866
 11
15.5928932188134
 21
24.7071067811866
  0
LINE
  5
1EA
100
AcDbEntity
  8
0
100
AcDbLine
  6
BYLAYER
 62
3
 10
0.707106781186548
 20
30.7071067811865
 11
15.5928932188134
 21
30.7071067811865
  0
LINE
  5
1EB
100
AcDbEntity
  8
0
100
AcDbLine
  6
BYLAYER
 62
3
 10
0.707106781186548
 20
36.7071067811866
 11
15.5928932188134
 21
36.7071067811866
  0
TEXT
  5
1EC
100
AcDbEntity
  8
0
100
AcDbText
  6
BYLAYER
 10
5.67126064773777
 20
43.5
 40
3
  1
､u･O
  7
Font_0
100
AcDbText
  0
LINE
  5
1ED
100
AcDbEntity
  8
0
100
AcDbLine
  6
BYLAYER
 62
3
 10
33.3071067811865
 20
24.7071067811866
 11
48.1928932188135
 21
24.7071067811866
  0
LINE
  5
1EE
100
AcDbEntity
  8
0
100
AcDbLine
  6
BYLAYER
 62
3
 10
33.3071067811865
 20
30.7071067811865
 11
48.1928932188135
 21
30.7071067811865
  0
LINE
  5
1EF
100
AcDbEntity
  8
0
100
AcDbLine
  6
BYLAYER
 62
3
 10
33.3071067811865
 20
36.7071067811866
 11
48.1928932188135
 21
36.7071067811866
  0
LINE
  5
1F0
100
AcDbEntity
  8
0
100
AcDbLine
  6
BYLAYER
 62
3
 10
17.0071067811865
 20
24.7071067811866
 11
31.8928932188135
 21
24.7071067811866
  0
LINE
  5
1F1
100
AcDbEntity
  8
0
100
AcDbLine
  6
BYLAYER
 62
3
 10
17.0071067811865
 20
30.7071067811865
 11
31.8928932188135
 21
30.7071067811865
  0
LINE
  5
1F2
100
AcDbEntity
  8
0
100
AcDbLine
  6
BYLAYER
 62
3
 10
17.0071067811865
 20
36.7071067811866
 11
31.8928932188135
 21
36.7071067811866
  0
TEXT
  5
1F3
100
AcDbEntity
  8
0
100
AcDbText
  6
BYLAYER
 10
21.3781148184937
 20
43.5
 40
3
  1
ｽsｸｹ
  7
Font_0
100
AcDbText
  0
TEXT
  5
1F4
100
AcDbEntity
  8
0
100
AcDbText
  6
BYLAYER
 10
39.5
 20
43.5
 40
3
  1
A
  7
Font_0
100
AcDbText
  0
LINE
  5
1F5
100
AcDbEntity
  8
0
100
AcDbLine
  6
BYLAYER
 62
3
 10
49.6071067811866
 20
24.7071067811866
 11
64.4928932188135
 21
24.7071067811866
  0
LINE
  5
1F6
100
AcDbEntity
  8
0
100
AcDbLine
  6
BYLAYER
 62
3
 10
49.6071067811866
 20
30.7071067811865
 11
64.4928932188135
 21
30.7071067811865
  0
LINE
  5
1F7
100
AcDbEntity
  8
0
100
AcDbLine
  6
BYLAYER
 62
3
 10
49.6071067811866
 20
36.7071067811866
 11
64.4928932188135
 21
36.7071067811866
  0
TEXT
  5
1F8
100
AcDbEntity
  8
0
100
AcDbText
  6
BYLAYER
 10
56
 20
43.5
 40
3
  1
B
  7
Font_0
100
AcDbText
  0
TEXT
  5
1F9
100
AcDbEntity
  8
0
100
AcDbText
  6
BYLAYER
 10
72.5
 20
43.5
 40
3
  1
C
  7
Font_0
100
AcDbText
  0
LINE
  5
1FA
100
AcDbEntity
  8
0
100
AcDbLine
  6
BYLAYER
 10
163
 20
48
 11
163
 21
0
  0
LINE
  5
1FB
100
AcDbEntity
  8
0
100
AcDbLine
  6
BYLAYER
 10
146.7
 20
48
 11
146.7
 21
0
  0
LINE
  5
1FC
100
AcDbEntity
  8
0
100
AcDbLine
  6
BYLAYER
 10
179.3
 20
48
 11
179.3
 21
0
  0
LINE
  5
1FD
100
AcDbEntity
  8
0
100
AcDbLine
  6
BYLAYER
 10
195.6
 20
48
 11
195.6
 21
0
  0
LINE
  5
1FE
100
AcDbEntity
  8
0
100
AcDbLine
  6
BYLAYER
 10
81.5
 20
48
 11
81.5
 21
0
  0
LINE
  5
1FF
100
AcDbEntity
  8
0
100
AcDbLine
  6
BYLAYER
 10
114.1
 20
48
 11
114.1
 21
0
  0
LINE
  5
200
100
AcDbEntity
  8
0
100
AcDbLine
  6
BYLAYER
 10
97.8
 20
48
 11
97.8
 21
0
  0
LINE
  5
201
100
AcDbEntity
  8
0
100
AcDbLine
  6
BYLAYER
 10
130.4
 20
48
 11
130.4
 21
0
  0
LINE
  5
202
100
AcDbEntity
  8
0
100
AcDbLine
  6
BYLAYER
 62
3
 10
131.107106781186
 20
0.707106781186553
 11
145.992893218813
 21
0.707106781186553
  0
LINE
  5
203
100
AcDbEntity
  8
0
100
AcDbLine
  6
BYLAYER
 62
3
 10
131.107106781186
 20
6.70710678118655
 11
145.992893218813
 21
6.70710678118655
  0
LINE
  5
204
100
AcDbEntity
  8
0
100
AcDbLine
  6
BYLAYER
 62
3
 10
131.107106781186
 20
12.7071067811866
 11
145.992893218813
 21
12.7071067811866
  0
LINE
  5
205
100
AcDbEntity
  8
0
100
AcDbLine
  6
BYLAYER
 62
3
 10
131.107106781186
 20
18.7071067811866
 11
145.992893218813
 21
18.7071067811866
  0
LINE
  5
206
100
AcDbEntity
  8
0
100
AcDbLine
  6
BYLAYER
 62
3
 10
98.5071067811866
 20
0.707106781186553
 11
113.392893218813
 21
0.707106781186553
  0
LINE
  5
207
100
AcDbEntity
  8
0
100
AcDbLine
  6
BYLAYER
 62
3
 10
98.5071067811866
 20
6.70710678118655
 11
113.392893218813
 21
6.70710678118655
  0
LINE
  5
208
100
AcDbEntity
  8
0
100
AcDbLine
  6
BYLAYER
 62
3
 10
98.5071067811866
 20
12.7071067811866
 11
113.392893218813
 21
12.7071067811866
  0
LINE
  5
209
100
AcDbEntity
  8
0
100
AcDbLine
  6
BYLAYER
 62
3
 10
98.5071067811866
 20
18.7071067811866
 11
113.392893218813
 21
18.7071067811866
  0
LINE
  5
20A
100
AcDbEntity
  8
0
100
AcDbLine
  6
BYLAYER
 62
3
 10
82.2071067811865
 20
0.707106781186553
 11
97.0928932188135
 21
0.707106781186553
  0
LINE
  5
20B
100
AcDbEntity
  8
0
100
AcDbLine
  6
BYLAYER
 62
3
 10
82.2071067811865
 20
6.70710678118655
 11
97.0928932188135
 21
6.70710678118655
  0
LINE
  5
20C
100
AcDbEntity
  8
0
100
AcDbLine
  6
BYLAYER
 62
3
 10
82.2071067811865
 20
12.7071067811866
 11
97.0928932188135
 21
12.7071067811866
  0
LINE
  5
20D
100
AcDbEntity
  8
0
100
AcDbLine
  6
BYLAYER
 62
3
 10
82.2071067811865
 20
18.7071067811866
 11
97.0928932188135
 21
18.7071067811866
  0
LINE
  5
20E
100
AcDbEntity
  8
0
100
AcDbLine
  6
BYLAYER
 62
3
 10
114.807106781187
 20
0.707106781186553
 11
129.692893218813
 21
0.707106781186553
  0
LINE
  5
20F
100
AcDbEntity
  8
0
100
AcDbLine
  6
BYLAYER
 62
3
 10
114.807106781187
 20
6.70710678118655
 11
129.692893218813
 21
6.70710678118655
  0
LINE
  5
210
100
AcDbEntity
  8
0
100
AcDbLine
  6
BYLAYER
 62
3
 10
114.807106781187
 20
12.7071067811866
 11
129.692893218813
 21
12.7071067811866
  0
LINE
  5
211
100
AcDbEntity
  8
0
100
AcDbLine
  6
BYLAYER
 62
3
 10
114.807106781187
 20
18.7071067811866
 11
129.692893218813
 21
18.7071067811866
  0
LINE
  5
212
100
AcDbEntity
  8
0
100
AcDbLine
  6
BYLAYER
 62
3
 10
163.707106781186
 20
0.707106781186553
 11
178.592893218813
 21
0.707106781186553
  0
LINE
  5
213
100
AcDbEntity
  8
0
100
AcDbLine
  6
BYLAYER
 62
3
 10
163.707106781186
 20
6.70710678118655
 11
178.592893218813
 21
6.70710678118655
  0
LINE
  5
214
100
AcDbEntity
  8
0
100
AcDbLine
  6
BYLAYER
 62
3
 10
163.707106781186
 20
12.7071067811866
 11
178.592893218813
 21
12.7071067811866
  0
LINE
  5
215
100
AcDbEntity
  8
0
100
AcDbLine
  6
BYLAYER
 62
3
 10
163.707106781186
 20
18.7071067811866
 11
178.592893218813
 21
18.7071067811866
  0
LINE
  5
216
100
AcDbEntity
  8
0
100
AcDbLine
  6
BYLAYER
 62
3
 10
147.407106781187
 20
0.707106781186553
 11
162.292893218814
 21
0.707106781186553
  0
LINE
  5
217
100
AcDbEntity
  8
0
100
AcDbLine
  6
BYLAYER
 62
3
 10
147.407106781187
 20
6.70710678118655
 11
162.292893218814
 21
6.70710678118655
  0
LINE
  5
218
100
AcDbEntity
  8
0
100
AcDbLine
  6
BYLAYER
 62
3
 10
147.407106781187
 20
12.7071067811866
 11
162.292893218814
 21
12.7071067811866
  0
LINE
  5
219
100
AcDbEntity
  8
0
100
AcDbLine
  6
BYLAYER
 62
3
 10
147.407106781187
 20
18.7071067811866
 11
162.292893218814
 21
18.7071067811866
  0
LINE
  5
21A
100
AcDbEntity
  8
0
100
AcDbLine
  6
BYLAYER
 62
3
 10
180.007106781186
 20
0.707106781186553
 11
194.892893218813
 21
0.707106781186553
  0
LINE
  5
21B
100
AcDbEntity
  8
0
100
AcDbLine
  6
BYLAYER
 62
3
 10
180.007106781186
 20
6.70710678118655
 11
194.892893218813
 21
6.70710678118655
  0
LINE
  5
21C
100
AcDbEntity
  8
0
100
AcDbLine
  6
BYLAYER
 62
3
 10
180.007106781186
 20
12.7071067811866
 11
194.892893218813
 21
12.7071067811866
  0
LINE
  5
21D
100
AcDbEntity
  8
0
100
AcDbLine
  6
BYLAYER
 62
3
 10
180.007106781186
 20
18.7071067811866
 11
194.892893218813
 21
18.7071067811866
  0
LINE
  5
21E
100
AcDbEntity
  8
0
100
AcDbLine
  6
BYLAYER
 62
3
 10
131.107106781186
 20
24.7071067811866
 11
145.992893218813
 21
24.7071067811866
  0
LINE
  5
21F
100
AcDbEntity
  8
0
100
AcDbLine
  6
BYLAYER
 62
3
 10
131.107106781186
 20
30.7071067811865
 11
145.992893218813
 21
30.7071067811865
  0
LINE
  5
220
100
AcDbEntity
  8
0
100
AcDbLine
  6
BYLAYER
 62
3
 10
131.107106781186
 20
36.7071067811866
 11
145.992893218813
 21
36.7071067811866
  0
LINE
  5
221
100
AcDbEntity
  8
0
100
AcDbLine
  6
BYLAYER
 62
3
 10
98.5071067811866
 20
24.7071067811866
 11
113.392893218813
 21
24.7071067811866
  0
LINE
  5
222
100
AcDbEntity
  8
0
100
AcDbLine
  6
BYLAYER
 62
3
 10
98.5071067811866
 20
30.7071067811865
 11
113.392893218813
 21
30.7071067811865
  0
LINE
  5
223
100
AcDbEntity
  8
0
100
AcDbLine
  6
BYLAYER
 62
3
 10
98.5071067811866
 20
36.7071067811866
 11
113.392893218813
 21
36.7071067811866
  0
LINE
  5
224
100
AcDbEntity
  8
0
100
AcDbLine
  6
BYLAYER
 62
3
 10
82.2071067811865
 20
24.7071067811866
 11
97.0928932188135
 21
24.7071067811866
  0
LINE
  5
225
100
AcDbEntity
  8
0
100
AcDbLine
  6
BYLAYER
 62
3
 10
82.2071067811865
 20
30.7071067811865
 11
97.0928932188135
 21
30.7071067811865
  0
LINE
  5
226
100
AcDbEntity
  8
0
100
AcDbLine
  6
BYLAYER
 62
3
 10
82.2071067811865
 20
36.7071067811866
 11
97.0928932188135
 21
36.7071067811866
  0
TEXT
  5
227
100
AcDbEntity
  8
0
100
AcDbText
  6
BYLAYER
 10
89
 20
43.5
 40
3
  1
D
  7
Font_0
100
AcDbText
  0
TEXT
  5
228
100
AcDbEntity
  8
0
100
AcDbText
  6
BYLAYER
 10
105.3
 20
43.5
 40
3
  1
E
  7
Font_0
100
AcDbText
  0
LINE
  5
229
100
AcDbEntity
  8
0
100
AcDbLine
  6
BYLAYER
 62
3
 10
114.807106781187
 20
24.7071067811866
 11
129.692893218813
 21
24.7071067811866
  0
LINE
  5
22A
100
AcDbEntity
  8
0
100
AcDbLine
  6
BYLAYER
 62
3
 10
114.807106781187
 20
30.7071067811865
 11
129.692893218813
 21
30.7071067811865
  0
LINE
  5
22B
100
AcDbEntity
  8
0
100
AcDbLine
  6
BYLAYER
 62
3
 10
114.807106781187
 20
36.7071067811866
 11
129.692893218813
 21
36.7071067811866
  0
TEXT
  5
22C
100
AcDbEntity
  8
0
100
AcDbText
  6
BYLAYER
 10
121.8
 20
43.5
 40
3
  1
F
  7
Font_0
100
AcDbText
  0
TEXT
  5
22D
100
AcDbEntity
  8
0
100
AcDbText
  6
BYLAYER
 10
137.8
 20
43.5
 40
3
  1
G
  7
Font_0
100
AcDbText
  0
LINE
  5
22E
100
AcDbEntity
  8
0
100
AcDbLine
  6
BYLAYER
 62
3
 10
163.707106781186
 20
24.7071067811866
 11
178.592893218813
 21
24.7071067811866
  0
LINE
  5
22F
100
AcDbEntity
  8
0
100
AcDbLine
  6
BYLAYER
 62
3
 10
163.707106781186
 20
30.7071067811865
 11
178.592893218813
 21
30.7071067811865
  0
LINE
  5
230
100
AcDbEntity
  8
0
100
AcDbLine
  6
BYLAYER
 62
3
 10
163.707106781186
 20
36.7071067811866
 11
178.592893218813
 21
36.7071067811866
  0
LINE
  5
231
100
AcDbEntity
  8
0
100
AcDbLine
  6
BYLAYER
 62
3
 10
147.407106781187
 20
24.7071067811866
 11
162.292893218814
 21
24.7071067811866
  0
LINE
  5
232
100
AcDbEntity
  8
0
100
AcDbLine
  6
BYLAYER
 62
3
 10
147.407106781187
 20
30.7071067811865
 11
162.292893218814
 21
30.7071067811865
  0
LINE
  5
233
100
AcDbEntity
  8
0
100
AcDbLine
  6
BYLAYER
 62
3
 10
147.407106781187
 20
36.7071067811866
 11
162.292893218814
 21
36.7071067811866
  0
TEXT
  5
234
100
AcDbEntity
  8
0
100
AcDbText
  6
BYLAYER
 10
153.5
 20
43.5
 40
3
  1
H
  7
Font_0
100
AcDbText
  0
TEXT
  5
235
100
AcDbEntity
  8
0
100
AcDbText
  6
BYLAYER
 10
171.5
 20
43.5
 40
3
  1
I
  7
Font_0
100
AcDbText
  0
LINE
  5
236
100
AcDbEntity
  8
0
100
AcDbLine
  6
BYLAYER
 62
3
 10
180.007106781186
 20
24.7071067811866
 11
194.892893218813
 21
24.7071067811866
  0
LINE
  5
237
100
AcDbEntity
  8
0
100
AcDbLine
  6
BYLAYER
 62
3
 10
180.007106781186
 20
30.7071067811865
 11
194.892893218813
 21
30.7071067811865
  0
LINE
  5
238
100
AcDbEntity
  8
0
100
AcDbLine
  6
BYLAYER
 62
3
 10
180.007106781186
 20
36.7071067811866
 11
194.892893218813
 21
36.7071067811866
  0
TEXT
  5
239
100
AcDbEntity
  8
0
100
AcDbText
  6
BYLAYER
 10
186.6
 20
43.5
 40
3
  1
J
  7
Font_0
100
AcDbText
  0
TEXT
  5
23A
100
AcDbEntity
  8
0
100
AcDbText
  6
BYLAYER
 10
202.5
 20
43.5
 40
3
  1
K
  7
Font_0
100
AcDbText
  0
LINE
  5
23B
100
AcDbEntity
  8
0
100
AcDbLine
  6
BYLAYER
 10
244.5
 20
48
 11
244.5
 21
0
  0
LINE
  5
23C
100
AcDbEntity
  8
0
100
AcDbLine
  6
BYLAYER
 10
211.9
 20
48
 11
211.9
 21
0
  0
LINE
  5
23D
100
AcDbEntity
  8
0
100
AcDbLine
  6
BYLAYER
 10
228.2
 20
48
 11
228.2
 21
0
  0
LINE
  5
23E
100
AcDbEntity
  8
0
100
AcDbLine
  6
BYLAYER
 62
3
 10
228.907106781187
 20
0.707106781186553
 11
243.792893218814
 21
0.707106781186553
  0
LINE
  5
23F
100
AcDbEntity
  8
0
100
AcDbLine
  6
BYLAYER
 62
3
 10
228.907106781187
 20
6.70710678118655
 11
243.792893218814
 21
6.70710678118655
  0
LINE
  5
240
100
AcDbEntity
  8
0
100
AcDbLine
  6
BYLAYER
 62
3
 10
228.907106781187
 20
12.7071067811866
 11
243.792893218814
 21
12.7071067811866
  0
LINE
  5
241
100
AcDbEntity
  8
0
100
AcDbLine
  6
BYLAYER
 62
3
 10
228.907106781187
 20
18.7071067811866
 11
243.792893218814
 21
18.7071067811866
  0
LINE
  5
242
100
AcDbEntity
  8
0
100
AcDbLine
  6
BYLAYER
 62
3
 10
212.607106781186
 20
0.707106781186553
 11
227.492893218814
 21
0.707106781186553
  0
LINE
  5
243
100
AcDbEntity
  8
0
100
AcDbLine
  6
BYLAYER
 62
3
 10
212.607106781186
 20
6.70710678118655
 11
227.492893218814
 21
6.70710678118655
  0
LINE
  5
244
100
AcDbEntity
  8
0
100
AcDbLine
  6
BYLAYER
 62
3
 10
212.607106781186
 20
12.7071067811866
 11
227.492893218814
 21
12.7071067811866
  0
LINE
  5
245
100
AcDbEntity
  8
0
100
AcDbLine
  6
BYLAYER
 62
3
 10
212.607106781186
 20
18.7071067811866
 11
227.492893218814
 21
18.7071067811866
  0
LINE
  5
246
100
AcDbEntity
  8
0
100
AcDbLine
  6
BYLAYER
 62
3
 10
228.907106781187
 20
24.7071067811866
 11
243.792893218814
 21
24.7071067811866
  0
LINE
  5
247
100
AcDbEntity
  8
0
100
AcDbLine
  6
BYLAYER
 62
3
 10
228.907106781187
 20
30.7071067811865
 11
243.792893218814
 21
30.7071067811865
  0
LINE
  5
248
100
AcDbEntity
  8
0
100
AcDbLine
  6
BYLAYER
 62
3
 10
228.907106781187
 20
36.7071067811866
 11
243.792893218814
 21
36.7071067811866
  0
LINE
  5
249
100
AcDbEntity
  8
0
100
AcDbLine
  6
BYLAYER
 62
3
 10
212.607106781186
 20
24.7071067811866
 11
227.492893218814
 21
24.7071067811866
  0
LINE
  5
24A
100
AcDbEntity
  8
0
100
AcDbLine
  6
BYLAYER
 62
3
 10
212.607106781186
 20
30.7071067811865
 11
227.492893218814
 21
30.7071067811865
  0
LINE
  5
24B
100
AcDbEntity
  8
0
100
AcDbLine
  6
BYLAYER
 62
3
 10
212.607106781186
 20
36.7071067811866
 11
227.492893218814
 21
36.7071067811866
  0
TEXT
  5
24C
100
AcDbEntity
  8
0
100
AcDbText
  6
BYLAYER
 10
219
 20
43.5
 40
3
  1
L
  7
Font_0
100
AcDbText
  0
TEXT
  5
24D
100
AcDbEntity
  8
0
100
AcDbText
  6
BYLAYER
 10
233.270544856686
 20
43.5
 40
3
  1
ｫﾈ､�
  7
Font_0
100
AcDbText
  0
ENDBLK
  5
24E
100
AcDbEntity
  8
0
 67
     1
100
AcDbBlockEnd
  0
BLOCK
  5
24F
100
AcDbEntity
  8
0
100
AcDbBlockBegin
  2
BASE
 70
    0
 10
0
 20
0
 30
0.0
  3
BASE
  1

  0
LINE
  5
250
100
AcDbEntity
  8
0
100
AcDbLine
  6
BYLAYER
 10
0
 20
36
 11
278.4
 21
36
  0
LINE
  5
251
100
AcDbEntity
  8
0
100
AcDbLine
  6
BYLAYER
 10
0
 20
12
 11
278.4
 21
12
  0
LINE
  5
252
100
AcDbEntity
  8
0
100
AcDbLine
  6
BYLAYER
 10
0
 20
6
 11
278.4
 21
6
  0
LINE
  5
253
100
AcDbEntity
  8
0
100
AcDbLine
  6
BYLAYER
 10
0
 20
0
 11
278.4
 21
0
  0
LINE
  5
254
100
AcDbEntity
  8
0
100
AcDbLine
  6
BYLAYER
 10
278.4
 20
186
 11
0
 21
186
  0
LINE
  5
255
100
AcDbEntity
  8
0
100
AcDbLine
  6
BYLAYER
 10
96.85
 20
30
 11
278.4
 21
30
  0
LINE
  5
256
100
AcDbEntity
  8
0
100
AcDbLine
  6
BYLAYER
 10
96.85
 20
24
 11
278.4
 21
24
  0
LINE
  5
257
100
AcDbEntity
  8
0
100
AcDbLine
  6
BYLAYER
 10
96.85
 20
18
 11
278.4
 21
18
  0
LINE
  5
258
100
AcDbEntity
  8
0
100
AcDbLine
  6
BYLAYER
 10
0
 20
0
 11
0
 21
186
  0
TEXT
  5
259
100
AcDbEntity
  8
0
100
AcDbText
  6
BYLAYER
 10
22.1680110084321
 20
15.7553550725962
 40
2.8
  1
CAM YORK INDUSTRIAL CO.,LTD.
  7
Font_0
100
AcDbText
  0
TEXT
  5
25A
100
AcDbEntity
  8
0
100
AcDbText
  6
BYLAYER
 10
22.0468952754036
 20
26
 40
7
  1
ｫﾘｷﾔ､uｷ~ｪﾑ･ｳｭｭ､ｽ･q
  7
Font_0
100
AcDbText
  0
TEXT
  5
25B
100
AcDbEntity
  8
0
100
AcDbText
  6
BYLAYER
 10
63.8643398403977
 20
7.09411371042404
 40
2.8
  1
(04)3322629
  7
Font_0
100
AcDbText
  0
LINE
  5
25C
100
AcDbEntity
  8
0
100
AcDbLine
  6
BYLAYER
 10
10.1054905349494
 20
28.7603510666656
 11
15.2233703294355
 21
28.7603510666656
  0
CIRCLE
  5
25D
100
AcDbEntity
  8
0
100
AcDbCircle
  6
BYLAYER
 10
10.1054905349494
 20
24.350263158651
 40
9.36463111331499
  0
CIRCLE
  5
25E
100
AcDbEntity
  8
0
100
AcDbCircle
  6
BYLAYER
 10
10.1054905349494
 20
24.350263158651
 40
7.62237416200057
  0
ARC
  5
25F
100
AcDbEntity
  8
0
100
AcDbCircle
  6
BYLAYER
 10
10.1054905349494
 20
24.350263158651
 40
4.41008790801462
100
AcDbArc
 50
90
 51
0
  0
LINE
  5
260
100
AcDbEntity
  8
0
100
AcDbLine
  6
BYLAYER
 10
13
 20
12
 11
13
 21
0
  0
TEXT
  5
261
100
AcDbEntity
  8
0
100
AcDbText
  6
BYLAYER
 10
2.6
 20
7.3
 40
3
  1
TEL
  7
Font_0
100
AcDbText
  0
TEXT
  5
262
100
AcDbEntity
  8
0
100
AcDbText
  6
BYLAYER
 10
3.5
 20
1.5
 40
3
  1
ｳﾆｵ�
  7
Font_0
 72
1
 11
6.5
 21
3
100
AcDbText
 73
2
  0
ARC
  5
263
100
AcDbEntity
  8
0
100
AcDbCircle
  6
BYLAYER
 10
10.5745216067836
 20
32.8983997393573
 40
0.704372460813671
100
AcDbArc
 50
83.8529806316668
 51
239.250071636948
  0
ARC
  5
264
100
AcDbEntity
  8
0
100
AcDbCircle
  6
BYLAYER
 10
6.23761506796892
 20
31.9876821284788
 40
0.704372460813671
100
AcDbArc
 50
113.852980631667
 51
269.250071636948
  0
ARC
  5
265
100
AcDbEntity
  8
0
100
AcDbCircle
  6
BYLAYER
 10
2.46807156512152
 20
20.4823876916705
 40
0.704372460813671
100
AcDbArc
 50
203.852980631667
 51
359.250071636948
  0
ARC
  5
266
100
AcDbEntity
  8
0
100
AcDbCircle
  6
BYLAYER
 10
9.63645946311512
 20
15.8021265779447
 40
0.704372460813671
100
AcDbArc
 50
263.852980631667
 51
59.2500716369476
  0
ARC
  5
267
100
AcDbEntity
  8
0
100
AcDbCircle
  6
BYLAYER
 10
5.4252294212235
 20
17.1818752606574
 40
0.704372460813671
100
AcDbArc
 50
233.852980631667
 51
29.2500716369476
  0
ARC
  5
268
100
AcDbEntity
  8
0
100
AcDbCircle
  6
BYLAYER
 10
1.55735395424306
 20
24.8192942304852
 40
0.704372460813671
100
AcDbArc
 50
173.852980631667
 51
329.250071636948
  0
ARC
  5
269
100
AcDbEntity
  8
0
100
AcDbCircle
  6
BYLAYER
 10
2.93710263695578
 20
29.0305242723768
 40
0.704372460813671
100
AcDbArc
 50
143.852980631667
 51
299.250071636948
  0
TEXT
  5
26A
100
AcDbEntity
  8
0
100
AcDbText
  6
BYLAYER
 10
7.49210581170385
 20
21.8477388856442
 40
5
  1
Y
  7
Font_0
100
AcDbText
  0
TEXT
  5
26B
100
AcDbEntity
  8
0
100
AcDbText
  6
BYLAYER
 10
42.3478047909238
 20
7.2
 40
2.8
  1
~8
  7
Font_0
100
AcDbText
  0
TEXT
  5
26C
100
AcDbEntity
  8
0
100
AcDbText
  6
BYLAYER
 10
13.8764304985659
 20
7.2
 40
2.8
  1
(04)3322627
  7
Font_0
100
AcDbText
  0
TEXT
  5
26D
100
AcDbEntity
  8
0
100
AcDbText
  6
BYLAYER
 10
51
 20
7.2
 40
3
  1
FAX
  7
Font_0
100
AcDbText
  0
LINE
  5
26E
100
AcDbEntity
  8
0
100
AcDbLine
  6
BYLAYER
 10
48
 20
12
 11
48
 21
6
  0
LINE
  5
26F
100
AcDbEntity
  8
0
100
AcDbLine
  6
BYLAYER
 10
62
 20
12
 11
62
 21
6
  0
ARC
  5
270
100
AcDbEntity
  8
0
100
AcDbCircle
  6
BYLAYER
 10
14.7857516486752
 20
31.5186510566446
 40
0.704372460813671
100
AcDbArc
 50
53.8529806316668
 51
209.250071636948
  0
ARC
  5
271
100
AcDbEntity
  8
0
100
AcDbCircle
  6
BYLAYER
 10
17.273878432943
 20
19.6700020449251
 40
0.704372460813671
100
AcDbArc
 50
323.852980631667
 51
119.250071636948
  0
ARC
  5
272
100
AcDbEntity
  8
0
100
AcDbCircle
  6
BYLAYER
 10
13.9733660019298
 20
16.7128441888231
 40
0.704372460813671
100
AcDbArc
 50
293.852980631667
 51
89.2500716369476
  0
LINE
  5
273
100
AcDbEntity
  8
0
100
AcDbLine
  6
BYLAYER
 10
14.515578442964
 20
24.350263158651
 11
15.4411524483498
 21
24.350263158651
  0
ARC
  5
274
100
AcDbEntity
  8
0
100
AcDbCircle
  6
BYLAYER
 10
18.6536271156557
 20
23.8812320868167
 40
0.704372460813671
100
AcDbArc
 50
353.852980631667
 51
149.250071636948
  0
ARC
  5
275
100
AcDbEntity
  8
0
100
AcDbCircle
  6
BYLAYER
 10
17.7429095047772
 20
28.2181386256314
 40
0.704372460813671
100
AcDbArc
 50
23.8529806316668
 51
179.250071636948
  0
TEXT
  5
276
100
AcDbEntity
  8
0
100
AcDbText
  6
BYLAYER
 10
100.4
 20
7.4
 40
3
  1
ｫ~ ｦW
  7
Font_0
100
AcDbText
  0
LINE
  5
277
100
AcDbEntity
  8
0
100
AcDbLine
  6
BYLAYER
 10
144
 20
36
 11
144
 21
0
  0
LINE
  5
278
100
AcDbEntity
  8
0
100
AcDbLine
  6
BYLAYER
 10
114
 20
36
 11
114
 21
0
  0
LINE
  5
279
100
AcDbEntity
  8
0
100
AcDbLine
  6
BYLAYER
 10
97.15
 20
36
 11
97.15
 21
0
  0
LINE
  5
27A
100
AcDbEntity
  8
0
100
AcDbLine
  6
BYLAYER
 10
96.85
 20
36
 11
96.85
 21
0
  0
TEXT
  5
27B
100
AcDbEntity
  8
0
100
AcDbText
  6
BYLAYER
 10
100.4
 20
1.6
 40
3
  1
ｹﾏ ｸｹ
  7
Font_0
100
AcDbText
  0
TEXT
  5
27C
100
AcDbEntity
  8
0
100
AcDbText
  6
BYLAYER
 10
100.4
 20
31.6
 40
3
  1
･D ｺﾞ
  7
Font_0
100
AcDbText
  0
TEXT
  5
27D
100
AcDbEntity
  8
0
100
AcDbText
  6
BYLAYER
 10
100.4
 20
19.6
 40
3
  1
ﾃｸ ｹﾏ
  7
Font_0
100
AcDbText
  0
TEXT
  5
27E
100
AcDbEntity
  8
0
100
AcDbText
  6
BYLAYER
 10
100.4
 20
13.8
 40
3
  1
ｾ� ｺﾘ
  7
Font_0
100
AcDbText
  0
TEXT
  5
27F
100
AcDbEntity
  8
0
100
AcDbText
  6
BYLAYER
 10
100.4
 20
25.4
 40
3
  1
ｮﾖ ｹ�
  7
Font_0
100
AcDbText
  0
LINE
  5
280
100
AcDbEntity
  8
0
100
AcDbLine
  6
BYLAYER
 10
195.15
 20
36
 11
195.15
 21
0
  0
LINE
  5
281
100
AcDbEntity
  8
0
100
AcDbLine
  6
BYLAYER
 10
194.85
 20
36
 11
194.85
 21
0
  0
LINE
  5
282
100
AcDbEntity
  8
0
100
AcDbLine
  6
BYLAYER
 10
195.025
 20
36
 11
195.025
 21
0
  0
LINE
  5
283
100
AcDbEntity
  8
0
100
AcDbLine
  6
BYLAYER
 10
163
 20
36
 11
163
 21
0
  0
TEXT
  5
284
100
AcDbEntity
  8
0
100
AcDbText
  6
BYLAYER
 10
146.967830348543
 20
7.5
 40
3
  1
ｪ揵ｱｳBｲz
  7
Font_0
100
AcDbText
  0
TEXT
  5
285
100
AcDbEntity
  8
0
100
AcDbText
  6
BYLAYER
 10
146.967830348543
 20
1.5
 40
3
  1
ｻsｹﾏ､魘ﾁ
  7
Font_0
100
AcDbText
  0
TEXT
  5
286
100
AcDbEntity
  8
0
100
AcDbText
  6
BYLAYER
 10
148.5
 20
31.5
 40
3
  1
ｧ� ｽ�
  7
Font_0
100
AcDbText
  0
TEXT
  5
287
100
AcDbEntity
  8
0
100
AcDbText
  6
BYLAYER
 10
148.5
 20
19.5
 40
3
  1
ｼﾆ ｶq
  7
Font_0
100
AcDbText
  0
TEXT
  5
288
100
AcDbEntity
  8
0
100
AcDbText
  6
BYLAYER
 10
148.5
 20
13.5
 40
3
  1
ｳ� ｦ�
  7
Font_0
100
AcDbText
  0
TEXT
  5
289
100
AcDbEntity
  8
0
100
AcDbText
  6
BYLAYER
 10
148.5
 20
25.5
 40
3
  1
､� ｨﾒ
  7
Font_0
100
AcDbText
  0
TEXT
  5
28A
100
AcDbEntity
  8
0
100
AcDbText
  6
BYLAYER
 10
200.830454348633
 20
31.5
 40
3
  1
､魘ﾁ
  7
Font_0
100
AcDbText
  0
LINE
  5
28B
100
AcDbEntity
  8
0
100
AcDbLine
  6
BYLAYER
 10
278.4
 20
186
 11
278.4
 21
0
  0
LINE
  5
28C
100
AcDbEntity
  8
0
100
AcDbLine
  6
BYLAYER
 10
269.7178125
 20
135.285
 11
269.7178125
 21
151.27125
  0
LINE
  5
28D
100
AcDbEntity
  8
0
100
AcDbLine
  6
BYLAYER
 10
261.035625
 20
135.285
 11
261.035625
 21
151.27125
  0
LINE
  5
28E
100
AcDbEntity
  8
0
100
AcDbLine
  6
BYLAYER
 10
252.3534375
 20
135.285
 11
252.3534375
 21
151.27125
  0
LINE
  5
28F
100
AcDbEntity
  8
0
100
AcDbLine
  6
BYLAYER
 10
243.67125
 20
135.285
 11
243.67125
 21
180.4875
  0
LINE
  5
290
100
AcDbEntity
  8
0
100
AcDbLine
  6
BYLAYER
 10
221.07
 20
135.285
 11
221.07
 21
180.4875
  0
LINE
  5
291
100
AcDbEntity
  8
0
100
AcDbLine
  6
BYLAYER
 10
216.66
 20
135.285
 11
216.66
 21
186
  0
LINE
  5
292
100
AcDbEntity
  8
0
100
AcDbLine
  6
BYLAYER
 10
213
 20
36
 11
213
 21
0
  0
LINE
  5
293
100
AcDbEntity
  8
0
100
AcDbLine
  6
BYLAYER
 10
232
 20
36
 11
232
 21
0
  0
TEXT
  5
294
100
AcDbEntity
  8
0
100
AcDbText
  6
BYLAYER
 10
235
 20
31.5
 40
3
  1
ｧ�   ｧ�   ､ｺ   ｮe
  7
Font_0
100
AcDbText
  0
TEXT
  5
295
100
AcDbEntity
  8
0
100
AcDbText
  6
BYLAYER
 10
218.659856969007
 20
31.5
 40
3
  1
ｭtｳd､H
  7
Font_0
100
AcDbText
  0
LINE
  5
296
100
AcDbEntity
  8
0
100
AcDbLine
  6
BYLAYER
 10
278.4
 20
139.695
 11
221.07
 21
139.695
  0
LINE
  5
297
100
AcDbEntity
  8
0
100
AcDbLine
  6
BYLAYER
 10
278.4
 20
135.285
 11
216.66
 21
135.285
  0
TEXT
  5
298
100
AcDbEntity
  8
0
100
AcDbText
  6
BYLAYER
 10
246.15416478566
 20
128.207003496756
 40
2
  1
projection ｲﾄ､Tｨ､ｧ�ｼv
  7
Font_0
100
AcDbText
  0
LINE
  5
299
100
AcDbEntity
  8
0
100
AcDbLine
  6
BYLAYER
 10
278.4
 20
113.78625
 11
243.67125
 21
113.78625
  0
TEXT
  5
29A
100
AcDbEntity
  8
0
100
AcDbText
  6
BYLAYER
 10
271.4339125
 20
144.733125
 40
1.5
  1
100･H､W
  7
Font_0
 72
1
 11
274.0589125
 21
145.483125
100
AcDbText
 73
2
  0
TEXT
  5
29B
100
AcDbEntity
  8
0
100
AcDbText
  6
BYLAYER
 10
272.1839125
 20
136.74
 40
1.5
  1
±10'
  7
Font_0
 72
1
 11
274.0589125
 21
137.49
100
AcDbText
 73
2
  0
MTEXT
  5
29C
100
AcDbEntity
  8
0
100
AcDbMText
 10
232.37065
 20
145.483125
 40
2
 41
  0.0
  1
､ｽｺﾙ､ﾘ､o (ｪﾗ)\Pｧｨｦｨｨ､､ｧｵuﾃ荀@､�
 71
5
  7
Font_0
  0
TEXT
  5
29D
100
AcDbEntity
  8
0
100
AcDbText
  6
BYLAYER
 10
217.365
 20
147.778125
 40
3
  1
ｪｽｨ､ｫﾗ
  7
Font_1
 50
270
 11
218.865
 21
147.778125
100
AcDbText
 73
2
  0
TEXT
  5
29E
100
AcDbEntity
  8
0
100
AcDbText
  6
BYLAYER
 10
227.87065
 20
135.99
 40
3
  1
ｨ､ｫﾗｮt
  7
Font_0
 72
1
 11
232.37065
 21
137.49
100
AcDbText
 73
2
  0
LINE
  5
29F
100
AcDbEntity
  8
0
100
AcDbLine
  6
BYLAYER
 10
254.802068029839
 20
115.173423624616
 11
254.802068029839
 21
126.198423624616
  0
LINE
  5
2A0
100
AcDbEntity
  8
0
100
AcDbLine
  6
BYLAYER
 10
243.67125
 20
113.78625
 11
243.67125
 21
135.285
  0
CIRCLE
  5
2A1
100
AcDbEntity
  8
0
100
AcDbCircle
  6
BYLAYER
 10
254.802068029839
 20
120.685923624616
 40
4.41
  0
LINE
  5
2A2
100
AcDbEntity
  8
0
100
AcDbLine
  6
BYLAYER
 10
249.289568029839
 20
120.685923624616
 11
260.314568029839
 21
120.685923624616
  0
CIRCLE
  5
2A3
100
AcDbEntity
  8
0
100
AcDbCircle
  6
BYLAYER
 10
254.802068029839
 20
120.685923624616
 40
2.205
  0
LINE
  5
2A4
100
AcDbEntity
  8
0
100
AcDbLine
  6
BYLAYER
 10
263.194180551461
 20
120.685923624616
 11
274.770430551461
 21
120.685923624616
  0
LWPOLYLINE
  5
2A5
100
AcDbEntity
  8
0
100
AcDbPolyline
  6
BYLAYER
370
0
 90
     4
 70
     1
 10
264.296680551461
  20
118.480923624616
 10
273.667930551461
  20
116.275923624616
 10
273.667930551461
  20
125.095923624616
 10
264.296680551461
  20
122.890923624616
  0
TEXT
  5
2A6
100
AcDbEntity
  8
0
100
AcDbText
  6
BYLAYER
 10
245.828721587618
 20
131.605971951227
 40
2
  1
Third angle
  7
Font_0
100
AcDbText
  0
MTEXT
  5
2A7
100
AcDbEntity
  8
0
100
AcDbMText
 10
256.6945375
 20
145.483125
 40
1.5
 41
  0.0
  1
10･H､W\P50･H､U
 71
5
  7
Font_0
  0
TEXT
  5
2A8
100
AcDbEntity
  8
0
100
AcDbText
  6
BYLAYER
 10
246.13735
 20
136.74
 40
1.5
  1
±1°
  7
Font_0
 72
1
 11
248.01235
 21
137.49
100
AcDbText
 73
2
  0
TEXT
  5
2A9
100
AcDbEntity
  8
0
100
AcDbText
  6
BYLAYER
 10
254.8195375
 20
136.74
 40
1.5
  1
±30'
  7
Font_0
 72
1
 11
256.6945375
 21
137.49
100
AcDbText
 73
2
  0
TEXT
  5
2AA
100
AcDbEntity
  8
0
100
AcDbText
  6
BYLAYER
 10
245.76235
 20
144.733125
 40
1.5
  1
10･H､U
  7
Font_0
 72
1
 11
248.01235
 21
145.483125
100
AcDbText
 73
2
  0
TEXT
  5
2AB
100
AcDbEntity
  8
0
100
AcDbText
  6
BYLAYER
 10
263.501725
 20
136.74
 40
1.5
  1
±20'
  7
Font_0
 72
1
 11
265.376725
 21
137.49
100
AcDbText
 73
2
  0
MTEXT
  5
2AC
100
AcDbEntity
  8
0
100
AcDbMText
 10
265.376725
 20
145.483125
 40
1.5
 41
  0.0
  1
50･H､W\P100･H､U
 71
5
  7
Font_0
  0
LINE
  5
2AD
100
AcDbEntity
  8
0
100
AcDbLine
  6
BYLAYER
 10
221.07
 20
155.68125
 11
278.4
 21
155.68125
  0
LINE
  5
2AE
100
AcDbEntity
  8
0
100
AcDbLine
  6
BYLAYER
 10
221.07
 20
160.09125
 11
278.4
 21
160.09125
  0
LINE
  5
2AF
100
AcDbEntity
  8
0
100
AcDbLine
  6
BYLAYER
 10
221.07
 20
164.50125
 11
278.4
 21
164.50125
  0
LINE
  5
2B0
100
AcDbEntity
  8
0
100
AcDbLine
  6
BYLAYER
 10
221.07
 20
168.91125
 11
278.4
 21
168.91125
  0
LINE
  5
2B1
100
AcDbEntity
  8
0
100
AcDbLine
  6
BYLAYER
 10
221.07
 20
173.32125
 11
278.4
 21
173.32125
  0
LINE
  5
2B2
100
AcDbEntity
  8
0
100
AcDbLine
  6
BYLAYER
 10
216.66
 20
151.27125
 11
278.4
 21
151.27125
  0
LINE
  5
2B3
100
AcDbEntity
  8
0
100
AcDbLine
  6
BYLAYER
 10
216.66
 20
180.4875
 11
278.4
 21
180.4875
  0
TEXT
  5
2B4
100
AcDbEntity
  8
0
100
AcDbText
  6
BYLAYER
 10
269.1119
 20
175.154375
 40
3.5
  1
ｲﾊｯﾅ
  7
Font_0
 72
1
 11
272.6119
 21
176.904375
100
AcDbText
 73
2
  0
LINE
  5
2B5
100
AcDbEntity
  8
0
100
AcDbLine
  6
BYLAYER
 10
243.67125
 20
173.32125
 11
232.06971689676
 21
180.4875
  0
TEXT
  5
2B6
100
AcDbEntity
  8
0
100
AcDbText
  6
BYLAYER
 10
230.03
 20
181.49375
 40
3.5
  1
ｦｨ ｫ~ ､ｧ ｴｶ ｳq ､ｽ ｮt
  7
Font_0
 72
1
 11
247.53
 21
183.24375
100
AcDbText
 73
2
  0
TEXT
  5
2B7
100
AcDbEntity
  8
0
100
AcDbText
  6
BYLAYER
 10
228.24565
 20
170.36625
 40
1.5
  1
1･H､W~4･H､U
  7
Font_0
 72
1
 11
232.37065
 21
171.11625
100
AcDbText
 73
2
  0
TEXT
  5
2B8
100
AcDbEntity
  8
0
100
AcDbText
  6
BYLAYER
 10
227.49565
 20
161.54625
 40
1.5
  1
16･H､W~63･H､U
  7
Font_0
 72
1
 11
232.37065
 21
162.29625
100
AcDbText
 73
2
  0
TEXT
  5
2B9
100
AcDbEntity
  8
0
100
AcDbText
  6
BYLAYER
 10
227.12065
 20
157.13625
 40
1.5
  1
63･H､W~250･H､U
  7
Font_0
 72
1
 11
232.37065
 21
157.88625
100
AcDbText
 73
2
  0
TEXT
  5
2BA
100
AcDbEntity
  8
0
100
AcDbText
  6
BYLAYER
 10
226.37065
 20
152.72625
 40
1.5
  1
250･H､W~1000･H､U
  7
Font_0
 72
1
 11
232.37065
 21
153.47625
100
AcDbText
 73
2
  0
MTEXT
  5
2BB
100
AcDbEntity
  8
0
100
AcDbMText
 10
218.865
 20
168.879375
 40
3
 41
  0.0
  1
ｪﾗ
 71
4
  7
Font_1
 11
-1.83690953073357E-16
 21
-1
  0
TEXT
  5
2BC
100
AcDbEntity
  8
0
100
AcDbText
  6
BYLAYER
 10
227.87065
 20
165.95625
 40
1.5
  1
4･H､W~16･H､U
  7
Font_0
 72
1
 11
232.37065
 21
166.70625
100
AcDbText
 73
2
  0
TEXT
  5
2BD
100
AcDbEntity
  8
0
100
AcDbText
  6
BYLAYER
 10
221.354797302298
 20
174.015263609177
 40
1.7
  1
､ｽｺﾙ､ﾘ､oｹｺ､ﾀm/m
  7
Font_0
100
AcDbText
  0
TEXT
  5
2BE
100
AcDbEntity
  8
0
100
AcDbText
  6
BYLAYER
 10
237.865638127741
 20
177.454836298923
 40
1.7
  1
ｵ･ｯﾅ
  7
Font_0
100
AcDbText
  0
LINE
  5
2BF
100
AcDbEntity
  8
0
100
AcDbLine
  6
BYLAYER
 10
266.82375
 20
151.27125
 11
266.82375
 21
180.4875
  0
LINE
  5
2C0
100
AcDbEntity
  8
0
100
AcDbLine
  6
BYLAYER
 10
255.2475
 20
151.27125
 11
255.2475
 21
180.4875
  0
TEXT
  5
2C1
100
AcDbEntity
  8
0
100
AcDbText
  6
BYLAYER
 10
247.2094
 20
170.36625
 40
1.5
  1
±0.05
  7
Font_0
 72
1
 11
249.4594
 21
171.11625
100
AcDbText
 73
2
  0
TEXT
  5
2C2
100
AcDbEntity
  8
0
100
AcDbText
  6
BYLAYER
 10
258.78565
 20
170.36625
 40
1.5
  1
±0.10
  7
Font_0
 72
1
 11
261.03565
 21
171.11625
100
AcDbText
 73
2
  0
TEXT
  5
2C3
100
AcDbEntity
  8
0
100
AcDbText
  6
BYLAYER
 10
270.3619
 20
170.36625
 40
1.5
  1
±0.30
  7
Font_0
 72
1
 11
272.6119
 21
171.11625
100
AcDbText
 73
2
  0
TEXT
  5
2C4
100
AcDbEntity
  8
0
100
AcDbText
  6
BYLAYER
 10
258.78565
 20
165.95625
 40
1.5
  1
±0.20
  7
Font_0
 72
1
 11
261.03565
 21
166.70625
100
AcDbText
 73
2
  0
TEXT
  5
2C5
100
AcDbEntity
  8
0
100
AcDbText
  6
BYLAYER
 10
258.78565
 20
161.54625
 40
1.5
  1
±0.30
  7
Font_0
 72
1
 11
261.03565
 21
162.29625
100
AcDbText
 73
2
  0
TEXT
  5
2C6
100
AcDbEntity
  8
0
100
AcDbText
  6
BYLAYER
 10
258.78565
 20
157.13625
 40
1.5
  1
±0.50
  7
Font_0
 72
1
 11
261.03565
 21
157.88625
100
AcDbText
 73
2
  0
TEXT
  5
2C7
100
AcDbEntity
  8
0
100
AcDbText
  6
BYLAYER
 10
258.78565
 20
152.72625
 40
1.5
  1
±0.80
  7
Font_0
 72
1
 11
261.03565
 21
153.47625
100
AcDbText
 73
2
  0
TEXT
  5
2C8
100
AcDbEntity
  8
0
100
AcDbText
  6
BYLAYER
 10
247.2094
 20
157.13625
 40
1.5
  1
±0.20
  7
Font_0
 72
1
 11
249.4594
 21
157.88625
100
AcDbText
 73
2
  0
TEXT
  5
2C9
100
AcDbEntity
  8
0
100
AcDbText
  6
BYLAYER
 10
247.2094
 20
152.72625
 40
1.5
  1
±0.30
  7
Font_0
 72
1
 11
249.4594
 21
153.47625
100
AcDbText
 73
2
  0
TEXT
  5
2CA
100
AcDbEntity
  8
0
100
AcDbText
  6
BYLAYER
 10
247.2094
 20
165.95625
 40
1.5
  1
±0.07
  7
Font_0
 72
1
 11
249.4594
 21
166.70625
100
AcDbText
 73
2
  0
TEXT
  5
2CB
100
AcDbEntity
  8
0
100
AcDbText
  6
BYLAYER
 10
247.2094
 20
161.54625
 40
1.5
  1
±0.10
  7
Font_0
 72
1
 11
249.4594
 21
162.29625
100
AcDbText
 73
2
  0
TEXT
  5
2CC
100
AcDbEntity
  8
0
100
AcDbText
  6
BYLAYER
 10
270.3619
 20
152.72625
 40
1.5
  1
±2.00
  7
Font_0
 72
1
 11
272.6119
 21
153.47625
100
AcDbText
 73
2
  0
TEXT
  5
2CD
100
AcDbEntity
  8
0
100
AcDbText
  6
BYLAYER
 10
270.3619
 20
157.13625
 40
1.5
  1
±1.20
  7
Font_0
 72
1
 11
272.6119
 21
157.88625
100
AcDbText
 73
2
  0
TEXT
  5
2CE
100
AcDbEntity
  8
0
100
AcDbText
  6
BYLAYER
 10
270.3619
 20
161.54625
 40
1.5
  1
±0.70
  7
Font_0
 72
1
 11
272.6119
 21
162.29625
100
AcDbText
 73
2
  0
TEXT
  5
2CF
100
AcDbEntity
  8
0
100
AcDbText
  6
BYLAYER
 10
270.3619
 20
165.95625
 40
1.5
  1
±0.50
  7
Font_0
 72
1
 11
272.6119
 21
166.70625
100
AcDbText
 73
2
  0
TEXT
  5
2D0
100
AcDbEntity
  8
0
100
AcDbText
  6
BYLAYER
 10
257.5356
 20
175.154375
 40
3.5
  1
､､ｯﾅ
  7
Font_0
 72
1
 11
261.0356
 21
176.904375
100
AcDbText
 73
2
  0
TEXT
  5
2D1
100
AcDbEntity
  8
0
100
AcDbText
  6
BYLAYER
 10
245.9594
 20
175.154375
 40
3.5
  1
ｲﾓｯﾅ
  7
Font_0
 72
1
 11
249.4594
 21
176.904375
100
AcDbText
 73
2
  0
ENDBLK
  5
2D2
100
AcDbEntity
  8
0
 67
     1
100
AcDbBlockEnd
  0
BLOCK
  5
2D3
100
AcDbEntity
  8
0
100
AcDbBlockBegin
  2
LIST
 70
    0
 10
0
 20
0
 30
0.0
  3
LIST
  1

  0
LINE
  5
2D4
100
AcDbEntity
  8
TEXT
100
AcDbLine
  6
BYLAYER
 10
-2.84E-14
 20
48
 11
83.2499999999999
 21
48
  0
LINE
  5
2D5
100
AcDbEntity
  8
TEXT
100
AcDbLine
  6
BYLAYER
 10
-2.84E-14
 20
42
 11
83.2499999999999
 21
42
  0
LINE
  5
2D6
100
AcDbEntity
  8
TEXT
100
AcDbLine
  6
BYLAYER
 10
-2.84E-14
 20
36
 11
83.2499999999999
 21
36
  0
LINE
  5
2D7
100
AcDbEntity
  8
TEXT
100
AcDbLine
  6
BYLAYER
 10
-2.84E-14
 20
30
 11
83.2499999999999
 21
30
  0
LINE
  5
2D8
100
AcDbEntity
  8
TEXT
100
AcDbLine
  6
BYLAYER
 10
-2.84E-14
 20
24
 11
83.2499999999999
 21
24
  0
LINE
  5
2D9
100
AcDbEntity
  8
TEXT
100
AcDbLine
  6
BYLAYER
 10
-2.84E-14
 20
18
 11
83.2499999999999
 21
18
  0
LINE
  5
2DA
100
AcDbEntity
  8
TEXT
100
AcDbLine
  6
BYLAYER
 10
-2.84E-14
 20
12
 11
83.2499999999999
 21
12
  0
LINE
  5
2DB
100
AcDbEntity
  8
TEXT
100
AcDbLine
  6
BYLAYER
 10
-2.84E-14
 20
5.99999999999997
 11
83.2499999999999
 21
6
  0
TEXT
  5
2DC
100
AcDbEntity
  8
TEXT
100
AcDbText
  6
BYLAYER
 10
8.82499999999999
 20
18.7071067811865
 40
3.5
  1
C
  7
Font_0
 72
1
 11
9.69999999999999
 21
18.7071067811865
100
AcDbText
  0
LINE
  5
2DD
100
AcDbEntity
  8
TEXT
100
AcDbLine
  6
BYLAYER
 10
0
 20
48
 11
0
 21
0
  0
TEXT
  5
2DE
100
AcDbEntity
  8
TEXT
100
AcDbText
  6
BYLAYER
 10
8.82499999999999
 20
6.70710678118655
 40
3.5
  1
A
  7
Font_0
 72
1
 11
9.69999999999999
 21
6.70710678118655
100
AcDbText
  0
TEXT
  5
2DF
100
AcDbEntity
  8
TEXT
100
AcDbText
  6
BYLAYER
 10
6.49999999999997
 20
0.707106781186553
 40
3.5
  1
ｶｵｦｸ
  7
Font_0
 72
1
 11
9.99999999999997
 21
0.707106781186553
100
AcDbText
  0
TEXT
  5
2E0
100
AcDbEntity
  8
TEXT
100
AcDbText
  6
BYLAYER
 10
8.82499999999999
 20
12.7071067811866
 40
3.5
  1
B
  7
Font_0
 72
1
 11
9.69999999999999
 21
12.7071067811866
100
AcDbText
  0
TEXT
  5
2E1
100
AcDbEntity
  8
TEXT
100
AcDbText
  6
BYLAYER
 10
8.82499999999999
 20
42.7071067811866
 40
3.5
  1
G
  7
Font_0
 72
1
 11
9.69999999999999
 21
42.7071067811866
100
AcDbText
  0
TEXT
  5
2E2
100
AcDbEntity
  8
TEXT
100
AcDbText
  6
BYLAYER
 10
8.82499999999999
 20
30.7071067811865
 40
3.5
  1
E
  7
Font_0
 72
1
 11
9.69999999999999
 21
30.7071067811865
100
AcDbText
  0
TEXT
  5
2E3
100
AcDbEntity
  8
TEXT
100
AcDbText
  6
BYLAYER
 10
8.82499999999999
 20
24.7071067811866
 40
3.5
  1
D
  7
Font_0
 72
1
 11
9.69999999999999
 21
24.7071067811866
100
AcDbText
  0
TEXT
  5
2E4
100
AcDbEntity
  8
TEXT
100
AcDbText
  6
BYLAYER
 10
8.82499999999999
 20
36.7071067811866
 40
3.5
  1
F
  7
Font_0
 72
1
 11
9.69999999999999
 21
36.7071067811866
100
AcDbText
  0
TEXT
  5
2E5
100
AcDbEntity
  8
TEXT
100
AcDbText
  6
BYLAYER
 10
77.3935238436447
 20
18.7071067811866
 40
3.5
  1
1
  7
Font_0
 72
1
 11
78.2685238436447
 21
18.7071067811866
100
AcDbText
  0
TEXT
  5
2E6
100
AcDbEntity
  8
TEXT
100
AcDbText
  6
BYLAYER
 10
20.7
 20
18.7071067811866
 40
3.5
  1
A
  7
Font_0
100
AcDbText
  0
LINE
  5
2E7
100
AcDbEntity
  8
TEXT
100
AcDbLine
  6
BYLAYER
 10
73.8870476872896
 20
48
 11
73.8870476872896
 21
-1.42E-14
  0
LINE
  5
2E8
100
AcDbEntity
  8
TEXT
100
AcDbLine
  6
BYLAYER
 10
20
 20
48
 11
20
 21
0
  0
TEXT
  5
2E9
100
AcDbEntity
  8
TEXT
100
AcDbText
  6
BYLAYER
 10
75.0685238436447
 20
0.707106781186553
 40
3.5
  1
ｼﾆｶq
  7
Font_0
 72
1
 11
78.5685238436447
 21
0.707106781186553
100
AcDbText
  0
TEXT
  5
2EA
100
AcDbEntity
  8
TEXT
100
AcDbText
  6
BYLAYER
 10
37.4837220734968
 20
0.707106781186553
 40
3.5
  1
ｹﾏ       ｸｹ
  7
Font_0
 72
1
 11
47.1087220734968
 21
0.707106781186553
100
AcDbText
  0
TEXT
  5
2EB
100
AcDbEntity
  8
TEXT
100
AcDbText
  6
BYLAYER
 10
20.7
 20
6.70710678118656
 40
3.5
  1
A
  7
Font_0
100
AcDbText
  0
TEXT
  5
2EC
100
AcDbEntity
  8
TEXT
100
AcDbText
  6
BYLAYER
 10
20.7
 20
12.7071067811866
 40
3.5
  1
A
  7
Font_0
100
AcDbText
  0
TEXT
  5
2ED
100
AcDbEntity
  8
TEXT
100
AcDbText
  6
BYLAYER
 10
77.3935238436447
 20
6.70710678118656
 40
3.5
  1
1
  7
Font_0
 72
1
 11
78.2685238436447
 21
6.70710678118656
100
AcDbText
  0
TEXT
  5
2EE
100
AcDbEntity
  8
TEXT
100
AcDbText
  6
BYLAYER
 10
77.3935238436447
 20
12.7071067811866
 40
3.5
  1
1
  7
Font_0
 72
1
 11
78.2685238436447
 21
12.7071067811866
100
AcDbText
  0
TEXT
  5
2EF
100
AcDbEntity
  8
TEXT
100
AcDbText
  6
BYLAYER
 10
20.7
 20
42.7071067811866
 40
3.5
  1
A
  7
Font_0
100
AcDbText
  0
TEXT
  5
2F0
100
AcDbEntity
  8
TEXT
100
AcDbText
  6
BYLAYER
 10
20.7
 20
30.7071067811865
 40
3.5
  1
A
  7
Font_0
100
AcDbText
  0
TEXT
  5
2F1
100
AcDbEntity
  8
TEXT
100
AcDbText
  6
BYLAYER
 10
20.7
 20
24.7071067811866
 40
3.5
  1
A
  7
Font_0
100
AcDbText
  0
TEXT
  5
2F2
100
AcDbEntity
  8
TEXT
100
AcDbText
  6
BYLAYER
 10
20.7
 20
36.7071067811866
 40
3.5
  1
A
  7
Font_0
100
AcDbText
  0
TEXT
  5
2F3
100
AcDbEntity
  8
TEXT
100
AcDbText
  6
BYLAYER
 10
77.3935238436447
 20
42.7071067811866
 40
3.5
  1
1
  7
Font_0
 72
1
 11
78.2685238436447
 21
42.7071067811866
100
AcDbText
  0
TEXT
  5
2F4
100
AcDbEntity
  8
TEXT
100
AcDbText
  6
BYLAYER
 10
77.3935238436447
 20
30.7071067811865
 40
3.5
  1
1
  7
Font_0
 72
1
 11
78.2685238436447
 21
30.7071067811865
100
AcDbText
  0
TEXT
  5
2F5
100
AcDbEntity
  8
TEXT
100
AcDbText
  6
BYLAYER
 10
77.3935238436447
 20
24.7071067811866
 40
3.5
  1
1
  7
Font_0
 72
1
 11
78.2685238436447
 21
24.7071067811866
100
AcDbText
  0
TEXT
  5
2F6
100
AcDbEntity
  8
TEXT
100
AcDbText
  6
BYLAYER
 10
77.3935238436447
 20
36.7071067811866
 40
3.5
  1
1
  7
Font_0
 72
1
 11
78.2685238436447
 21
36.7071067811866
100
AcDbText
  0
ENDBLK
  5
2F7
100
AcDbEntity
  8
0
 67
     1
100
AcDbBlockEnd
  0
BLOCK
  5
2F8
100
AcDbEntity
  8
0
100
AcDbBlockBegin
  2
A4ｹﾏｮﾘ
 70
    0
 10
0
 20
0
 30
0.0
  3
A4ｹﾏｮﾘ
  1

  0
POINT
  5
2F9
100
AcDbEntity
  8
7475A
100
AcDbPoint
 10
289
 20
0
  0
LINE
  5
2FA
100
AcDbEntity
  8
0
100
AcDbLine
  6
BYLAYER
 10
0
 20
12
 11
278.4
 21
12
  0
LINE
  5
2FB
100
AcDbEntity
  8
0
100
AcDbLine
  6
BYLAYER
 10
0
 20
6
 11
278.4
 21
6
  0
LINE
  5
2FC
100
AcDbEntity
  8
0
100
AcDbLine
  6
BYLAYER
 10
96.85
 20
30
 11
278.4
 21
30
  0
LINE
  5
2FD
100
AcDbEntity
  8
0
100
AcDbLine
  6
BYLAYER
 10
96.85
 20
24
 11
278.4
 21
24
  0
LINE
  5
2FE
100
AcDbEntity
  8
0
100
AcDbLine
  6
BYLAYER
 10
96.85
 20
18
 11
278.4
 21
18
  0
TEXT
  5
2FF
100
AcDbEntity
  8
0
100
AcDbText
  6
BYLAYER
 10
22.1680110084321
 20
15.7553550725962
 40
2.8
  1
CAM YORK INDUSTRIAL CO.,LTD.
  7
Font_0
100
AcDbText
  0
TEXT
  5
300
100
AcDbEntity
  8
0
100
AcDbText
  6
BYLAYER
 10
22.0468952754036
 20
26
 40
7
  1
ｫﾘｷﾔ､uｷ~ｪﾑ･ｳｭｭ､ｽ･q
  7
Font_0
100
AcDbText
  0
TEXT
  5
301
100
AcDbEntity
  8
0
100
AcDbText
  6
BYLAYER
 10
63.8643398403977
 20
7.09411371042404
 40
2.8
  1
(04)3322629
  7
Font_0
100
AcDbText
  0
LINE
  5
302
100
AcDbEntity
  8
0
100
AcDbLine
  6
BYLAYER
 10
10.1054905349494
 20
28.7603510666656
 11
15.2233703294355
 21
28.7603510666656
  0
CIRCLE
  5
303
100
AcDbEntity
  8
0
100
AcDbCircle
  6
BYLAYER
 10
10.1054905349494
 20
24.350263158651
 40
9.36463111331499
  0
CIRCLE
  5
304
100
AcDbEntity
  8
0
100
AcDbCircle
  6
BYLAYER
 10
10.1054905349494
 20
24.350263158651
 40
7.62237416200057
  0
ARC
  5
305
100
AcDbEntity
  8
0
100
AcDbCircle
  6
BYLAYER
 10
10.1054905349494
 20
24.350263158651
 40
4.41008790801462
100
AcDbArc
 50
90
 51
0
  0
LINE
  5
306
100
AcDbEntity
  8
0
100
AcDbLine
  6
BYLAYER
 10
13
 20
12
 11
13
 21
0
  0
TEXT
  5
307
100
AcDbEntity
  8
0
100
AcDbText
  6
BYLAYER
 10
2.6
 20
7.3
 40
3
  1
TEL
  7
Font_0
100
AcDbText
  0
TEXT
  5
308
100
AcDbEntity
  8
0
100
AcDbText
  6
BYLAYER
 10
3.5
 20
1.5
 40
3
  1
ｳﾆｵ�
  7
Font_0
 72
1
 11
6.5
 21
3
100
AcDbText
 73
2
  0
ARC
  5
309
100
AcDbEntity
  8
0
100
AcDbCircle
  6
BYLAYER
 10
10.5745216067836
 20
32.8983997393573
 40
0.704372460813671
100
AcDbArc
 50
83.8529806316668
 51
239.250071636948
  0
ARC
  5
30A
100
AcDbEntity
  8
0
100
AcDbCircle
  6
BYLAYER
 10
6.23761506796892
 20
31.9876821284788
 40
0.704372460813671
100
AcDbArc
 50
113.852980631667
 51
269.250071636948
  0
ARC
  5
30B
100
AcDbEntity
  8
0
100
AcDbCircle
  6
BYLAYER
 10
2.46807156512152
 20
20.4823876916705
 40
0.704372460813671
100
AcDbArc
 50
203.852980631667
 51
359.250071636948
  0
ARC
  5
30C
100
AcDbEntity
  8
0
100
AcDbCircle
  6
BYLAYER
 10
9.63645946311512
 20
15.8021265779447
 40
0.704372460813671
100
AcDbArc
 50
263.852980631667
 51
59.2500716369476
  0
ARC
  5
30D
100
AcDbEntity
  8
0
100
AcDbCircle
  6
BYLAYER
 10
5.4252294212235
 20
17.1818752606574
 40
0.704372460813671
100
AcDbArc
 50
233.852980631667
 51
29.2500716369476
  0
ARC
  5
30E
100
AcDbEntity
  8
0
100
AcDbCircle
  6
BYLAYER
 10
1.55735395424306
 20
24.8192942304852
 40
0.704372460813671
100
AcDbArc
 50
173.852980631667
 51
329.250071636948
  0
ARC
  5
30F
100
AcDbEntity
  8
0
100
AcDbCircle
  6
BYLAYER
 10
2.93710263695578
 20
29.0305242723768
 40
0.704372460813671
100
AcDbArc
 50
143.852980631667
 51
299.250071636948
  0
TEXT
  5
310
100
AcDbEntity
  8
0
100
AcDbText
  6
BYLAYER
 10
7.49210581170385
 20
21.8477388856442
 40
5
  1
Y
  7
Font_0
100
AcDbText
  0
TEXT
  5
311
100
AcDbEntity
  8
0
100
AcDbText
  6
BYLAYER
 10
42.3478047909238
 20
7.2
 40
2.8
  1
~8
  7
Font_0
100
AcDbText
  0
TEXT
  5
312
100
AcDbEntity
  8
0
100
AcDbText
  6
BYLAYER
 10
13.8764304985659
 20
7.2
 40
2.8
  1
(04)3322627
  7
Font_0
100
AcDbText
  0
TEXT
  5
313
100
AcDbEntity
  8
0
100
AcDbText
  6
BYLAYER
 10
51
 20
7.2
 40
3
  1
FAX
  7
Font_0
100
AcDbText
  0
LINE
  5
314
100
AcDbEntity
  8
0
100
AcDbLine
  6
BYLAYER
 10
48
 20
12
 11
48
 21
6
  0
LINE
  5
315
100
AcDbEntity
  8
0
100
AcDbLine
  6
BYLAYER
 10
62
 20
12
 11
62
 21
6
  0
ARC
  5
316
100
AcDbEntity
  8
0
100
AcDbCircle
  6
BYLAYER
 10
14.7857516486752
 20
31.5186510566446
 40
0.704372460813671
100
AcDbArc
 50
53.8529806316668
 51
209.250071636948
  0
ARC
  5
317
100
AcDbEntity
  8
0
100
AcDbCircle
  6
BYLAYER
 10
17.273878432943
 20
19.6700020449251
 40
0.704372460813671
100
AcDbArc
 50
323.852980631667
 51
119.250071636948
  0
ARC
  5
318
100
AcDbEntity
  8
0
100
AcDbCircle
  6
BYLAYER
 10
13.9733660019298
 20
16.7128441888231
 40
0.704372460813671
100
AcDbArc
 50
293.852980631667
 51
89.2500716369476
  0
LINE
  5
319
100
AcDbEntity
  8
0
100
AcDbLine
  6
BYLAYER
 10
14.515578442964
 20
24.350263158651
 11
15.4411524483498
 21
24.350263158651
  0
ARC
  5
31A
100
AcDbEntity
  8
0
100
AcDbCircle
  6
BYLAYER
 10
18.6536271156557
 20
23.8812320868167
 40
0.704372460813671
100
AcDbArc
 50
353.852980631667
 51
149.250071636948
  0
ARC
  5
31B
100
AcDbEntity
  8
0
100
AcDbCircle
  6
BYLAYER
 10
17.7429095047772
 20
28.2181386256314
 40
0.704372460813671
100
AcDbArc
 50
23.8529806316668
 51
179.250071636948
  0
TEXT
  5
31C
100
AcDbEntity
  8
0
100
AcDbText
  6
BYLAYER
 10
100.4
 20
7.4
 40
3
  1
ｫ~ ｦW
  7
Font_0
100
AcDbText
  0
LINE
  5
31D
100
AcDbEntity
  8
0
100
AcDbLine
  6
BYLAYER
 10
144
 20
36
 11
144
 21
0
  0
LINE
  5
31E
100
AcDbEntity
  8
0
100
AcDbLine
  6
BYLAYER
 10
114
 20
36
 11
114
 21
0
  0
TEXT
  5
31F
100
AcDbEntity
  8
0
100
AcDbText
  6
BYLAYER
 10
100.4
 20
1.6
 40
3
  1
ｹﾏ ｸｹ
  7
Font_0
100
AcDbText
  0
TEXT
  5
320
100
AcDbEntity
  8
0
100
AcDbText
  6
BYLAYER
 10
100.4
 20
31.6
 40
3
  1
･D ｺﾞ
  7
Font_0
100
AcDbText
  0
TEXT
  5
321
100
AcDbEntity
  8
0
100
AcDbText
  6
BYLAYER
 10
100.4
 20
19.6
 40
3
  1
ﾃｸ ｹﾏ
  7
Font_0
100
AcDbText
  0
TEXT
  5
322
100
AcDbEntity
  8
0
100
AcDbText
  6
BYLAYER
 10
100.4
 20
13.8
 40
3
  1
ｾ� ｺﾘ
  7
Font_0
100
AcDbText
  0
TEXT
  5
323
100
AcDbEntity
  8
0
100
AcDbText
  6
BYLAYER
 10
100.4
 20
25.4
 40
3
  1
ｮﾖ ｹ�
  7
Font_0
100
AcDbText
  0
LINE
  5
324
100
AcDbEntity
  8
0
100
AcDbLine
  6
BYLAYER
 10
163
 20
36
 11
163
 21
0
  0
TEXT
  5
325
100
AcDbEntity
  8
0
100
AcDbText
  6
BYLAYER
 10
146.967830348543
 20
7.5
 40
3
  1
ｪ揵ｱｳBｲz
  7
Font_0
100
AcDbText
  0
TEXT
  5
326
100
AcDbEntity
  8
0
100
AcDbText
  6
BYLAYER
 10
146.967830348543
 20
1.5
 40
3
  1
ｻsｹﾏ､魘ﾁ
  7
Font_0
100
AcDbText
  0
TEXT
  5
327
100
AcDbEntity
  8
0
100
AcDbText
  6
BYLAYER
 10
148.5
 20
31.5
 40
3
  1
ｧ� ｽ�
  7
Font_0
100
AcDbText
  0
TEXT
  5
328
100
AcDbEntity
  8
0
100
AcDbText
  6
BYLAYER
 10
148.5
 20
19.5
 40
3
  1
ｼﾆ ｶq
  7
Font_0
100
AcDbText
  0
TEXT
  5
329
100
AcDbEntity
  8
0
100
AcDbText
  6
BYLAYER
 10
148.5
 20
13.5
 40
3
  1
ｳ� ｦ�
  7
Font_0
100
AcDbText
  0
TEXT
  5
32A
100
AcDbEntity
  8
0
100
AcDbText
  6
BYLAYER
 10
148.5
 20
25.5
 40
3
  1
､� ｨﾒ
  7
Font_0
100
AcDbText
  0
TEXT
  5
32B
100
AcDbEntity
  8
0
100
AcDbText
  6
BYLAYER
 10
200.830454348633
 20
31.5
 40
3
  1
､魘ﾁ
  7
Font_0
100
AcDbText
  0
LINE
  5
32C
100
AcDbEntity
  8
0
100
AcDbLine
  6
BYLAYER
 10
269.7178125
 20
135.285
 11
269.7178125
 21
151.27125
  0
LINE
  5
32D
100
AcDbEntity
  8
0
100
AcDbLine
  6
BYLAYER
 10
261.035625
 20
135.285
 11
261.035625
 21
151.27125
  0
LINE
  5
32E
100
AcDbEntity
  8
0
100
AcDbLine
  6
BYLAYER
 10
252.3534375
 20
135.285
 11
252.3534375
 21
151.27125
  0
LINE
  5
32F
100
AcDbEntity
  8
0
100
AcDbLine
  6
BYLAYER
 10
243.67125
 20
135.285
 11
243.67125
 21
180.4875
  0
LINE
  5
330
100
AcDbEntity
  8
0
100
AcDbLine
  6
BYLAYER
 10
221.07
 20
135.285
 11
221.07
 21
180.4875
  0
LINE
  5
331
100
AcDbEntity
  8
0
100
AcDbLine
  6
BYLAYER
 10
216.66
 20
135.285
 11
216.66
 21
186
  0
LINE
  5
332
100
AcDbEntity
  8
0
100
AcDbLine
  6
BYLAYER
 10
213
 20
36
 11
213
 21
0
  0
LINE
  5
333
100
AcDbEntity
  8
0
100
AcDbLine
  6
BYLAYER
 10
232
 20
36
 11
232
 21
0
  0
TEXT
  5
334
100
AcDbEntity
  8
0
100
AcDbText
  6
BYLAYER
 10
235
 20
31.5
 40
3
  1
ｧ�   ｧ�   ､ｺ   ｮe
  7
Font_0
100
AcDbText
  0
TEXT
  5
335
100
AcDbEntity
  8
0
100
AcDbText
  6
BYLAYER
 10
218.659856969007
 20
31.5
 40
3
  1
ｭtｳd､H
  7
Font_0
100
AcDbText
  0
LINE
  5
336
100
AcDbEntity
  8
0
100
AcDbLine
  6
BYLAYER
 10
278.4
 20
139.695
 11
221.07
 21
139.695
  0
LINE
  5
337
100
AcDbEntity
  8
0
100
AcDbLine
  6
BYLAYER
 10
278.4
 20
135.285
 11
216.66
 21
135.285
  0
TEXT
  5
338
100
AcDbEntity
  8
0
100
AcDbText
  6
BYLAYER
 10
246.15416478566
 20
128.207003496756
 40
2
  1
projection ｲﾄ､Tｨ､ｧ�ｼv
  7
Font_0
100
AcDbText
  0
LINE
  5
339
100
AcDbEntity
  8
0
100
AcDbLine
  6
BYLAYER
 10
278.4
 20
113.78625
 11
243.67125
 21
113.78625
  0
TEXT
  5
33A
100
AcDbEntity
  8
0
100
AcDbText
  6
BYLAYER
 10
271.4339125
 20
144.733125
 40
1.5
  1
100･H､W
  7
Font_0
 72
1
 11
274.0589125
 21
145.483125
100
AcDbText
 73
2
  0
TEXT
  5
33B
100
AcDbEntity
  8
0
100
AcDbText
  6
BYLAYER
 10
272.1839125
 20
136.74
 40
1.5
  1
±10'
  7
Font_0
 72
1
 11
274.0589125
 21
137.49
100
AcDbText
 73
2
  0
MTEXT
  5
33C
100
AcDbEntity
  8
0
100
AcDbMText
 10
232.37065
 20
145.483125
 40
2
 41
  0.0
  1
､ｽｺﾙ､ﾘ､o (ｪﾗ)\Pｧｨｦｨｨ､､ｧｵuﾃ荀@､�
 71
5
  7
Font_0
  0
TEXT
  5
33D
100
AcDbEntity
  8
0
100
AcDbText
  6
BYLAYER
 10
217.365
 20
147.778125
 40
3
  1
ｪｽｨ､ｫﾗ
  7
Font_1
 50
270
 11
218.865
 21
147.778125
100
AcDbText
 73
2
  0
TEXT
  5
33E
100
AcDbEntity
  8
0
100
AcDbText
  6
BYLAYER
 10
227.87065
 20
135.99
 40
3
  1
ｨ､ｫﾗｮt
  7
Font_0
 72
1
 11
232.37065
 21
137.49
100
AcDbText
 73
2
  0
LINE
  5
33F
100
AcDbEntity
  8
0
100
AcDbLine
  6
BYLAYER
 10
254.802068029839
 20
115.173423624616
 11
254.802068029839
 21
126.198423624616
  0
LINE
  5
340
100
AcDbEntity
  8
0
100
AcDbLine
  6
BYLAYER
 10
243.67125
 20
113.78625
 11
243.67125
 21
135.285
  0
CIRCLE
  5
341
100
AcDbEntity
  8
0
100
AcDbCircle
  6
BYLAYER
 10
254.802068029839
 20
120.685923624616
 40
4.41
  0
LINE
  5
342
100
AcDbEntity
  8
0
100
AcDbLine
  6
BYLAYER
 10
249.289568029839
 20
120.685923624616
 11
260.314568029839
 21
120.685923624616
  0
CIRCLE
  5
343
100
AcDbEntity
  8
0
100
AcDbCircle
  6
BYLAYER
 10
254.802068029839
 20
120.685923624616
 40
2.205
  0
LINE
  5
344
100
AcDbEntity
  8
0
100
AcDbLine
  6
BYLAYER
 10
263.194180551461
 20
120.685923624616
 11
274.770430551461
 21
120.685923624616
  0
LWPOLYLINE
  5
345
100
AcDbEntity
  8
0
100
AcDbPolyline
  6
BYLAYER
370
0
 90
     4
 70
     1
 10
264.296680551461
  20
118.480923624616
 10
273.667930551461
  20
116.275923624616
 10
273.667930551461
  20
125.095923624616
 10
264.296680551461
  20
122.890923624616
  0
TEXT
  5
346
100
AcDbEntity
  8
0
100
AcDbText
  6
BYLAYER
 10
245.828721587618
 20
131.605971951227
 40
2
  1
Third angle
  7
Font_0
100
AcDbText
  0
MTEXT
  5
347
100
AcDbEntity
  8
0
100
AcDbMText
 10
256.6945375
 20
145.483125
 40
1.5
 41
  0.0
  1
10･H､W\P50･H､U
 71
5
  7
Font_0
  0
TEXT
  5
348
100
AcDbEntity
  8
0
100
AcDbText
  6
BYLAYER
 10
246.13735
 20
136.74
 40
1.5
  1
±1°
  7
Font_0
 72
1
 11
248.01235
 21
137.49
100
AcDbText
 73
2
  0
TEXT
  5
349
100
AcDbEntity
  8
0
100
AcDbText
  6
BYLAYER
 10
254.8195375
 20
136.74
 40
1.5
  1
±30'
  7
Font_0
 72
1
 11
256.6945375
 21
137.49
100
AcDbText
 73
2
  0
TEXT
  5
34A
100
AcDbEntity
  8
0
100
AcDbText
  6
BYLAYER
 10
245.76235
 20
144.733125
 40
1.5
  1
10･H､U
  7
Font_0
 72
1
 11
248.01235
 21
145.483125
100
AcDbText
 73
2
  0
TEXT
  5
34B
100
AcDbEntity
  8
0
100
AcDbText
  6
BYLAYER
 10
263.501725
 20
136.74
 40
1.5
  1
±20'
  7
Font_0
 72
1
 11
265.376725
 21
137.49
100
AcDbText
 73
2
  0
MTEXT
  5
34C
100
AcDbEntity
  8
0
100
AcDbMText
 10
265.376725
 20
145.483125
 40
1.5
 41
  0.0
  1
50･H､W\P100･H､U
 71
5
  7
Font_0
  0
LINE
  5
34D
100
AcDbEntity
  8
0
100
AcDbLine
  6
BYLAYER
 10
221.07
 20
155.68125
 11
278.4
 21
155.68125
  0
LINE
  5
34E
100
AcDbEntity
  8
0
100
AcDbLine
  6
BYLAYER
 10
221.07
 20
160.09125
 11
278.4
 21
160.09125
  0
LINE
  5
34F
100
AcDbEntity
  8
0
100
AcDbLine
  6
BYLAYER
 10
221.07
 20
164.50125
 11
278.4
 21
164.50125
  0
LINE
  5
350
100
AcDbEntity
  8
0
100
AcDbLine
  6
BYLAYER
 10
221.07
 20
168.91125
 11
278.4
 21
168.91125
  0
LINE
  5
351
100
AcDbEntity
  8
0
100
AcDbLine
  6
BYLAYER
 10
221.07
 20
173.32125
 11
278.4
 21
173.32125
  0
LINE
  5
352
100
AcDbEntity
  8
0
100
AcDbLine
  6
BYLAYER
 10
216.66
 20
151.27125
 11
278.4
 21
151.27125
  0
LINE
  5
353
100
AcDbEntity
  8
0
100
AcDbLine
  6
BYLAYER
 10
216.66
 20
180.4875
 11
278.4
 21
180.4875
  0
TEXT
  5
354
100
AcDbEntity
  8
0
100
AcDbText
  6
BYLAYER
 10
269.1119
 20
175.154375
 40
3.5
  1
ｲﾊｯﾅ
  7
Font_0
 72
1
 11
272.6119
 21
176.904375
100
AcDbText
 73
2
  0
LINE
  5
355
100
AcDbEntity
  8
0
100
AcDbLine
  6
BYLAYER
 10
243.67125
 20
173.32125
 11
232.06971689676
 21
180.4875
  0
TEXT
  5
356
100
AcDbEntity
  8
0
100
AcDbText
  6
BYLAYER
 10
230.03
 20
181.49375
 40
3.5
  1
ｦｨ ｫ~ ､ｧ ｴｶ ｳq ､ｽ ｮt
  7
Font_0
 72
1
 11
247.53
 21
183.24375
100
AcDbText
 73
2
  0
TEXT
  5
357
100
AcDbEntity
  8
0
100
AcDbText
  6
BYLAYER
 10
228.24565
 20
170.36625
 40
1.5
  1
1･H､W~4･H､U
  7
Font_0
 72
1
 11
232.37065
 21
171.11625
100
AcDbText
 73
2
  0
TEXT
  5
358
100
AcDbEntity
  8
0
100
AcDbText
  6
BYLAYER
 10
227.49565
 20
161.54625
 40
1.5
  1
16･H､W~63･H､U
  7
Font_0
 72
1
 11
232.37065
 21
162.29625
100
AcDbText
 73
2
  0
TEXT
  5
359
100
AcDbEntity
  8
0
100
AcDbText
  6
BYLAYER
 10
227.12065
 20
157.13625
 40
1.5
  1
63･H､W~250･H､U
  7
Font_0
 72
1
 11
232.37065
 21
157.88625
100
AcDbText
 73
2
  0
TEXT
  5
35A
100
AcDbEntity
  8
0
100
AcDbText
  6
BYLAYER
 10
226.37065
 20
152.72625
 40
1.5
  1
250･H､W~1000･H､U
  7
Font_0
 72
1
 11
232.37065
 21
153.47625
100
AcDbText
 73
2
  0
MTEXT
  5
35B
100
AcDbEntity
  8
0
100
AcDbMText
 10
218.865
 20
168.879375
 40
3
 41
  0.0
  1
ｪﾗ
 71
4
  7
Font_1
 11
-1.83690953073357E-16
 21
-1
  0
TEXT
  5
35C
100
AcDbEntity
  8
0
100
AcDbText
  6
BYLAYER
 10
227.87065
 20
165.95625
 40
1.5
  1
4･H､W~16･H､U
  7
Font_0
 72
1
 11
232.37065
 21
166.70625
100
AcDbText
 73
2
  0
TEXT
  5
35D
100
AcDbEntity
  8
0
100
AcDbText
  6
BYLAYER
 10
221.354797302298
 20
174.015263609177
 40
1.7
  1
､ｽｺﾙ､ﾘ､oｹｺ､ﾀm/m
  7
Font_0
100
AcDbText
  0
TEXT
  5
35E
100
AcDbEntity
  8
0
100
AcDbText
  6
BYLAYER
 10
237.865638127741
 20
177.454836298923
 40
1.7
  1
ｵ･ｯﾅ
  7
Font_0
100
AcDbText
  0
LINE
  5
35F
100
AcDbEntity
  8
0
100
AcDbLine
  6
BYLAYER
 10
266.82375
 20
151.27125
 11
266.82375
 21
180.4875
  0
LINE
  5
360
100
AcDbEntity
  8
0
100
AcDbLine
  6
BYLAYER
 10
255.2475
 20
151.27125
 11
255.2475
 21
180.4875
  0
TEXT
  5
361
100
AcDbEntity
  8
0
100
AcDbText
  6
BYLAYER
 10
247.2094
 20
170.36625
 40
1.5
  1
±0.05
  7
Font_0
 72
1
 11
249.4594
 21
171.11625
100
AcDbText
 73
2
  0
TEXT
  5
362
100
AcDbEntity
  8
0
100
AcDbText
  6
BYLAYER
 10
258.78565
 20
170.36625
 40
1.5
  1
±0.10
  7
Font_0
 72
1
 11
261.03565
 21
171.11625
100
AcDbText
 73
2
  0
TEXT
  5
363
100
AcDbEntity
  8
0
100
AcDbText
  6
BYLAYER
 10
270.3619
 20
170.36625
 40
1.5
  1
±0.30
  7
Font_0
 72
1
 11
272.6119
 21
171.11625
100
AcDbText
 73
2
  0
TEXT
  5
364
100
AcDbEntity
  8
0
100
AcDbText
  6
BYLAYER
 10
258.78565
 20
165.95625
 40
1.5
  1
±0.20
  7
Font_0
 72
1
 11
261.03565
 21
166.70625
100
AcDbText
 73
2
  0
TEXT
  5
365
100
AcDbEntity
  8
0
100
AcDbText
  6
BYLAYER
 10
258.78565
 20
161.54625
 40
1.5
  1
±0.30
  7
Font_0
 72
1
 11
261.03565
 21
162.29625
100
AcDbText
 73
2
  0
TEXT
  5
366
100
AcDbEntity
  8
0
100
AcDbText
  6
BYLAYER
 10
258.78565
 20
157.13625
 40
1.5
  1
±0.50
  7
Font_0
 72
1
 11
261.03565
 21
157.88625
100
AcDbText
 73
2
  0
TEXT
  5
367
100
AcDbEntity
  8
0
100
AcDbText
  6
BYLAYER
 10
258.78565
 20
152.72625
 40
1.5
  1
±0.80
  7
Font_0
 72
1
 11
261.03565
 21
153.47625
100
AcDbText
 73
2
  0
TEXT
  5
368
100
AcDbEntity
  8
0
100
AcDbText
  6
BYLAYER
 10
247.2094
 20
157.13625
 40
1.5
  1
±0.20
  7
Font_0
 72
1
 11
249.4594
 21
157.88625
100
AcDbText
 73
2
  0
TEXT
  5
369
100
AcDbEntity
  8
0
100
AcDbText
  6
BYLAYER
 10
247.2094
 20
152.72625
 40
1.5
  1
±0.30
  7
Font_0
 72
1
 11
249.4594
 21
153.47625
100
AcDbText
 73
2
  0
TEXT
  5
36A
100
AcDbEntity
  8
0
100
AcDbText
  6
BYLAYER
 10
247.2094
 20
165.95625
 40
1.5
  1
±0.07
  7
Font_0
 72
1
 11
249.4594
 21
166.70625
100
AcDbText
 73
2
  0
TEXT
  5
36B
100
AcDbEntity
  8
0
100
AcDbText
  6
BYLAYER
 10
247.2094
 20
161.54625
 40
1.5
  1
±0.10
  7
Font_0
 72
1
 11
249.4594
 21
162.29625
100
AcDbText
 73
2
  0
TEXT
  5
36C
100
AcDbEntity
  8
0
100
AcDbText
  6
BYLAYER
 10
270.3619
 20
152.72625
 40
1.5
  1
±2.00
  7
Font_0
 72
1
 11
272.6119
 21
153.47625
100
AcDbText
 73
2
  0
TEXT
  5
36D
100
AcDbEntity
  8
0
100
AcDbText
  6
BYLAYER
 10
270.3619
 20
157.13625
 40
1.5
  1
±1.20
  7
Font_0
 72
1
 11
272.6119
 21
157.88625
100
AcDbText
 73
2
  0
TEXT
  5
36E
100
AcDbEntity
  8
0
100
AcDbText
  6
BYLAYER
 10
270.3619
 20
161.54625
 40
1.5
  1
±0.70
  7
Font_0
 72
1
 11
272.6119
 21
162.29625
100
AcDbText
 73
2
  0
TEXT
  5
36F
100
AcDbEntity
  8
0
100
AcDbText
  6
BYLAYER
 10
270.3619
 20
165.95625
 40
1.5
  1
±0.50
  7
Font_0
 72
1
 11
272.6119
 21
166.70625
100
AcDbText
 73
2
  0
TEXT
  5
370
100
AcDbEntity
  8
0
100
AcDbText
  6
BYLAYER
 10
257.5356
 20
175.154375
 40
3.5
  1
､､ｯﾅ
  7
Font_0
 72
1
 11
261.0356
 21
176.904375
100
AcDbText
 73
2
  0
TEXT
  5
371
100
AcDbEntity
  8
0
100
AcDbText
  6
BYLAYER
 10
245.9594
 20
175.154375
 40
3.5
  1
ｲﾓｯﾅ
  7
Font_0
 72
1
 11
249.4594
 21
176.904375
100
AcDbText
 73
2
  0
LWPOLYLINE
  5
372
100
AcDbEntity
  8
0
100
AcDbPolyline
  6
BYLAYER
370
20
 90
     4
 70
     1
 10
0
  20
0
 10
0
  20
186
 10
278.4
  20
186
 10
278.4
  20
0
  0
LWPOLYLINE
  5
373
100
AcDbEntity
  8
0
100
AcDbPolyline
  6
BYLAYER
370
20
 90
     2
 10
0
  20
36
 10
278.4
  20
36
  0
LWPOLYLINE
  5
374
100
AcDbEntity
  8
0
100
AcDbPolyline
  6
BYLAYER
370
20
 90
     2
 10
195.15
  20
36
 10
195.15
  20
0
  0
LWPOLYLINE
  5
375
100
AcDbEntity
  8
0
100
AcDbPolyline
  6
BYLAYER
370
20
 90
     2
 10
96.85
  20
36
 10
96.85
  20
0
  0
ENDBLK
  5
376
100
AcDbEntity
  8
0
 67
     1
100
AcDbBlockEnd
  0
BLOCK
  5
377
100
AcDbEntity
  8
0
100
AcDbBlockBegin
  2
JAME
 70
    0
 10
0
 20
0
 30
0.0
  3
JAME
  1

  0
TEXT
  5
378
100
AcDbEntity
  8
0
100
AcDbText
  6
BYLAYER
 10
200.830454348633
 20
31.5
 40
3
  1
､魘ﾁ
  7
Font_0
100
AcDbText
  0
LINE
  5
379
100
AcDbEntity
  8
0
100
AcDbLine
  6
BYLAYER
 10
0
 20
12
 11
278.4
 21
12
  0
LINE
  5
37A
100
AcDbEntity
  8
0
100
AcDbLine
  6
BYLAYER
 10
0
 20
6
 11
278.4
 21
6
  0
LINE
  5
37B
100
AcDbEntity
  8
0
100
AcDbLine
  6
BYLAYER
 10
0
 20
0
 11
278.4
 21
0
  0
LINE
  5
37C
100
AcDbEntity
  8
0
100
AcDbLine
  6
BYLAYER
 10
96.85
 20
30
 11
278.4
 21
30
  0
LINE
  5
37D
100
AcDbEntity
  8
0
100
AcDbLine
  6
BYLAYER
 10
96.85
 20
24
 11
278.4
 21
24
  0
LINE
  5
37E
100
AcDbEntity
  8
0
100
AcDbLine
  6
BYLAYER
 10
96.85
 20
18
 11
278.4
 21
18
  0
LWPOLYLINE
  5
37F
100
AcDbEntity
  8
0
100
AcDbPolyline
  6
BYLAYER
370
0
 90
     2
 70
     1
 10
0
  20
36
 10
278.4
  20
36
  0
LWPOLYLINE
  5
380
100
AcDbEntity
  8
0
100
AcDbPolyline
  6
BYLAYER
 90
     2
 70
     1
 10
278.4
  20
186
 10
0
  20
186
  0
LINE
  5
381
100
AcDbEntity
  8
0
100
AcDbLine
  6
BYLAYER
 10
0
 20
0
 11
0
 21
186
  0
TEXT
  5
382
100
AcDbEntity
  8
0
100
AcDbText
  6
BYLAYER
 10
63.8643398403977
 20
7.09411371042404
 40
2.8
  1
(04)23322629
  7
Font_0
100
AcDbText
  0
TEXT
  5
383
100
AcDbEntity
  8
0
100
AcDbText
  6
BYLAYER
 10
22.1680110084321
 20
15.7553550725962
 40
2.8
  1
CAM YORK INDUSTRIAL CO.,LTD.
  7
Font_0
100
AcDbText
  0
TEXT
  5
384
100
AcDbEntity
  8
0
100
AcDbText
  6
BYLAYER
 10
22.0468952754036
 20
26
 40
7
  1
ｫﾘｷﾔ､uｷ~ｪﾑ･ｳｭｭ､ｽ･q
  7
Font_0
100
AcDbText
  0
ARC
  5
385
100
AcDbEntity
  8
0
100
AcDbCircle
  6
BYLAYER
 10
5.4252294212235
 20
17.1818752606574
 40
0.704372460813671
100
AcDbArc
 50
233.852980631667
 51
29.2500716369477
  0
TEXT
  5
386
100
AcDbEntity
  8
0
100
AcDbText
  6
BYLAYER
 10
3.5
 20
1.5
 40
3
  1
ｳﾆｵ�
  7
Font_0
 72
1
 11
6.5
 21
3
100
AcDbText
 73
2
  0
TEXT
  5
387
100
AcDbEntity
  8
0
100
AcDbText
  6
BYLAYER
 10
2.6
 20
7.3
 40
3
  1
TEL
  7
Font_0
100
AcDbText
  0
ARC
  5
388
100
AcDbEntity
  8
0
100
AcDbCircle
  6
BYLAYER
 10
10.1054905349494
 20
24.350263158651
 40
4.41008790801462
100
AcDbArc
 50
90
 51
0
  0
CIRCLE
  5
389
100
AcDbEntity
  8
0
100
AcDbCircle
  6
BYLAYER
 10
10.1054905349494
 20
24.350263158651
 40
7.62237416200057
  0
CIRCLE
  5
38A
100
AcDbEntity
  8
0
100
AcDbCircle
  6
BYLAYER
 10
10.1054905349494
 20
24.350263158651
 40
9.36463111331499
  0
ARC
  5
38B
100
AcDbEntity
  8
0
100
AcDbCircle
  6
BYLAYER
 10
6.23761506796892
 20
31.9876821284788
 40
0.704372460813671
100
AcDbArc
 50
113.852980631667
 51
269.250071636948
  0
ARC
  5
38C
100
AcDbEntity
  8
0
100
AcDbCircle
  6
BYLAYER
 10
2.46807156512152
 20
20.4823876916705
 40
0.704372460813671
100
AcDbArc
 50
203.852980631667
 51
359.250071636948
  0
ARC
  5
38D
100
AcDbEntity
  8
0
100
AcDbCircle
  6
BYLAYER
 10
1.55735395424306
 20
24.8192942304852
 40
0.704372460813671
100
AcDbArc
 50
173.852980631667
 51
329.250071636948
  0
ARC
  5
38E
100
AcDbEntity
  8
0
100
AcDbCircle
  6
BYLAYER
 10
2.93710263695578
 20
29.0305242723768
 40
0.704372460813671
100
AcDbArc
 50
143.852980631667
 51
299.250071636948
  0
LINE
  5
38F
100
AcDbEntity
  8
0
100
AcDbLine
  6
BYLAYER
 10
62
 20
12
 11
62
 21
6
  0
TEXT
  5
390
100
AcDbEntity
  8
0
100
AcDbText
  6
BYLAYER
 10
51.8
 20
7.2
 40
3
  1
FAX
  7
Font_0
100
AcDbText
  0
LINE
  5
391
100
AcDbEntity
  8
0
100
AcDbLine
  6
BYLAYER
 10
49.4
 20
12
 11
49.4
 21
6
  0
TEXT
  5
392
100
AcDbEntity
  8
0
100
AcDbText
  6
BYLAYER
 10
43.3478047909238
 20
7.2
 40
2.8
  1
~8
  7
Font_0
100
AcDbText
  0
LINE
  5
393
100
AcDbEntity
  8
0
100
AcDbLine
  6
BYLAYER
 10
11.8
 20
12
 11
11.8
 21
0
  0
TEXT
  5
394
100
AcDbEntity
  8
0
100
AcDbText
  6
BYLAYER
 10
12.8764304985659
 20
7.2
 40
2.8
  1
(04)23322627
  7
Font_0
100
AcDbText
  0
ARC
  5
395
100
AcDbEntity
  8
0
100
AcDbCircle
  6
BYLAYER
 10
14.7857516486752
 20
31.5186510566446
 40
0.704372460813671
100
AcDbArc
 50
53.8529806316668
 51
209.250071636948
  0
ARC
  5
396
100
AcDbEntity
  8
0
100
AcDbCircle
  6
BYLAYER
 10
10.5745216067836
 20
32.8983997393573
 40
0.704372460813671
100
AcDbArc
 50
83.8529806316668
 51
239.250071636948
  0
ARC
  5
397
100
AcDbEntity
  8
0
100
AcDbCircle
  6
BYLAYER
 10
13.9733660019298
 20
16.7128441888231
 40
0.704372460813671
100
AcDbArc
 50
293.852980631667
 51
89.2500716369476
  0
ARC
  5
398
100
AcDbEntity
  8
0
100
AcDbCircle
  6
BYLAYER
 10
9.63645946311512
 20
15.8021265779447
 40
0.704372460813671
100
AcDbArc
 50
263.852980631667
 51
59.2500716369476
  0
ARC
  5
399
100
AcDbEntity
  8
0
100
AcDbCircle
  6
BYLAYER
 10
17.273878432943
 20
19.6700020449251
 40
0.704372460813671
100
AcDbArc
 50
323.852980631667
 51
119.250071636948
  0
LINE
  5
39A
100
AcDbEntity
  8
0
100
AcDbLine
  6
BYLAYER
 10
14.515578442964
 20
24.350263158651
 11
15.4411524483498
 21
24.350263158651
  0
LINE
  5
39B
100
AcDbEntity
  8
0
100
AcDbLine
  6
BYLAYER
 10
10.1054905349494
 20
28.7603510666656
 11
15.2233703294355
 21
28.7603510666656
  0
TEXT
  5
39C
100
AcDbEntity
  8
0
100
AcDbText
  6
BYLAYER
 10
7.49210581170385
 20
21.8477388856442
 40
5
  1
Y
  7
Font_0
100
AcDbText
  0
ARC
  5
39D
100
AcDbEntity
  8
0
100
AcDbCircle
  6
BYLAYER
 10
18.6536271156557
 20
23.8812320868167
 40
0.704372460813671
100
AcDbArc
 50
353.852980631667
 51
149.250071636947
  0
ARC
  5
39E
100
AcDbEntity
  8
0
100
AcDbCircle
  6
BYLAYER
 10
17.7429095047772
 20
28.2181386256314
 40
0.704372460813671
100
AcDbArc
 50
23.8529806316668
 51
179.250071636948
  0
LINE
  5
39F
100
AcDbEntity
  8
0
100
AcDbLine
  6
BYLAYER
 10
114
 20
36
 11
114
 21
0
  0
TEXT
  5
3A0
100
AcDbEntity
  8
0
100
AcDbText
  6
BYLAYER
 10
100.4
 20
7.4
 40
3
  1
ｫ~ ｦW
  7
Font_0
100
AcDbText
  0
LINE
  5
3A1
100
AcDbEntity
  8
0
100
AcDbLine
  6
BYLAYER
 10
97.15
 20
36
 11
97.15
 21
0
  0
LINE
  5
3A2
100
AcDbEntity
  8
0
100
AcDbLine
  6
BYLAYER
 10
96.85
 20
36
 11
96.85
 21
0
  0
LWPOLYLINE
  5
3A3
100
AcDbEntity
  8
0
100
AcDbPolyline
  6
BYLAYER
370
0
 90
     4
 10
96.85
  20
36
 10
96.85
  20
0
 10
97.15
  20
0
 10
97.15
  20
36
  0
TEXT
  5
3A4
100
AcDbEntity
  8
0
100
AcDbText
  6
BYLAYER
 10
100.4
 20
1.6
 40
3
  1
ｹﾏ ｸｹ
  7
Font_0
100
AcDbText
  0
TEXT
  5
3A5
100
AcDbEntity
  8
0
100
AcDbText
  6
BYLAYER
 10
100.4
 20
31.6
 40
3
  1
･D ｺﾞ
  7
Font_0
100
AcDbText
  0
TEXT
  5
3A6
100
AcDbEntity
  8
0
100
AcDbText
  6
BYLAYER
 10
100.4
 20
19.6
 40
3
  1
ﾃｸ ｹﾏ
  7
Font_0
100
AcDbText
  0
TEXT
  5
3A7
100
AcDbEntity
  8
0
100
AcDbText
  6
BYLAYER
 10
100.4
 20
25.4
 40
3
  1
ｮﾖ ｹ�
  7
Font_0
100
AcDbText
  0
TEXT
  5
3A8
100
AcDbEntity
  8
0
100
AcDbText
  6
BYLAYER
 10
100.316862435203
 20
13.8
 40
3
  1
ｾ� ｺﾘ
  7
Font_0
100
AcDbText
  0
LINE
  5
3A9
100
AcDbEntity
  8
0
100
AcDbLine
  6
BYLAYER
 10
195.15
 20
36
 11
195.15
 21
0
  0
LINE
  5
3AA
100
AcDbEntity
  8
0
100
AcDbLine
  6
BYLAYER
 10
194.85
 20
36
 11
194.85
 21
0
  0
LINE
  5
3AB
100
AcDbEntity
  8
0
100
AcDbLine
  6
BYLAYER
 10
195.025
 20
36
 11
195.025
 21
0
  0
TEXT
  5
3AC
100
AcDbEntity
  8
0
100
AcDbText
  6
BYLAYER
 10
146.967830348543
 20
7.5
 40
3
  1
ｻsｹﾏ､魘ﾁ
  7
Font_0
100
AcDbText
  0
LINE
  5
3AD
100
AcDbEntity
  8
0
100
AcDbLine
  6
BYLAYER
 10
163
 20
36
 11
163
 21
0
  0
LINE
  5
3AE
100
AcDbEntity
  8
0
100
AcDbLine
  6
BYLAYER
 10
144
 20
36
 11
144
 21
0
  0
TEXT
  5
3AF
100
AcDbEntity
  8
0
100
AcDbText
  6
BYLAYER
 10
147.076922819997
 20
1.5
 40
3
  1
ｹqｸ｣ｽsｸｹ
  7
Font_0
100
AcDbText
  0
TEXT
  5
3B0
100
AcDbEntity
  8
0
100
AcDbText
  6
BYLAYER
 10
148.5
 20
31.5
 40
3
  1
ｧ� ｽ�
  7
Font_0
100
AcDbText
  0
TEXT
  5
3B1
100
AcDbEntity
  8
0
100
AcDbText
  6
BYLAYER
 10
148.5
 20
25.5
 40
3
  1
ｼﾆ ｶq
  7
Font_0
100
AcDbText
  0
TEXT
  5
3B2
100
AcDbEntity
  8
0
100
AcDbText
  6
BYLAYER
 10
148.5
 20
19.5
 40
3
  1
ｳ� ｦ�
  7
Font_0
100
AcDbText
  0
TEXT
  5
3B3
100
AcDbEntity
  8
0
100
AcDbText
  6
BYLAYER
 10
146.967830348543
 20
13.5
 40
3
  1
ｪ揵ｱｳBｲz
  7
Font_0
100
AcDbText
  0
LINE
  5
3B4
100
AcDbEntity
  8
0
100
AcDbLine
  6
BYLAYER
 10
278.4
 20
186
 11
278.4
 21
0
  0
TEXT
  5
3B5
100
AcDbEntity
  8
0
100
AcDbText
  6
BYLAYER
 10
235
 20
31.5
 40
3
  1
ｧ�   ｧ�   ､ｺ   ｮe
  7
Font_0
100
AcDbText
  0
LINE
  5
3B6
100
AcDbEntity
  8
0
100
AcDbLine
  6
BYLAYER
 10
232
 20
36
 11
232
 21
0
  0
LINE
  5
3B7
100
AcDbEntity
  8
0
100
AcDbLine
  6
BYLAYER
 10
213
 20
36
 11
213
 21
0
  0
TEXT
  5
3B8
100
AcDbEntity
  8
0
100
AcDbText
  6
BYLAYER
 10
218.659856969007
 20
31.5
 40
3
  1
ｭtｳd､H
  7
Font_0
100
AcDbText
  0
ENDBLK
  5
3B9
100
AcDbEntity
  8
0
 67
     1
100
AcDbBlockEnd
  0
BLOCK
  5
3BA
100
AcDbEntity
  8
0
100
AcDbBlockBegin
  2
GENAXEH
 70
    0
 10
0
 20
0
 30
0.0
  3
GENAXEH
  1

  0
LINE
  5
3BB
100
AcDbEntity
  8
0
100
AcDbLine
  6
BYLAYER
 10
-1
 20
0
 11
1
 21
0
  0
ENDBLK
  5
3BC
100
AcDbEntity
  8
0
 67
     1
100
AcDbBlockEnd
  0
BLOCK
  5
3BD
100
AcDbEntity
  8
0
100
AcDbBlockBegin
  2
A$C36D836D4
 70
    0
 10
0
 20
0
 30
0.0
  3
A$C36D836D4
  1

  0
LINE
  5
3BE
100
AcDbEntity
  8
BASE
100
AcDbLine
  6
BYLAYER
 10
-156.592114756201
 20
-85.2890618578437
 11
-73.3421147562014
 21
-85.2890618578437
  0
LINE
  5
3BF
100
AcDbEntity
  8
BASE
100
AcDbLine
  6
BYLAYER
 10
-156.592114756201
 20
-91.2890618578437
 11
-73.3421147562014
 21
-91.2890618578437
  0
LINE
  5
3C0
100
AcDbEntity
  8
BASE
100
AcDbLine
  6
BYLAYER
 10
-156.592114756201
 20
-97.2890618578437
 11
-73.3421147562014
 21
-97.2890618578437
  0
LINE
  5
3C1
100
AcDbEntity
  8
BASE
100
AcDbLine
  6
BYLAYER
 10
-156.592114756201
 20
-103.289061857844
 11
-73.3421147562014
 21
-103.289061857844
  0
LINE
  5
3C2
100
AcDbEntity
  8
BASE
100
AcDbLine
  6
BYLAYER
 10
-156.592114756201
 20
-109.289061857844
 11
-73.3421147562014
 21
-109.289061857844
  0
LINE
  5
3C3
100
AcDbEntity
  8
BASE
100
AcDbLine
  6
BYLAYER
 10
-156.592114756201
 20
-115.289061857844
 11
-73.3421147562014
 21
-115.289061857844
  0
LINE
  5
3C4
100
AcDbEntity
  8
BASE
100
AcDbLine
  6
BYLAYER
 10
-156.592114756201
 20
-121.289061857844
 11
-73.3421147562014
 21
-121.289061857844
  0
LINE
  5
3C5
100
AcDbEntity
  8
BASE
100
AcDbLine
  6
BYLAYER
 10
-156.592114756201
 20
-127.289061857844
 11
-73.3421147562014
 21
-127.289061857844
  0
LINE
  5
3C6
100
AcDbEntity
  8
BASE
100
AcDbLine
  6
BYLAYER
 10
-146.592114756201
 20
-85.2890618578437
 11
-146.592114756201
 21
-133.289061857844
  0
LINE
  5
3C7
100
AcDbEntity
  8
BASE
100
AcDbLine
  6
BYLAYER
 10
-156.592114756201
 20
-85.2890618578437
 11
-156.592114756201
 21
-133.289061857844
  0
LINE
  5
3C8
100
AcDbEntity
  8
BASE
100
AcDbLine
  6
BYLAYER
 10
-136.592114756201
 20
-85.2890618578437
 11
-136.592114756201
 21
-133.289061857844
  0
TEXT
  5
3C9
100
AcDbEntity
  8
BASE
100
AcDbText
  6
BYLAYER
 10
-152.287315422519
 20
-120.581955076657
 40
3.5
  1
B
  7
Font_0
 72
1
 11
-151.412315422519
 21
-120.581955076657
100
AcDbText
  0
TEXT
  5
3CA
100
AcDbEntity
  8
BASE
100
AcDbText
  6
BYLAYER
 10
-154.338363967876
 20
-132.581955076657
 40
3.5
  1
ｶｵｦｸ
  7
Font_0
 72
1
 11
-150.838363967876
 21
-132.581955076657
100
AcDbText
  0
TEXT
  5
3CB
100
AcDbEntity
  8
BASE
100
AcDbText
  6
BYLAYER
 10
-151.961433062886
 20
-126.581955076657
 40
3.5
  1
A
  7
Font_0
 72
1
 11
-151.086433062886
 21
-126.581955076657
100
AcDbText
  0
TEXT
  5
3CC
100
AcDbEntity
  8
0
100
AcDbText
  6
BYLAYER
 10
-125.857609278239
 20
-132.019757538773
 40
3.5
  1
ｹﾏ
  7
Font_0
 11
-125.857609278239
 21
-128.519757538773
100
AcDbText
 73
3
  0
TEXT
  5
3CD
100
AcDbEntity
  8
0
100
AcDbText
  6
BYLAYER
 10
-112.160031551964
 20
-132.156603581708
 40
3.5
  1
ｸｹ
  7
Font_0
 11
-112.160031551964
 21
-128.656603581708
100
AcDbText
 73
3
  0
TEXT
  5
3CE
100
AcDbEntity
  8
BASE
100
AcDbText
  6
BYLAYER
 10
-152.150339695197
 20
-114.581955076657
 40
3.5
  1
C
  7
Font_0
 72
1
 11
-151.275339695197
 21
-114.581955076657
100
AcDbText
  0
LINE
  5
3CF
100
AcDbEntity
  8
BASE
100
AcDbLine
  6
BYLAYER
 10
-92.7050670689118
 20
-85.2890618578437
 11
-92.7050670689118
 21
-133.289061857844
  0
LINE
  5
3D0
100
AcDbEntity
  8
BASE
100
AcDbLine
  6
BYLAYER
 10
-82.7050670689118
 20
-85.2890618578437
 11
-82.7050670689118
 21
-133.289061857844
  0
TEXT
  5
3D1
100
AcDbEntity
  8
0
100
AcDbText
  6
BYLAYER
 10
-91.2050670689118
 20
-132.72329119719
 40
3.5
  1
ｪｩ･ｻ
  7
Font_0
 72
1
 11
-87.7050670689118
 21
-130.97329119719
100
AcDbText
 73
2
  0
TEXT
  5
3D2
100
AcDbEntity
  8
BASE
100
AcDbText
  6
BYLAYER
 10
-81.5235909125566
 20
-132.581955076657
 40
3.5
  1
ｼﾆｶq
  7
Font_0
 72
1
 11
-78.0235909125566
 21
-132.581955076657
100
AcDbText
  0
TEXT
  5
3D3
100
AcDbEntity
  8
BASE
100
AcDbText
  6
BYLAYER
 10
-79.1985909125566
 20
-126.581955076657
 40
3.5
  1
1
  7
Font_0
 72
1
 11
-78.3235909125566
 21
-126.581955076657
100
AcDbText
  0
TEXT
  5
3D4
100
AcDbEntity
  8
BASE
100
AcDbText
  6
BYLAYER
 10
-79.1985909125566
 20
-120.581955076657
 40
3.5
  1
1
  7
Font_0
 72
1
 11
-78.3235909125566
 21
-120.581955076657
100
AcDbText
  0
TEXT
  5
3D5
100
AcDbEntity
  8
BASE
100
AcDbText
  6
BYLAYER
 10
-79.1985909125566
 20
-114.581955076657
 40
3.5
  1
1
  7
Font_0
 72
1
 11
-78.3235909125566
 21
-114.581955076657
100
AcDbText
  0
ENDBLK
  5
3D6
100
AcDbEntity
  8
0
 67
     1
100
AcDbBlockEnd
  0
BLOCK
  5
3D7
100
AcDbEntity
  8
0
100
AcDbBlockBegin
  2
A$C520435C5
 70
    0
 10
0
 20
0
 30
0.0
  3
A$C520435C5
  1

  0
LINE
  5
3D8
100
AcDbEntity
  8
CEN
100
AcDbLine
  6
BYLAYER
 10
42.4999999576461
 20
37.5000000875314
 11
42.4999999576461
 21
8.75313617E-8
  0
CIRCLE
  5
3D9
100
AcDbEntity
  8
BASE
100
AcDbCircle
  6
BYLAYER
 10
42.4999999576461
 20
42.5000000875313
 40
31.25
  0
CIRCLE
  5
3DA
100
AcDbEntity
  8
BASE
100
AcDbCircle
  6
BYLAYER
 10
42.4999999576461
 20
42.5000000875313
 40
8
  0
CIRCLE
  5
3DB
100
AcDbEntity
  8
BASE
100
AcDbCircle
  6
BYLAYER
 10
42.4999999576461
 20
42.5000000875313
 40
25.5
  0
CIRCLE
  5
3DC
100
AcDbEntity
  8
BASE
100
AcDbCircle
  6
BYLAYER
 10
42.4999999576461
 20
42.5000000875313
 40
28.5
  0
CIRCLE
  5
3DD
100
AcDbEntity
  8
BASE
100
AcDbCircle
  6
BYLAYER
 10
42.4999999576461
 20
42.5000000875313
 40
16.25
  0
CIRCLE
  5
3DE
100
AcDbEntity
  8
BASE
100
AcDbCircle
  6
BYLAYER
 10
42.4999999576461
 20
42.5000000875313
 40
14
  0
LINE
  5
3DF
100
AcDbEntity
  8
CEN
100
AcDbLine
  6
BYLAYER
 10
47.4999999576461
 20
42.5000000875313
 11
84.9999999576461
 21
42.5000000875313
  0
LINE
  5
3E0
100
AcDbEntity
  8
CEN
100
AcDbLine
  6
BYLAYER
 10
42.4999999576461
 20
47.5000000875313
 11
42.4999999576461
 21
85.0000000875314
  0
LINE
  5
3E1
100
AcDbEntity
  8
CEN
100
AcDbLine
  6
BYLAYER
 10
37.4999999576461
 20
42.5000000875313
 11
-4.23538893E-8
 21
42.5000000875313
  0
LINE
  5
3E2
100
AcDbEntity
  8
HIDDEN
100
AcDbLine
  6
BYLAYER
 10
40.4999999576461
 20
50.2459667799462
 11
40.4999999576461
 21
44.7360680650312
  0
LINE
  5
3E3
100
AcDbEntity
  8
HIDDEN
100
AcDbLine
  6
BYLAYER
 10
44.4999999576461
 20
50.2459667799462
 11
44.4999999576461
 21
44.7360680650312
  0
LINE
  5
3E4
100
AcDbEntity
  8
HIDDEN
100
AcDbLine
  6
BYLAYER
 10
41.2999999576461
 20
50.4094880608454
 11
41.2999999576461
 21
45.2495455045049
  0
LINE
  5
3E5
100
AcDbEntity
  8
HIDDEN
100
AcDbLine
  6
BYLAYER
 10
43.6999999576461
 20
50.4094880608454
 11
43.6999999576461
 21
45.2495455045049
  0
LINE
  5
3E6
100
AcDbEntity
  8
CEN
100
AcDbLine
  6
BYLAYER
 10
42.4999999576461
 20
40.0000000875313
 11
42.4999999576461
 21
45.0000000875313
  0
CIRCLE
  5
3E7
100
AcDbEntity
  8
BASE
100
AcDbCircle
  6
BYLAYER
 10
42.4999999576461
 20
42.5000000875313
 40
3
  0
LINE
  5
3E8
100
AcDbEntity
  8
CEN
100
AcDbLine
  6
BYLAYER
 10
39.9999999576461
 20
42.5000000875313
 11
44.9999999576461
 21
42.5000000875313
  0
ENDBLK
  5
3E9
100
AcDbEntity
  8
0
 67
     1
100
AcDbBlockEnd
  0
BLOCK
  5
3EA
100
AcDbEntity
  8
0
100
AcDbBlockBegin
  2
A$C60F9129D
 70
    0
 10
0
 20
0
 30
0.0
  3
A$C60F9129D
  1

  0
LINE
  5
3EB
100
AcDbEntity
  8
BASE
100
AcDbLine
  6
BYLAYER
 10
56.8497610654588
 20
24.5009881171584
 11
72.8497610654588
 21
24.5009881171584
  0
LINE
  5
3EC
100
AcDbEntity
  8
BASE
100
AcDbLine
  6
BYLAYER
 10
56.8497610654588
 20
31.5009881171584
 11
72.8497610654588
 21
31.5009881171584
  0
LINE
  5
3ED
100
AcDbEntity
  8
BASE
100
AcDbLine
  6
BYLAYER
 10
56.8497610654588
 20
6.50098811715838
 11
72.8497610654588
 21
6.50098811715838
  0
LINE
  5
3EE
100
AcDbEntity
  8
HIDDEN
100
AcDbLine
  6
BYLAYER
 10
56.8497610654588
 20
13.5009881171584
 11
72.8497610654588
 21
13.5009881171584
  0
LINE
  5
3EF
100
AcDbEntity
  8
DIM
100
AcDbLine
  6
BYLAYER
 62
0
370
  -2
 10
52.3497610654587
 20
10.5745178828921
 11
52.3497610654587
 21
4.15013925290424
  0
LINE
  5
3F0
100
AcDbEntity
  8
DIM
100
AcDbLine
  6
BYLAYER
 62
0
370
  -2
 10
56.3497610654587
 20
9.93848811715834
 11
56.3497610654587
 21
4.15013925290424
  0
LINE
  5
3F1
100
AcDbEntity
  8
DIM
100
AcDbLine
  6
BYLAYER
 62
0
370
  -2
 10
52.5297610654587
 20
4.33013925290423
 11
56.1697610654587
 21
4.33013925290423
  0
LINE
  5
3F2
100
AcDbEntity
  8
DIM
100
AcDbLine
  6
BYLAYER
 62
0
370
  -2
 10
56.3497610654587
 20
4.33013925290423
 11
88.2797610654587
 21
4.33013925290423
  0
SOLID
  5
3F3
100
AcDbEntity
  8
DIM
100
AcDbTrace
 10
52.3497610654587
 20
4.33013925290423
 30
0.0
 11
52.5297610654587
 21
4.30013925290423
 31
0.0
 12
52.5297610654587
 22
4.36013925290423
 32
0.0
 13
52.5297610654587
 23
4.36013925290423
 33
0.0
  0
SOLID
  5
3F4
100
AcDbEntity
  8
DIM
100
AcDbTrace
 10
56.1697610654587
 20
4.36013925290423
 30
0.0
 11
56.1697610654587
 21
4.30013925290423
 31
0.0
 12
56.3497610654587
 22
4.33013925290423
 32
0.0
 13
56.3497610654587
 23
4.33013925290423
 33
0.0
  0
TEXT
  5
3F5
100
AcDbEntity
  8
DIM
 62
0
100
AcDbText
  6
BYLAYER
 62
0
 10
88.8497610654587
 20
4.24013925290423
 40
0.18
  1
4.0000
  7
Font_0
 72
1
 11
89.1197610654587
 21
4.33013925290423
100
AcDbText
 73
2
  0
LINE
  5
3F6
100
AcDbEntity
  8
DIM
100
AcDbLine
  6
BYLAYER
 62
0
370
  -2
 10
52.3497610654587
 20
10.4384881171583
 11
52.3497610654587
 21
4.76934530979634E-7
  0
LINE
  5
3F7
100
AcDbEntity
  8
DIM
100
AcDbLine
  6
BYLAYER
 62
0
370
  -2
 10
73.3497610654587
 20
6.93848811715834
 11
73.3497610654587
 21
4.76934530979634E-7
  0
LINE
  5
3F8
100
AcDbEntity
  8
DIM
100
AcDbLine
  6
BYLAYER
 62
0
370
  -2
 10
52.5297610654587
 20
0.180000476934524
 11
62.3097610654587
 21
0.180000476934524
  0
LINE
  5
3F9
100
AcDbEntity
  8
DIM
100
AcDbLine
  6
BYLAYER
 62
0
370
  -2
 10
73.1697610654587
 20
0.180000476934524
 11
63.3897610654587
 21
0.180000476934524
  0
SOLID
  5
3FA
100
AcDbEntity
  8
DIM
100
AcDbTrace
 10
52.3497610654587
 20
0.180000476934524
 30
0.0
 11
52.5297610654587
 21
0.150000476934522
 31
0.0
 12
52.5297610654587
 22
0.210000476934525
 32
0.0
 13
52.5297610654587
 23
0.210000476934525
 33
0.0
  0
SOLID
  5
3FB
100
AcDbEntity
  8
DIM
100
AcDbTrace
 10
73.1697610654587
 20
0.210000476934525
 30
0.0
 11
73.1697610654587
 21
0.150000476934522
 31
0.0
 12
73.3497610654587
 22
0.180000476934524
 32
0.0
 13
73.3497610654587
 23
0.180000476934524
 33
0.0
  0
TEXT
  5
3FC
100
AcDbEntity
  8
DIM
 62
0
100
AcDbText
  6
BYLAYER
 62
0
 10
62.5347610654587
 20
0.0900004769345236
 40
0.18
  1
21.0000
  7
Font_0
 72
1
 11
62.8497610654587
 21
0.180000476934524
100
AcDbText
 73
2
  0
LINE
  5
3FD
100
AcDbEntity
  8
DIM
100
AcDbLine
  6
BYLAYER
 62
0
370
  -2
 10
65.3497610654587
 20
31.5634881171583
 11
65.3497610654587
 21
35.4088867475892
  0
LINE
  5
3FE
100
AcDbEntity
  8
DIM
100
AcDbLine
  6
BYLAYER
 62
0
370
  -2
 10
73.3497610654587
 20
31.0634881171583
 11
73.3497610654587
 21
35.4088867475892
  0
LINE
  5
3FF
100
AcDbEntity
  8
DIM
100
AcDbLine
  6
BYLAYER
 62
0
370
  -2
 10
65.5297610654587
 20
35.2288867475892
 11
68.8697610654587
 21
35.2288867475892
  0
LINE
  5
400
100
AcDbEntity
  8
DIM
100
AcDbLine
  6
BYLAYER
 62
0
370
  -2
 10
73.1697610654587
 20
35.2288867475892
 11
69.8297610654587
 21
35.2288867475892
  0
SOLID
  5
401
100
AcDbEntity
  8
DIM
100
AcDbTrace
 10
65.3497610654587
 20
35.2288867475892
 30
0.0
 11
65.5297610654587
 21
35.1988867475892
 31
0.0
 12
65.5297610654587
 22
35.2588867475892
 32
0.0
 13
65.5297610654587
 23
35.2588867475892
 33
0.0
  0
SOLID
  5
402
100
AcDbEntity
  8
DIM
100
AcDbTrace
 10
73.1697610654587
 20
35.2588867475892
 30
0.0
 11
73.1697610654587
 21
35.1988867475892
 31
0.0
 12
73.3497610654587
 22
35.2288867475892
 32
0.0
 13
73.3497610654587
 23
35.2288867475892
 33
0.0
  0
TEXT
  5
403
100
AcDbEntity
  8
DIM
 62
0
100
AcDbText
  6
BYLAYER
 62
0
 10
69.0797610654587
 20
35.1388867475892
 40
0.18
  1
8.0000
  7
Font_0
 72
1
 11
69.3497610654587
 21
35.2288867475892
100
AcDbText
 73
2
  0
LINE
  5
404
100
AcDbEntity
  8
BASE
100
AcDbLine
  6
BYLAYER
 10
52.3497610654588
 20
27.2289285856908
 11
52.3497610654588
 21
10.773047648626
  0
LINE
  5
405
100
AcDbEntity
  8
DIM
100
AcDbLine
  6
BYLAYER
 62
0
370
  -2
 10
54.2872610654587
 20
26.5009881171583
 11
48.3699477433158
 21
26.5009881171583
  0
LINE
  5
406
100
AcDbEntity
  8
DIM
100
AcDbLine
  6
BYLAYER
 62
0
370
  -2
 10
54.2872610654587
 20
11.5009881171583
 11
48.3699477433158
 21
11.5009881171583
  0
LINE
  5
407
100
AcDbEntity
  8
DIM
100
AcDbLine
  6
BYLAYER
 62
0
370
  -2
 10
48.5499477433158
 20
26.3209881171583
 11
48.5499477433158
 21
19.1809881171583
  0
LINE
  5
408
100
AcDbEntity
  8
DIM
100
AcDbLine
  6
BYLAYER
 62
0
370
  -2
 10
48.5499477433158
 20
11.6809881171583
 11
48.5499477433158
 21
18.8209881171583
  0
SOLID
  5
409
100
AcDbEntity
  8
DIM
100
AcDbTrace
 10
48.5199477433158
 20
26.3209881171583
 30
0.0
 11
48.5799477433158
 21
26.3209881171583
 31
0.0
 12
48.5499477433158
 22
26.5009881171583
 32
0.0
 13
48.5499477433158
 23
26.5009881171583
 33
0.0
  0
SOLID
  5
40A
100
AcDbEntity
  8
DIM
100
AcDbTrace
 10
48.5499477433158
 20
11.5009881171583
 30
0.0
 11
48.5799477433158
 21
11.6809881171583
 31
0.0
 12
48.5199477433158
 22
11.6809881171583
 32
0.0
 13
48.5199477433158
 23
11.6809881171583
 33
0.0
  0
TEXT
  5
40B
100
AcDbEntity
  8
DIM
 62
0
100
AcDbText
  6
BYLAYER
 62
0
 10
48.3699477433157
 20
18.9109881171583
 40
0.18
  1
Φ15
  7
Font_0
 72
1
 11
48.5499477433157
 21
19.0009881171583
100
AcDbText
 73
2
  0
LINE
  5
40C
100
AcDbEntity
  8
CEN
100
AcDbLine
  6
BYLAYER
 10
14.9999989478504
 20
34.0009881171584
 11
14.9999989478504
 21
4.00098811715838
  0
LINE
  5
40D
100
AcDbEntity
  8
DIM
100
AcDbLine
  6
BYLAYER
 62
0
370
  -2
 10
52.7872610654587
 20
28.0009881171583
 11
44.3126344211728
 21
28.0009881171583
  0
LINE
  5
40E
100
AcDbEntity
  8
DIM
100
AcDbLine
  6
BYLAYER
 62
0
370
  -2
 10
52.7872610654587
 20
10.0009881171583
 11
44.3126344211728
 21
10.0009881171583
  0
LINE
  5
40F
100
AcDbEntity
  8
DIM
100
AcDbLine
  6
BYLAYER
 62
0
370
  -2
 10
44.4926344211728
 20
27.8209881171583
 11
44.4926344211728
 21
19.1809881171583
  0
LINE
  5
410
100
AcDbEntity
  8
DIM
100
AcDbLine
  6
BYLAYER
 62
0
370
  -2
 10
44.4926344211728
 20
10.1809881171583
 11
44.4926344211728
 21
18.8209881171583
  0
SOLID
  5
411
100
AcDbEntity
  8
DIM
100
AcDbTrace
 10
44.4626344211728
 20
27.8209881171583
 30
0.0
 11
44.5226344211728
 21
27.8209881171583
 31
0.0
 12
44.4926344211728
 22
28.0009881171583
 32
0.0
 13
44.4926344211728
 23
28.0009881171583
 33
0.0
  0
SOLID
  5
412
100
AcDbEntity
  8
DIM
100
AcDbTrace
 10
44.4926344211728
 20
10.0009881171583
 30
0.0
 11
44.5226344211728
 21
10.1809881171583
 31
0.0
 12
44.4626344211728
 22
10.1809881171583
 32
0.0
 13
44.4626344211728
 23
10.1809881171583
 33
0.0
  0
TEXT
  5
413
100
AcDbEntity
  8
DIM
 62
0
100
AcDbText
  6
BYLAYER
 62
0
 10
44.3126344211728
 20
18.9109881171583
 40
0.18
  1
Φ18
  7
Font_0
 72
1
 11
44.4926344211728
 21
19.0009881171583
100
AcDbText
 73
2
  0
LINE
  5
414
100
AcDbEntity
  8
DIM
100
AcDbLine
  6
BYLAYER
 62
0
370
  -2
 10
18.304178717982
 20
14.0432567041127
 11
18.124178717982
 21
14.0432567041127
  0
LINE
  5
415
100
AcDbEntity
  8
DIM
100
AcDbLine
  6
BYLAYER
 62
0
370
  -2
 10
18.124178717982
 20
14.0432567041127
 11
18.028214151664
 21
14.1955419693598
  0
TEXT
  5
416
100
AcDbEntity
  8
DIM
 62
0
100
AcDbText
  6
BYLAYER
 62
0
 10
18.859178717982
 20
13.9532567041127
 40
0.18
  1
φ11.0000
  7
Font_0
 72
1
 11
19.264178717982
 21
14.0432567041127
100
AcDbText
 73
2
  0
SOLID
  5
417
100
AcDbEntity
  8
DIM
100
AcDbTrace
 10
17.9322495853459
 20
14.347827234607
 30
0.0
 11
18.0028332741228
 21
14.1795478749735
 31
0.0
 12
18.0535950292052
 22
14.2115360637462
 32
0.0
 13
18.0535950292052
 23
14.2115360637462
 33
0.0
  0
LINE
  5
418
100
AcDbEntity
  8
DIM
100
AcDbLine
  6
BYLAYER
 62
0
370
  -2
 10
14.9099989478502
 20
19.0009881171583
 11
15.0899989478502
 21
19.0009881171583
  0
LINE
  5
419
100
AcDbEntity
  8
DIM
100
AcDbLine
  6
BYLAYER
 62
0
370
  -2
 10
14.9999989478503
 20
18.9109881171583
 11
14.9999989478502
 21
19.0909881171583
  0
CIRCLE
  5
41A
100
AcDbEntity
  8
BASE
100
AcDbCircle
  6
BYLAYER
 10
14.9999989478504
 20
19.0009881171584
 40
12.5
  0
CIRCLE
  5
41B
100
AcDbEntity
  8
BASE
100
AcDbCircle
  6
BYLAYER
 10
14.9999989478504
 20
19.0009881171584
 40
9
  0
CIRCLE
  5
41C
100
AcDbEntity
  8
BASE
100
AcDbCircle
  6
BYLAYER
 10
14.9999989478504
 20
19.0009881171584
 40
5.5
  0
CIRCLE
  5
41D
100
AcDbEntity
  8
BASE
100
AcDbCircle
  6
BYLAYER
 10
14.9999989478504
 20
19.0009881171584
 40
7.5
  0
LINE
  5
41E
100
AcDbEntity
  8
DIM
100
AcDbLine
  6
BYLAYER
 62
0
370
  -2
 10
9.605148122294
 20
30.756196786816
 11
9.78514812229399
 21
30.756196786816
  0
LINE
  5
41F
100
AcDbEntity
  8
DIM
100
AcDbLine
  6
BYLAYER
 62
0
370
  -2
 10
9.78514812229399
 20
30.756196786816
 11
9.85813981347599
 21
30.5916604290758
  0
TEXT
  5
420
100
AcDbEntity
  8
DIM
 62
0
100
AcDbText
  6
BYLAYER
 62
0
 10
8.54014812229399
 20
30.6661967868159
 40
0.18
  1
φ25.0000
  7
Font_0
 72
1
 11
8.94514812229399
 21
30.7561967868159
100
AcDbText
 73
2
  0
SOLID
  5
421
100
AcDbEntity
  8
DIM
100
AcDbTrace
 10
9.885562539766
 20
30.6038257109395
 30
0.0
 11
9.83071708718599
 21
30.5794951472122
 31
0.0
 12
9.931131504658
 22
30.4271240713357
 32
0.0
 13
9.931131504658
 23
30.4271240713357
 33
0.0
  0
LINE
  5
422
100
AcDbEntity
  8
DIM
100
AcDbLine
  6
BYLAYER
 62
0
370
  -2
 10
14.9099989478503
 20
19.0009881171583
 11
15.0899989478503
 21
19.0009881171583
  0
LINE
  5
423
100
AcDbEntity
  8
DIM
100
AcDbLine
  6
BYLAYER
 62
0
370
  -2
 10
14.9999989478504
 20
18.9109881171583
 11
14.9999989478504
 21
19.0909881171583
  0
LINE
  5
424
100
AcDbEntity
  8
BASE
100
AcDbLine
  6
BYLAYER
 10
56.3497610654588
 20
7.00098811715838
 11
56.3497610654588
 21
10.0009881171584
  0
LINE
  5
425
100
AcDbEntity
  8
BASE
100
AcDbLine
  6
BYLAYER
 10
56.3497610654588
 20
7.00098811715838
 11
56.8497610654588
 21
6.50098811715838
  0
LINE
  5
426
100
AcDbEntity
  8
HIDDEN
100
AcDbLine
  6
BYLAYER
 10
56.3497610654588
 20
11.5009881171584
 11
56.3497610654588
 21
13.0009881171584
  0
LINE
  5
427
100
AcDbEntity
  8
HIDDEN
100
AcDbLine
  6
BYLAYER
 10
56.3497610654588
 20
13.0009881171584
 11
56.8497610654588
 21
13.5009881171584
  0
LINE
  5
428
100
AcDbEntity
  8
BASE
100
AcDbLine
  6
BYLAYER
 10
52.3497610654588
 20
10.5009881171584
 11
52.3497610654588
 21
10.773047648626
  0
LINE
  5
429
100
AcDbEntity
  8
BASE
100
AcDbLine
  6
BYLAYER
 10
52.8497610654588
 20
10.0009881171584
 11
52.3497610654588
 21
10.5009881171584
  0
LINE
  5
42A
100
AcDbEntity
  8
HIDDEN
100
AcDbLine
  6
BYLAYER
 10
54.3497610654588
 20
11.5009881171584
 11
52.3497610654588
 21
10.773047648626
  0
LINE
  5
42B
100
AcDbEntity
  8
BASE
100
AcDbLine
  6
BYLAYER
 10
52.8497610654588
 20
10.0009881171584
 11
56.3497610654588
 21
10.0009881171584
  0
LINE
  5
42C
100
AcDbEntity
  8
HIDDEN
100
AcDbLine
  6
BYLAYER
 10
54.3497610654587
 20
11.5009881171584
 11
56.3497610654588
 21
11.5009881171584
  0
TEXT
  5
42D
100
AcDbEntity
  8
DIM
100
AcDbText
  6
BYLAYER
 10
39.4059876884986
 20
36.6122833856465
 40
2
  1
M6x1.0x10L､ｺ､ｻｨ､ﾁｳｵｷ
  7
Font_0
 72
2
 11
59.4059876884986
 21
36.6122833856465
100
AcDbText
  0
LINE
  5
42E
100
AcDbEntity
  8
CEN
100
AcDbLine
  6
BYLAYER
 10
-1.0521496279E-6
 20
19.0009881171584
 11
29.9999989478504
 21
19.0009881171584
  0
LINE
  5
42F
100
AcDbEntity
  8
HIDDEN
100
AcDbLine
  6
BYLAYER
 10
14.9999989478504
 20
24.5009881171584
 11
14.9999989478504
 21
31.5009881171584
  0
LINE
  5
430
100
AcDbEntity
  8
HIDDEN
100
AcDbLine
  6
BYLAYER
 10
12.7999989478504
 20
24.0418213816098
 11
12.7999989478504
 21
31.3058651990313
  0
LINE
  5
431
100
AcDbEntity
  8
HIDDEN
100
AcDbLine
  6
BYLAYER
 10
11.9999989478504
 20
23.6107603458048
 11
11.9999989478504
 21
31.13564921667
  0
LINE
  5
432
100
AcDbEntity
  8
HIDDEN
100
AcDbLine
  6
BYLAYER
 10
17.1999989478504
 20
24.0418213816098
 11
17.1999989478504
 21
31.3058651990313
  0
LINE
  5
433
100
AcDbEntity
  8
HIDDEN
100
AcDbLine
  6
BYLAYER
 10
17.9999989478504
 20
23.6107603458048
 11
17.9999989478504
 21
31.13564921667
  0
LINE
  5
434
100
AcDbEntity
  8
CEN
100
AcDbLine
  6
BYLAYER
 10
65.3497610654588
 20
31.5009881171584
 11
65.3497610654588
 21
24.5009881171584
  0
LINE
  5
435
100
AcDbEntity
  8
BASE
100
AcDbLine
  6
BYLAYER
 10
62.3497610654588
 20
31.5009881171584
 11
62.3497610654588
 21
24.5009881171584
  0
LINE
  5
436
100
AcDbEntity
  8
BASE
100
AcDbLine
  6
BYLAYER
 10
68.3497610654588
 20
31.5009881171584
 11
68.3497610654588
 21
24.5009881171584
  0
LINE
  5
437
100
AcDbEntity
  8
BASE
100
AcDbLine
  6
BYLAYER
 10
56.8497610654588
 20
24.5009881171584
 11
56.3497610654588
 21
25.0009881171584
  0
LINE
  5
438
100
AcDbEntity
  8
DIM
100
AcDbLine
  6
BYLAYER
 62
0
370
  -2
 10
52.3497610654587
 20
27.1664285856907
 11
52.3497610654587
 21
23.0349796425414
  0
LINE
  5
439
100
AcDbEntity
  8
DIM
100
AcDbLine
  6
BYLAYER
 62
0
370
  -2
 10
56.3497610654587
 20
26.4384881171583
 11
56.3497610654587
 21
23.0349796425414
  0
LINE
  5
43A
100
AcDbEntity
  8
DIM
100
AcDbLine
  6
BYLAYER
 62
0
370
  -2
 10
52.5297610654587
 20
23.2149796425414
 11
53.8697610654587
 21
23.2149796425414
  0
LINE
  5
43B
100
AcDbEntity
  8
DIM
100
AcDbLine
  6
BYLAYER
 62
0
370
  -2
 10
56.1697610654587
 20
23.2149796425414
 11
54.8297610654587
 21
23.2149796425414
  0
SOLID
  5
43C
100
AcDbEntity
  8
DIM
100
AcDbTrace
 10
52.3497610654587
 20
23.2149796425414
 30
0.0
 11
52.5297610654587
 21
23.1849796425414
 31
0.0
 12
52.5297610654587
 22
23.2449796425414
 32
0.0
 13
52.5297610654587
 23
23.2449796425414
 33
0.0
  0
SOLID
  5
43D
100
AcDbEntity
  8
DIM
100
AcDbTrace
 10
56.1697610654587
 20
23.2449796425414
 30
0.0
 11
56.1697610654587
 21
23.1849796425414
 31
0.0
 12
56.3497610654587
 22
23.2149796425414
 32
0.0
 13
56.3497610654587
 23
23.2149796425414
 33
0.0
  0
TEXT
  5
43E
100
AcDbEntity
  8
DIM
 62
0
100
AcDbText
  6
BYLAYER
 62
0
 10
54.0797610654587
 20
23.1249796425414
 40
0.18
  1
4.0000
  7
Font_0
 72
1
 11
54.3497610654587
 21
23.2149796425414
100
AcDbText
 73
2
  0
LINE
  5
43F
100
AcDbEntity
  8
BASE
100
AcDbLine
  6
BYLAYER
 10
56.3497610654588
 20
31.0009881171584
 11
56.3497610654588
 21
28.0009881171584
  0
LINE
  5
440
100
AcDbEntity
  8
BASE
100
AcDbLine
  6
BYLAYER
 10
56.3497610654588
 20
31.0009881171584
 11
56.8497610654588
 21
31.5009881171584
  0
LINE
  5
441
100
AcDbEntity
  8
BASE
100
AcDbLine
  6
BYLAYER
 10
52.3497610654588
 20
27.5009881171584
 11
52.3497610654588
 21
27.2289285856908
  0
LINE
  5
442
100
AcDbEntity
  8
BASE
100
AcDbLine
  6
BYLAYER
 10
52.8497610654588
 20
28.0009881171584
 11
52.3497610654588
 21
27.5009881171584
  0
LINE
  5
443
100
AcDbEntity
  8
BASE
100
AcDbLine
  6
BYLAYER
 10
52.8497610654588
 20
28.0009881171584
 11
56.3497610654588
 21
28.0009881171584
  0
LINE
  5
444
100
AcDbEntity
  8
BASE
100
AcDbLine
  6
BYLAYER
 10
56.3497610654588
 20
26.5009881171584
 11
56.3497610654588
 21
25.0009881171584
  0
LINE
  5
445
100
AcDbEntity
  8
BASE
100
AcDbLine
  6
BYLAYER
 10
54.3497610654587
 20
26.5009881171584
 11
56.3497610654588
 21
26.5009881171584
  0
LINE
  5
446
100
AcDbEntity
  8
BASE
100
AcDbLine
  6
BYLAYER
 10
54.3497610654588
 20
26.5009881171584
 11
52.3497610654588
 21
27.2289285856908
  0
LINE
  5
447
100
AcDbEntity
  8
BASE
100
AcDbLine
  6
BYLAYER
 10
73.3497610654588
 20
25.0009881171584
 11
73.3497610654588
 21
13.0009881171584
  0
LINE
  5
448
100
AcDbEntity
  8
BASE
100
AcDbLine
  6
BYLAYER
 10
73.3497610654588
 20
7.00098811715838
 11
73.3497610654588
 21
13.0009881171584
  0
LINE
  5
449
100
AcDbEntity
  8
BASE
100
AcDbLine
  6
BYLAYER
 10
72.8497610654588
 20
6.50098811715838
 11
73.3497610654588
 21
7.00098811715838
  0
LINE
  5
44A
100
AcDbEntity
  8
HIDDEN
100
AcDbLine
  6
BYLAYER
 10
72.8497610654588
 20
13.5009881171584
 11
73.3497610654588
 21
13.0009881171584
  0
LINE
  5
44B
100
AcDbEntity
  8
BASE
100
AcDbLine
  6
BYLAYER
 10
72.8497610654588
 20
24.5009881171584
 11
73.3497610654588
 21
25.0009881171584
  0
LINE
  5
44C
100
AcDbEntity
  8
BASE
100
AcDbLine
  6
BYLAYER
 10
72.8497610654588
 20
31.5009881171584
 11
73.3497610654588
 21
31.0009881171584
  0
LINE
  5
44D
100
AcDbEntity
  8
BASE
100
AcDbLine
  6
BYLAYER
 10
73.3497610654588
 20
31.0009881171584
 11
73.3497610654588
 21
25.0009881171584
  0
ENDBLK
  5
44E
100
AcDbEntity
  8
0
 67
     1
100
AcDbBlockEnd
  0
BLOCK
  5
44F
100
AcDbEntity
  8
0
100
AcDbBlockBegin
  2
A
 70
    0
 10
0
 20
0
 30
0.0
  3
A
  1

  0
TEXT
  5
450
100
AcDbEntity
  8
0
100
AcDbText
  6
BYLAYER
 10
127.674651975441
 20
244.795661972877
 40
2.5
  1
a
  7
Font_0
100
AcDbText
  0
LWPOLYLINE
  5
451
100
AcDbEntity
  8
0
100
AcDbPolyline
  6
BYLAYER
370
0
 90
     3
 70
     1
 10
126.71643944311
  20
244.632620693086
 10
129.71643944311
  20
244.632620693086
 10
128.21643944311
  20
247.230696904439
  0
ENDBLK
  5
452
100
AcDbEntity
  8
0
 67
     1
100
AcDbBlockEnd
  0
BLOCK
  5
453
100
AcDbEntity
  8
0
100
AcDbBlockBegin
  2
B
 70
    0
 10
0
 20
0
 30
0.0
  3
B
  1

  0
LWPOLYLINE
  5
454
100
AcDbEntity
  8
0
100
AcDbPolyline
  6
BYLAYER
370
0
 90
     3
 70
     1
 10
131.70249874082
  20
244.288443720077
 10
135.28174293015
  20
244.288443720077
 10
133.492120835485
  20
247.388160114384
  0
TEXT
  5
455
100
AcDbEntity
  8
0
100
AcDbText
  6
BYLAYER
 10
132.758464625955
 20
244.383450143826
 40
2.5
  1
b
  7
Font_0
100
AcDbText
  0
ENDBLK
  5
456
100
AcDbEntity
  8
0
 67
     1
100
AcDbBlockEnd
  0
BLOCK
  5
457
100
AcDbEntity
  8
0
100
AcDbBlockBegin
  2
C
 70
    0
 10
0
 20
0
 30
0.0
  3
C
  1

  0
LWPOLYLINE
  5
458
100
AcDbEntity
  8
0
100
AcDbPolyline
  6
BYLAYER
370
0
 90
     3
 70
     1
 10
135.509916074992
  20
244.473484482901
 10
139.001038434513
  20
244.473484482901
 10
137.255477254752
  20
247.496885133966
  0
TEXT
  5
459
100
AcDbEntity
  8
0
100
AcDbText
  6
BYLAYER
 10
136.382181305809
 20
244.594791834341
 40
2.5
  1
c
  7
Font_0
100
AcDbText
  0
ENDBLK
  5
45A
100
AcDbEntity
  8
0
 67
     1
100
AcDbBlockEnd
  0
BLOCK
  5
45B
100
AcDbEntity
  8
0
100
AcDbBlockBegin
  2
D
 70
    0
 10
0
 20
0
 30
0.0
  3
D
  1

  0
LWPOLYLINE
  5
45C
100
AcDbEntity
  8
0
100
AcDbPolyline
  6
BYLAYER
370
0
 90
     3
 70
     1
 10
140.763374439689
  20
244.465698913845
 10
144.291976798415
  20
244.465698913845
 10
142.527675619052
  20
247.521558196355
  0
TEXT
  5
45D
100
AcDbEntity
  8
0
100
AcDbText
  6
BYLAYER
 10
141.593202675708
 20
244.519464650768
 40
2.5
  1
d
  7
Font_0
100
AcDbText
  0
ENDBLK
  5
45E
100
AcDbEntity
  8
0
 67
     1
100
AcDbBlockEnd
  0
BLOCK
  5
45F
100
AcDbEntity
  8
0
100
AcDbBlockBegin
  2
A4ｹﾏｮﾘ_JAME_
 70
    0
 10
0
 20
0
 30
0.0
  3
A4ｹﾏｮﾘ_JAME_
  1

  0
POINT
  5
460
100
AcDbEntity
  8
7475A
100
AcDbPoint
 10
289
 20
0
  0
TEXT
  5
461
100
AcDbEntity
  8
0
100
AcDbText
  6
BYLAYER
 10
3.82484782096731
 20
38.4479746826859
 40
5
  1
ｦCｦL､魘ﾁ :
  7
Font_0
100
AcDbText
  0
LINE
  5
462
100
AcDbEntity
  8
0
100
AcDbLine
  6
BYLAYER
 10
49.4
 20
12
 11
49.4
 21
6
  0
TEXT
  5
463
100
AcDbEntity
  8
TEXT
100
AcDbText
  6
BYLAYER
 10
129
 20
19
 40
3.5
  1
JAME
  7
Font_0
100
AcDbText
  0
TEXT
  5
464
100
AcDbEntity
  8
TEXT
100
AcDbText
  6
BYLAYER
 10
179
 20
7
 40
3.5
 41
0.8
  1
20020101
  7
Font_0
100
AcDbText
  0
TEXT
  5
465
100
AcDbEntity
  8
TEXT
100
AcDbText
  6
BYLAYER
 10
179
 20
19
 40
3.5
  1
M/M
  7
Font_0
100
AcDbText
  0
TEXT
  5
466
100
AcDbEntity
  8
TEXT
100
AcDbText
  6
BYLAYER
 10
179
 20
25
 40
3.5
  1
1
  7
Font_0
100
AcDbText
  0
INSERT
  5
467
100
AcDbEntity
  8
0
100
AcDbBlockReference
  6
CONTINUOUS
  2
JAME
 10
0
 20
0
 30
0.0
  0
ENDBLK
  5
468
100
AcDbEntity
  8
0
 67
     1
100
AcDbBlockEnd
  0
BLOCK
  5
469
100
AcDbEntity
  8
0
100
AcDbBlockBegin
  2
A$C08DA6544
 70
    0
 10
0
 20
0
 30
0.0
  3
A$C08DA6544
  1

  0
LINE
  5
46A
100
AcDbEntity
  8
0
100
AcDbLine
  6
BYLAYER
370
0
 10
1.50000034926234
 20
265.999998169733
 11
40.5999019696437
 21
265.999998169733
  0
ARC
  5
46B
100
AcDbEntity
  8
0
100
AcDbCircle
  6
BYLAYER
370
0
 10
190.468770453504
 20
252.404126402961
 40
150.484303067566
100
AcDbArc
 50
148.965648313151
 51
-185.183595453595
  0
ARC
  5
46C
100
AcDbEntity
  8
0
100
AcDbCircle
  6
BYLAYER
370
0
 10
200.602133271572
 20
246.307115864494
 40
162.310485017324
100
AcDbArc
 50
94.0987686919543
 51
-211.03435168685
  0
ARC
  5
46D
100
AcDbEntity
  8
0
100
AcDbCircle
  6
BYLAYER
370
0
 10
201.392326923032
 20
235.280022996894
 40
173.365853989795
100
AcDbArc
 50
49.8093671327706
 51
-265.901231308045
  0
ARC
  5
46E
100
AcDbEntity
  8
0
100
AcDbCircle
  6
BYLAYER
370
0
 10
193.627780671357
 20
226.088875756039
 40
185.397701981583
100
AcDbArc
 50
4.51592929087675
 51
-310.19063286723
  0
ARC
  5
46F
100
AcDbEntity
  8
0
100
AcDbCircle
  6
BYLAYER
370
0
 10
181.630021485501
 20
225.14127529606
 40
197.432824420244
100
AcDbArc
 50
2.48083265154154E-11
 51
-355.484070709124
  0
ARC
  5
470
100
AcDbEntity
  8
0
100
AcDbCircle
  6
BYLAYER
370
0
 10
181.630021487422
 20
225.141275296154
 40
197.432824418323
100
AcDbArc
 50
-40.7485631739287
 51
-360.000000000003
  0
ARC
  5
471
100
AcDbEntity
  8
0
100
AcDbCircle
  6
BYLAYER
370
0
 10
172.515137034546
 20
232.994763937088
 40
209.464383021536
100
AcDbArc
 50
-84.6663698283707
 51
-400.748563173928
  0
ARC
  5
472
100
AcDbEntity
  8
0
100
AcDbCircle
  6
BYLAYER
370
0
 10
182.597445852384
 20
124.999998167923
 40
100.99999999819
100
AcDbArc
 50
-90.0000000000011
 51
-444.666369828372
  0
LINE
  5
473
100
AcDbEntity
  8
0
100
AcDbLine
  6
BYLAYER
370
0
 10
182.597445852382
 20
23.9999981697335
 11
1.50000034926234
 21
23.9999981697335
  0
CIRCLE
  5
474
100
AcDbEntity
  8
0
100
AcDbCircle
  6
BYLAYER
 10
277.716775122327
 20
331.216772942798
 40
2.6
  0
CIRCLE
  5
475
100
AcDbEntity
  8
0
100
AcDbCircle
  6
BYLAYER
 10
186.500000349262
 20
368.999998169734
 40
2.6
  0
CIRCLE
  5
476
100
AcDbEntity
  8
0
100
AcDbCircle
  6
BYLAYER
 10
95.2832255761978
 20
331.216772942798
 40
2.6
  0
CIRCLE
  5
477
100
AcDbEntity
  8
0
100
AcDbCircle
  6
BYLAYER
 10
315.500000349262
 20
239.999998169734
 40
2.6
  0
CIRCLE
  5
478
100
AcDbEntity
  8
0
100
AcDbCircle
  6
BYLAYER
 10
277.716775122327
 20
148.783223396669
 40
2.6
  0
CIRCLE
  5
479
100
AcDbEntity
  8
0
100
AcDbCircle
  6
BYLAYER
 10
186.500000349262
 20
110.999998169734
 40
2.6
  0
CIRCLE
  5
47A
100
AcDbEntity
  8
0
100
AcDbCircle
  6
BYLAYER
 10
95.2832255761978
 20
148.783223396669
 40
2.6
  0
CIRCLE
  5
47B
100
AcDbEntity
  8
0
100
AcDbCircle
  6
BYLAYER
 10
186.500000349263
 20
34.4999981697338
 40
2.6
  0
CIRCLE
  5
47C
100
AcDbEntity
  8
0
100
AcDbCircle
  6
BYLAYER
 10
57.5000003492623
 20
239.999998169734
 40
2.6
  0
LINE
  5
47D
100
AcDbEntity
  8
0
100
AcDbLine
  6
BYLAYER
 10
3.492623364E-7
 20
-1.8302666831E-6
 11
3.492623364E-7
 21
289.999998169734
  0
LINE
  5
47E
100
AcDbEntity
  8
0
100
AcDbLine
  6
BYLAYER
 10
1.50000034926234
 20
-1.8302664557E-6
 11
1.50000034926234
 21
289.999998169734
  0
LINE
  5
47F
100
AcDbEntity
  8
0
100
AcDbLine
  6
BYLAYER
 10
1.50000034926234
 20
289.999998169734
 11
3.492623364E-7
 21
289.999998169734
  0
LINE
  5
480
100
AcDbEntity
  8
0
100
AcDbLine
  6
BYLAYER
 10
1.50000034926234
 20
-1.8302664557E-6
 11
3.492623364E-7
 21
-1.8302666831E-6
  0
CIRCLE
  5
481
100
AcDbEntity
  8
0
100
AcDbCircle
  6
BYLAYER
 10
186.500000349262
 20
239.999998169734
 40
141.5
  0
CIRCLE
  5
482
100
AcDbEntity
  8
0
100
AcDbCircle
  6
BYLAYER
 10
186.500000349262
 20
239.999998169734
 40
102.5
  0
CIRCLE
  5
483
100
AcDbEntity
  8
0
100
AcDbCircle
  6
BYLAYER
 10
186.500000349262
 20
239.999998169734
 40
140
  0
CIRCLE
  5
484
100
AcDbEntity
  8
0
100
AcDbCircle
  6
BYLAYER
 10
277.716775122327
 20
331.216772942798
 40
3.5
  0
CIRCLE
  5
485
100
AcDbEntity
  8
0
100
AcDbCircle
  6
BYLAYER
 10
186.500000349262
 20
368.999998169734
 40
3.5
  0
CIRCLE
  5
486
100
AcDbEntity
  8
0
100
AcDbCircle
  6
BYLAYER
 10
315.500000349262
 20
239.999998169734
 40
3.5
  0
CIRCLE
  5
487
100
AcDbEntity
  8
0
100
AcDbCircle
  6
BYLAYER
 10
277.716775122327
 20
148.783223396669
 40
3.5
  0
CIRCLE
  5
488
100
AcDbEntity
  8
0
100
AcDbCircle
  6
BYLAYER
 10
186.500000349262
 20
110.999998169734
 40
3.5
  0
CIRCLE
  5
489
100
AcDbEntity
  8
0
100
AcDbCircle
  6
BYLAYER
 10
95.2832255761978
 20
331.216772942798
 40
3.5
  0
CIRCLE
  5
48A
100
AcDbEntity
  8
0
100
AcDbCircle
  6
BYLAYER
 10
57.5000003492623
 20
239.999998169734
 40
3.5
  0
CIRCLE
  5
48B
100
AcDbEntity
  8
0
100
AcDbCircle
  6
BYLAYER
 10
95.2832255761978
 20
148.783223396669
 40
3.5
  0
CIRCLE
  5
48C
100
AcDbEntity
  8
0
100
AcDbCircle
  6
BYLAYER
 10
277.716775122327
 20
72.2832233966687
 40
2.6
  0
CIRCLE
  5
48D
100
AcDbEntity
  8
0
100
AcDbCircle
  6
BYLAYER
 10
186.500000349262
 20
34.4999981697335
 40
2.6
  0
CIRCLE
  5
48E
100
AcDbEntity
  8
0
100
AcDbCircle
  6
BYLAYER
 10
95.2832255761978
 20
72.283223396669
 40
2.6
  0
CIRCLE
  5
48F
100
AcDbEntity
  8
0
100
AcDbCircle
  6
BYLAYER
 10
343.000000349262
 20
239.999998169734
 40
2.6
  0
CIRCLE
  5
490
100
AcDbEntity
  8
0
100
AcDbCircle
  6
BYLAYER
 10
305.216775122327
 20
331.216772942799
 40
2.6
  0
CIRCLE
  5
491
100
AcDbEntity
  8
0
100
AcDbCircle
  6
BYLAYER
 10
343.000000349262
 20
239.999998169734
 40
2.6
  0
CIRCLE
  5
492
100
AcDbEntity
  8
0
100
AcDbCircle
  6
BYLAYER
 10
305.216775122327
 20
148.783223396669
 40
2.6
  0
ENDBLK
  5
493
100
AcDbEntity
  8
0
 67
     1
100
AcDbBlockEnd
  0
BLOCK
  5
494
100
AcDbEntity
  8
0
100
AcDbBlockBegin
  2
A$C7924541D
 70
    0
 10
0
 20
0
 30
0.0
  3
A$C7924541D
  1

  0
LINE
  5
495
100
AcDbEntity
  8
0
100
AcDbLine
  6
BYLAYER
 10
11.5000005514557
 20
25.000000320585
 11
11.5000005514557
 21
3.205850305E-7
  0
LINE
  5
496
100
AcDbEntity
  8
0
100
AcDbLine
  6
BYLAYER
 10
9.25000055145529
 20
25.000000320585
 11
9.25000055145529
 21
3.205850021E-7
  0
LINE
  5
497
100
AcDbEntity
  8
PV-5756
100
AcDbLine
  6
BYLAYER
 10
5.514555141E-7
 20
12.5000003205852
 11
5.514555141E-7
 21
17.5000003205853
  0
LINE
  5
498
100
AcDbEntity
  8
PV-5756
100
AcDbLine
  6
BYLAYER
 10
4.00000055145529
 20
17.5000003205853
 11
4.00000055145529
 21
12.5000003205852
  0
LINE
  5
499
100
AcDbEntity
  8
PV-5756
100
AcDbLine
  6
BYLAYER
 10
11.7500005514555
 20
12.500000320585
 11
11.7500005514555
 21
25.000000320585
  0
LINE
  5
49A
100
AcDbEntity
  8
PV-5756
100
AcDbLine
  6
BYLAYER
 10
5.00000055145551
 20
22.5000003205853
 11
5.00000055145551
 21
2.50000032058526
  0
LINE
  5
49B
100
AcDbEntity
  8
PV-5756
100
AcDbLine
  6
BYLAYER
 10
6.50000055145551
 20
2.50000032058526
 11
6.50000055145551
 21
22.5000003205853
  0
LINE
  5
49C
100
AcDbEntity
  8
PV-5756
100
AcDbLine
  6
BYLAYER
 10
11.7500005514555
 20
3.205850305E-7
 11
11.7500005514555
 21
12.500000320585
  0
LINE
  5
49D
100
AcDbEntity
  8
PV-5756
100
AcDbLine
  6
BYLAYER
 10
11.7500005514555
 20
3.205850305E-7
 11
14.7500005514555
 21
3.205850305E-7
  0
LINE
  5
49E
100
AcDbEntity
  8
0
100
AcDbLine
  6
BYLAYER
 10
9.25000055145529
 20
3.205850021E-7
 11
11.7500005514555
 21
3.205850305E-7
  0
LINE
  5
49F
100
AcDbEntity
  8
PV-5756
100
AcDbLine
  6
BYLAYER
 10
5.00000055145551
 20
2.50000032058526
 11
6.50000055145551
 21
2.50000032058526
  0
LINE
  5
4A0
100
AcDbEntity
  8
PV-5756
100
AcDbLine
  6
BYLAYER
 10
6.50000055145574
 20
3.50000032058577
 11
9.25000055145551
 21
3.50000032058577
  0
LINE
  5
4A1
100
AcDbEntity
  8
PV-5756
100
AcDbLine
  6
BYLAYER
 10
14.7500005514555
 20
3.205857695E-7
 11
21.500000551456
 21
3.205857695E-7
  0
LINE
  5
4A2
100
AcDbEntity
  8
PV-5756
100
AcDbLine
  6
BYLAYER
 10
5.514555141E-7
 20
7.50000032058511
 11
5.514555141E-7
 21
12.5000003205853
  0
LINE
  5
4A3
100
AcDbEntity
  8
PV-5756
100
AcDbLine
  6
BYLAYER
 10
4.00000055145529
 20
7.50000032058526
 11
5.00000055145551
 21
7.50000032058526
  0
LINE
  5
4A4
100
AcDbEntity
  8
PV-5756
100
AcDbLine
  6
BYLAYER
 10
4.00000055145529
 20
12.5000003205853
 11
4.00000055145529
 21
7.50000032058511
  0
LINE
  5
4A5
100
AcDbEntity
  8
PV-5756
100
AcDbLine
  6
BYLAYER
 10
4.00000055145529
 20
12.5000003205853
 11
5.514555141E-7
 21
12.5000003205853
  0
LINE
  5
4A6
100
AcDbEntity
  8
PV-5756
100
AcDbLine
  6
BYLAYER
 10
4.00000055145529
 20
7.50000032058514
 11
5.514555141E-7
 21
7.50000032058514
  0
LINE
  5
4A7
100
AcDbEntity
  8
PV-5756
100
AcDbLine
  6
BYLAYER
 10
6.50000055145551
 20
22.5000003205853
 11
5.00000055145551
 21
22.5000003205853
  0
LINE
  5
4A8
100
AcDbEntity
  8
PV-5756
100
AcDbLine
  6
BYLAYER
 10
9.25000055145529
 20
21.5000003205858
 11
6.50000055145574
 21
21.5000003205858
  0
LINE
  5
4A9
100
AcDbEntity
  8
PV-5756
100
AcDbLine
  6
BYLAYER
 10
5.00000055145551
 20
17.5000003205853
 11
4.00000055145529
 21
17.5000003205853
  0
LINE
  5
4AA
100
AcDbEntity
  8
PV-5756
100
AcDbLine
  6
BYLAYER
 10
4.00000055145529
 20
17.5000003205853
 11
5.514555141E-7
 21
17.5000003205853
  0
LINE
  5
4AB
100
AcDbEntity
  8
PV-5756
100
AcDbLine
  6
BYLAYER
 10
21.500000551456
 20
25.0000003205858
 11
11.5000005514557
 21
25.0000003205858
  0
LINE
  5
4AC
100
AcDbEntity
  8
PV-5756
100
AcDbLine
  6
BYLAYER
 10
11.7500005514555
 20
25.000000320585
 11
9.25000055145529
 21
25.000000320585
  0
ENDBLK
  5
4AD
100
AcDbEntity
  8
0
 67
     1
100
AcDbBlockEnd
  0
BLOCK
  5
4AE
100
AcDbEntity
  8
0
100
AcDbBlockBegin
  2
A$C49B62815
 70
    0
 10
0
 20
0
 30
0.0
  3
A$C49B62815
  1

  0
LINE
  5
4AF
100
AcDbEntity
  8
0
100
AcDbLine
  6
BYLAYER
 10
3.81930429091471
 20
2.59999987144147
 11
1.46446397193949
 21
4.95484019041578
  0
LINE
  5
4B0
100
AcDbEntity
  8
0
100
AcDbLine
  6
BYLAYER
 10
283.216486194682
 20
2.59999987144147
 11
-2.1221271709E-6
 21
2.59999987144101
  0
LINE
  5
4B1
100
AcDbEntity
  8
0
100
AcDbLine
  6
BYLAYER
 10
283.216486194682
 20
0.999999871441105
 11
-2.1221271709E-6
 21
0.999999871441105
  0
ARC
  5
4B2
100
AcDbEntity
  8
0
100
AcDbCircle
  6
BYLAYER
 10
141.60824203628
 20
210.311062126076
 40
142.5
100
AcDbArc
 50
230.475870969794
 51
309.524129030206
  0
LINE
  5
4B3
100
AcDbEntity
  8
0
100
AcDbLine
  6
BYLAYER
 10
35.8494017988464
 20
96.6191313225131
 11
0.376010602491988
 21
10.3926731467418
  0
ARC
  5
4B4
100
AcDbEntity
  8
0
100
AcDbCircle
  6
BYLAYER
 10
4.99999787787192
 20
8.49037409634911
 40
5
100
AcDbArc
 50
157.637832743802
 51
225.000000000009
  0
ARC
  5
4B5
100
AcDbEntity
  8
0
100
AcDbCircle
  6
BYLAYER
 10
44.7771390194093
 20
92.9462782142746
 40
9.65372165717004
100
AcDbArc
 50
50.475870969794
 51
157.637832743802
  0
ARC
  5
4B6
100
AcDbEntity
  8
0
100
AcDbCircle
  6
BYLAYER
 10
238.439345053149
 20
92.9462782142746
 40
9.65372165717004
100
AcDbArc
 50
22.362167256198
 51
129.524129030206
  0
LINE
  5
4B7
100
AcDbEntity
  8
0
100
AcDbLine
  6
BYLAYER
 10
247.367082273713
 20
96.6191313225131
 11
282.840473470067
 21
10.3926731467422
  0
ARC
  5
4B8
100
AcDbEntity
  8
CEN
100
AcDbCircle
  6
BYLAYER
 10
141.60824203628
 20
181.811062126076
 40
129.000000000001
100
AcDbArc
 50
217.07683765758
 51
322.92316234242
  0
ARC
  5
4B9
100
AcDbEntity
  8
0
100
AcDbCircle
  6
BYLAYER
 10
141.60824203628
 20
181.811062126076
 40
125.75
100
AcDbArc
 50
269.222725712991
 51
270.777274287009
  0
ARC
  5
4BA
100
AcDbEntity
  8
0
100
AcDbCircle
  6
BYLAYER
 10
141.60824203628
 20
181.811062126076
 40
132.25
100
AcDbArc
 50
269.222725712991
 51
270.777274287009
  0
ARC
  5
4BB
100
AcDbEntity
  8
0
100
AcDbCircle
  6
BYLAYER
 10
139.858282294051
 20
52.8229322811148
 40
3.25
100
AcDbArc
 50
89.2227257130172
 51
269.222725712991
  0
ARC
  5
4BC
100
AcDbEntity
  8
0
100
AcDbCircle
  6
BYLAYER
 10
143.358201778508
 20
52.8229322811148
 40
3.25
100
AcDbArc
 50
270.777274287009
 51
90.7772742869828
  0
ARC
  5
4BD
100
AcDbEntity
  8
0
100
AcDbCircle
  6
BYLAYER
 10
141.60824203628
 20
181.811062126077
 40
125.75
100
AcDbArc
 50
224.222725713017
 51
225.777274286983
  0
ARC
  5
4BE
100
AcDbEntity
  8
0
100
AcDbCircle
  6
BYLAYER
 10
141.60824203628
 20
181.811062126077
 40
132.25
100
AcDbArc
 50
224.222725713017
 51
225.777274286983
  0
ARC
  5
4BF
100
AcDbEntity
  8
0
100
AcDbCircle
  6
BYLAYER
 10
49.1624523298037
 20
91.8400892206664
 40
3.25
100
AcDbArc
 50
44.2227257130165
 51
224.222725713017
  0
ARC
  5
4C0
100
AcDbEntity
  8
0
100
AcDbCircle
  6
BYLAYER
 10
51.6372691308702
 20
89.3652724195999
 40
3.25
100
AcDbArc
 50
225.777274286983
 51
45.7772742869834
  0
ARC
  5
4C1
100
AcDbEntity
  8
0
100
AcDbCircle
  6
BYLAYER
 10
141.608242036279
 20
181.811062126077
 40
125.75
100
AcDbArc
 50
314.222725713026
 51
315.777274286984
  0
ARC
  5
4C2
100
AcDbEntity
  8
0
100
AcDbCircle
  6
BYLAYER
 10
141.608242036279
 20
181.811062126077
 40
132.25
100
AcDbArc
 50
314.222725713026
 51
315.777274286984
  0
ARC
  5
4C3
100
AcDbEntity
  8
0
100
AcDbCircle
  6
BYLAYER
 10
234.054031742755
 20
91.8400892206664
 40
3.25
100
AcDbArc
 50
315.777274286984
 51
135.777274286983
  0
ARC
  5
4C4
100
AcDbEntity
  8
0
100
AcDbCircle
  6
BYLAYER
 10
231.579214941689
 20
89.3652724195999
 40
3.25
100
AcDbArc
 50
134.222725713026
 51
314.222725713026
  0
LINE
  5
4C5
100
AcDbEntity
  8
0
100
AcDbLine
  6
BYLAYER
 10
-2.1221280804E-6
 20
2.59999987144101
 11
-2.1221280804E-6
 21
0.999999871441105
  0
LINE
  5
4C6
100
AcDbEntity
  8
HIDDEN
100
AcDbLine
  6
BYLAYER
 10
3.81930429091471
 20
2.59999987144147
 11
3.81930429091471
 21
0.999999871441105
  0
LINE
  5
4C7
100
AcDbEntity
  8
0
100
AcDbLine
  6
BYLAYER
 10
279.397179781639
 20
2.59999987144147
 11
281.752020100614
 21
4.95484019041578
  0
ARC
  5
4C8
100
AcDbEntity
  8
0
100
AcDbCircle
  6
BYLAYER
 10
278.216486194682
 20
8.49037409634911
 40
5
100
AcDbArc
 50
315.000000000018
 51
22.362167256198
  0
LINE
  5
4C9
100
AcDbEntity
  8
0
100
AcDbLine
  6
BYLAYER
 10
283.216486194682
 20
2.59999987144101
 11
283.216486194682
 21
0.999999871441105
  0
LINE
  5
4CA
100
AcDbEntity
  8
HIDDEN
100
AcDbLine
  6
BYLAYER
 10
279.397179781639
 20
2.59999987144147
 11
279.397179781639
 21
0.999999871441105
  0
LINE
  5
4CB
100
AcDbEntity
  8
HIDDEN
100
AcDbLine
  6
BYLAYER
 10
31.2082420362804
 20
0.999999871441105
 11
31.2082420362808
 21
2.59999987144101
  0
LINE
  5
4CC
100
AcDbEntity
  8
HIDDEN
100
AcDbLine
  6
BYLAYER
 10
17.0082420362814
 20
0.999999871441105
 11
17.0082420362819
 21
2.59999987144101
  0
LINE
  5
4CD
100
AcDbEntity
  8
CEN
100
AcDbLine
  6
BYLAYER
 10
24.1082420362809
 20
-1.285588951E-7
 11
24.1082420362814
 21
3.59999987144101
  0
LINE
  5
4CE
100
AcDbEntity
  8
HIDDEN
100
AcDbLine
  6
BYLAYER
 10
252.008242036281
 20
0.999999871441105
 11
252.00824203628
 21
2.59999987144101
  0
LINE
  5
4CF
100
AcDbEntity
  8
HIDDEN
100
AcDbLine
  6
BYLAYER
 10
266.20824203628
 20
0.999999871441105
 11
266.208242036279
 21
2.59999987144101
  0
LINE
  5
4D0
100
AcDbEntity
  8
CEN
100
AcDbLine
  6
BYLAYER
 10
259.108242036279
 20
-1.285588951E-7
 11
259.108242036279
 21
3.59999987144101
  0
ENDBLK
  5
4D1
100
AcDbEntity
  8
0
 67
     1
100
AcDbBlockEnd
  0
BLOCK
  5
4D2
100
AcDbEntity
  8
0
100
AcDbBlockBegin
  2
A$C185366D6
 70
    0
 10
0
 20
0
 30
0.0
  3
A$C185366D6
  1

  0
LINE
  5
4D3
100
AcDbEntity
  8
0
100
AcDbLine
  6
BYLAYER
370
0
 10
377.56284376668
 20
142.645661260706
 11
338.462942146299
 21
142.645661260706
  0
ARC
  5
4D4
100
AcDbEntity
  8
0
100
AcDbCircle
  6
BYLAYER
370
0
 10
188.594073662438
 20
156.241533027479
 40
150.484303067566
100
AcDbArc
 50
-31.034351686849
 51
-365.183595453595
  0
ARC
  5
4D5
100
AcDbEntity
  8
0
100
AcDbCircle
  6
BYLAYER
370
0
 10
178.460710844371
 20
162.338543565946
 40
162.310485017324
100
AcDbArc
 50
-85.9012313080457
 51
-391.03435168685
  0
ARC
  5
4D6
100
AcDbEntity
  8
0
100
AcDbCircle
  6
BYLAYER
370
0
 10
177.67051719291
 20
173.365636433546
 40
173.365853989795
100
AcDbArc
 50
229.809367132771
 51
-85.901231308045
  0
ARC
  5
4D7
100
AcDbEntity
  8
0
100
AcDbCircle
  6
BYLAYER
370
0
 10
185.435063444586
 20
182.556783674401
 40
185.397701981584
100
AcDbArc
 50
184.515929290877
 51
-130.19063286723
  0
ARC
  5
4D8
100
AcDbEntity
  8
0
100
AcDbCircle
  6
BYLAYER
370
0
 10
197.432822630442
 20
183.50438413438
 40
197.432824420244
100
AcDbArc
 50
180.000000000025
 51
-175.484070709124
  0
ARC
  5
4D9
100
AcDbEntity
  8
0
100
AcDbCircle
  6
BYLAYER
370
0
 10
197.432822628521
 20
183.504384134285
 40
197.432824418323
100
AcDbArc
 50
139.251436826071
 51
-180.000000000003
  0
ARC
  5
4DA
100
AcDbEntity
  8
0
100
AcDbCircle
  6
BYLAYER
370
0
 10
206.547707081396
 20
175.650895493351
 40
209.464383021536
100
AcDbArc
 50
95.3336301716293
 51
-220.748563173928
  0
ARC
  5
4DB
100
AcDbEntity
  8
0
100
AcDbCircle
  6
BYLAYER
370
0
 10
196.465398263559
 20
283.645661262517
 40
100.99999999819
100
AcDbArc
 50
89.9999999999992
 51
-264.666369828371
  0
LINE
  5
4DC
100
AcDbEntity
  8
0
100
AcDbLine
  6
BYLAYER
370
0
 10
196.46539826356
 20
384.645661260706
 11
377.56284376668
 21
384.645661260706
  0
CIRCLE
  5
4DD
100
AcDbEntity
  8
0
100
AcDbCircle
  6
BYLAYER
 10
101.346068993616
 20
77.4288864876416
 40
2.6
  0
CIRCLE
  5
4DE
100
AcDbEntity
  8
0
100
AcDbCircle
  6
BYLAYER
 10
192.56284376668
 20
39.6456612607062
 40
2.6
  0
CIRCLE
  5
4DF
100
AcDbEntity
  8
0
100
AcDbCircle
  6
BYLAYER
 10
283.779618539745
 20
77.4288864876416
 40
2.6
  0
CIRCLE
  5
4E0
100
AcDbEntity
  8
0
100
AcDbCircle
  6
BYLAYER
 10
63.5628437666801
 20
168.645661260706
 40
2.6
  0
CIRCLE
  5
4E1
100
AcDbEntity
  8
0
100
AcDbCircle
  6
BYLAYER
 10
101.346068993616
 20
259.862436033771
 40
2.6
  0
CIRCLE
  5
4E2
100
AcDbEntity
  8
0
100
AcDbCircle
  6
BYLAYER
 10
192.56284376668
 20
297.645661260706
 40
2.6
  0
CIRCLE
  5
4E3
100
AcDbEntity
  8
0
100
AcDbCircle
  6
BYLAYER
 10
283.779618539745
 20
259.862436033771
 40
2.6
  0
CIRCLE
  5
4E4
100
AcDbEntity
  8
0
100
AcDbCircle
  6
BYLAYER
 10
192.56284376668
 20
374.145661260706
 40
2.6
  0
CIRCLE
  5
4E5
100
AcDbEntity
  8
0
100
AcDbCircle
  6
BYLAYER
 10
321.56284376668
 20
168.645661260706
 40
2.6
  0
LINE
  5
4E6
100
AcDbEntity
  8
0
100
AcDbLine
  6
BYLAYER
 10
379.06284376668
 20
408.645661260706
 11
379.06284376668
 21
118.645661260706
  0
LINE
  5
4E7
100
AcDbEntity
  8
0
100
AcDbLine
  6
BYLAYER
 10
377.56284376668
 20
408.645661260706
 11
377.56284376668
 21
118.645661260706
  0
LINE
  5
4E8
100
AcDbEntity
  8
0
100
AcDbLine
  6
BYLAYER
 10
377.56284376668
 20
118.645661260706
 11
379.06284376668
 21
118.645661260706
  0
LINE
  5
4E9
100
AcDbEntity
  8
0
100
AcDbLine
  6
BYLAYER
 10
377.56284376668
 20
408.645661260706
 11
379.06284376668
 21
408.645661260706
  0
CIRCLE
  5
4EA
100
AcDbEntity
  8
0
100
AcDbCircle
  6
BYLAYER
 10
192.56284376668
 20
168.645661260706
 40
102.5
  0
CIRCLE
  5
4EB
100
AcDbEntity
  8
0
100
AcDbCircle
  6
BYLAYER
 10
192.56284376668
 20
168.645661260706
 40
140
  0
CIRCLE
  5
4EC
100
AcDbEntity
  8
0
100
AcDbCircle
  6
BYLAYER
 10
101.346068993616
 20
77.4288864876414
 40
3.5
  0
CIRCLE
  5
4ED
100
AcDbEntity
  8
0
100
AcDbCircle
  6
BYLAYER
 10
192.56284376668
 20
39.6456612607062
 40
3.5
  0
CIRCLE
  5
4EE
100
AcDbEntity
  8
0
100
AcDbCircle
  6
BYLAYER
 10
63.5628437666801
 20
168.645661260706
 40
3.5
  0
CIRCLE
  5
4EF
100
AcDbEntity
  8
0
100
AcDbCircle
  6
BYLAYER
 10
101.346068993616
 20
259.862436033771
 40
3.5
  0
CIRCLE
  5
4F0
100
AcDbEntity
  8
0
100
AcDbCircle
  6
BYLAYER
 10
192.56284376668
 20
297.645661260706
 40
3.5
  0
CIRCLE
  5
4F1
100
AcDbEntity
  8
0
100
AcDbCircle
  6
BYLAYER
 10
283.779618539745
 20
77.4288864876414
 40
3.5
  0
CIRCLE
  5
4F2
100
AcDbEntity
  8
0
100
AcDbCircle
  6
BYLAYER
 10
321.56284376668
 20
168.645661260706
 40
3.5
  0
CIRCLE
  5
4F3
100
AcDbEntity
  8
0
100
AcDbCircle
  6
BYLAYER
 10
283.779618539745
 20
259.862436033771
 40
3.5
  0
CIRCLE
  5
4F4
100
AcDbEntity
  8
0
100
AcDbCircle
  6
BYLAYER
 10
101.346068993616
 20
336.362436033771
 40
2.6
  0
CIRCLE
  5
4F5
100
AcDbEntity
  8
0
100
AcDbCircle
  6
BYLAYER
 10
192.56284376668
 20
374.145661260706
 40
2.6
  0
CIRCLE
  5
4F6
100
AcDbEntity
  8
0
100
AcDbCircle
  6
BYLAYER
 10
283.779618539745
 20
336.362436033771
 40
2.6
  0
CIRCLE
  5
4F7
100
AcDbEntity
  8
0
100
AcDbCircle
  6
BYLAYER
 10
36.0628437666801
 20
168.645661260705
 40
2.6
  0
CIRCLE
  5
4F8
100
AcDbEntity
  8
0
100
AcDbCircle
  6
BYLAYER
 10
73.8460689936151
 20
77.4288864876412
 40
2.6
  0
CIRCLE
  5
4F9
100
AcDbEntity
  8
0
100
AcDbCircle
  6
BYLAYER
 10
36.0628437666801
 20
168.645661260706
 40
2.6
  0
CIRCLE
  5
4FA
100
AcDbEntity
  8
0
100
AcDbCircle
  6
BYLAYER
 10
73.8460689936155
 20
259.86243603377
 40
2.6
  0
ENDBLK
  5
4FB
100
AcDbEntity
  8
0
 67
     1
100
AcDbBlockEnd
  0
BLOCK
  5
4FC
100
AcDbEntity
  8
0
100
AcDbBlockBegin
  2
A$C75C87AE5
 70
    0
 10
0
 20
0
 30
0.0
  3
A$C75C87AE5
  1

  0
LINE
  5
4FD
100
AcDbEntity
  8
0
100
AcDbLine
  6
BYLAYER
370
0
 10
142.644676356252
 20
1.6658323148E-6
 11
142.644676356252
 21
39.0999032862137
  0
ARC
  5
4FE
100
AcDbEntity
  8
0
100
AcDbCircle
  6
BYLAYER
370
0
 10
156.240548123024
 20
188.968771770074
 40
150.484303067566
100
AcDbArc
 50
238.965648313151
 51
-95.1835954535954
  0
ARC
  5
4FF
100
AcDbEntity
  8
0
100
AcDbCircle
  6
BYLAYER
370
0
 10
162.337558661491
 20
199.102134588142
 40
162.310485017324
100
AcDbArc
 50
184.098768691954
 51
-121.03435168685
  0
ARC
  5
500
100
AcDbEntity
  8
0
100
AcDbCircle
  6
BYLAYER
370
0
 10
173.364651529091
 20
199.892328239602
 40
173.365853989795
100
AcDbArc
 50
139.809367132771
 51
-175.901231308045
  0
ARC
  5
501
100
AcDbEntity
  8
0
100
AcDbCircle
  6
BYLAYER
370
0
 10
182.555798769947
 20
192.127781987927
 40
185.397701981583
100
AcDbArc
 50
94.5159292908768
 51
-220.19063286723
  0
ARC
  5
502
100
AcDbEntity
  8
0
100
AcDbCircle
  6
BYLAYER
370
0
 10
183.503399229925
 20
180.130022802069
 40
197.432824420245
100
AcDbArc
 50
90.0000000000246
 51
-265.484070709124
  0
ARC
  5
503
100
AcDbEntity
  8
0
100
AcDbCircle
  6
BYLAYER
370
0
 10
183.503399229831
 20
180.130022803992
 40
197.432824418322
100
AcDbArc
 50
49.2514368260713
 51
-270.000000000003
  0
ARC
  5
504
100
AcDbEntity
  8
0
100
AcDbCircle
  6
BYLAYER
370
0
 10
175.649910588897
 20
171.015138351116
 40
209.464383021536
100
AcDbArc
 50
5.3336301716294
 51
-310.748563173928
  0
ARC
  5
505
100
AcDbEntity
  8
0
100
AcDbCircle
  6
BYLAYER
370
0
 10
283.644676358062
 20
181.097447168956
 40
100.99999999819
100
AcDbArc
 50
-2.16277718339519E-12
 51
-354.666369828373
  0
LINE
  5
506
100
AcDbEntity
  8
0
100
AcDbLine
  6
BYLAYER
370
0
 10
384.644676356252
 20
181.097447168952
 11
384.644676356252
 21
1.6658323148E-6
  0
CIRCLE
  5
507
100
AcDbEntity
  8
0
100
AcDbCircle
  6
BYLAYER
 10
77.4279015831874
 20
276.216776438897
 40
2.6
  0
CIRCLE
  5
508
100
AcDbEntity
  8
0
100
AcDbCircle
  6
BYLAYER
 10
39.6446763562519
 20
185.000001665832
 40
2.6
  0
CIRCLE
  5
509
100
AcDbEntity
  8
0
100
AcDbCircle
  6
BYLAYER
 10
77.4279015831874
 20
93.7832268927677
 40
2.6
  0
CIRCLE
  5
50A
100
AcDbEntity
  8
0
100
AcDbCircle
  6
BYLAYER
 10
168.644676356252
 20
314.000001665832
 40
2.6
  0
CIRCLE
  5
50B
100
AcDbEntity
  8
0
100
AcDbCircle
  6
BYLAYER
 10
259.861451129317
 20
276.216776438897
 40
2.6
  0
CIRCLE
  5
50C
100
AcDbEntity
  8
0
100
AcDbCircle
  6
BYLAYER
 10
297.644676356252
 20
185.000001665832
 40
2.6
  0
CIRCLE
  5
50D
100
AcDbEntity
  8
0
100
AcDbCircle
  6
BYLAYER
 10
259.861451129316
 20
93.7832268927677
 40
2.6
  0
CIRCLE
  5
50E
100
AcDbEntity
  8
0
100
AcDbCircle
  6
BYLAYER
 10
374.144676356252
 20
185.000001665833
 40
2.6
  0
CIRCLE
  5
50F
100
AcDbEntity
  8
0
100
AcDbCircle
  6
BYLAYER
 10
168.644676356252
 20
56.0000016658323
 40
2.6
  0
CIRCLE
  5
510
100
AcDbEntity
  8
0
100
AcDbCircle
  6
BYLAYER
 10
168.644676356252
 20
185.000001665832
 40
102.5
  0
CIRCLE
  5
511
100
AcDbEntity
  8
0
100
AcDbCircle
  6
BYLAYER
 10
168.644676356252
 20
185.000001665832
 40
140
  0
CIRCLE
  5
512
100
AcDbEntity
  8
0
100
AcDbCircle
  6
BYLAYER
 10
77.4279015831871
 20
276.216776438897
 40
3.5
  0
CIRCLE
  5
513
100
AcDbEntity
  8
0
100
AcDbCircle
  6
BYLAYER
 10
39.6446763562517
 20
185.000001665832
 40
3.5
  0
CIRCLE
  5
514
100
AcDbEntity
  8
0
100
AcDbCircle
  6
BYLAYER
 10
168.644676356252
 20
314.000001665832
 40
3.5
  0
CIRCLE
  5
515
100
AcDbEntity
  8
0
100
AcDbCircle
  6
BYLAYER
 10
259.861451129316
 20
276.216776438897
 40
3.5
  0
CIRCLE
  5
516
100
AcDbEntity
  8
0
100
AcDbCircle
  6
BYLAYER
 10
297.644676356252
 20
185.000001665832
 40
3.5
  0
CIRCLE
  5
517
100
AcDbEntity
  8
0
100
AcDbCircle
  6
BYLAYER
 10
77.4279015831871
 20
93.7832268927677
 40
3.5
  0
CIRCLE
  5
518
100
AcDbEntity
  8
0
100
AcDbCircle
  6
BYLAYER
 10
168.644676356252
 20
56.0000016658323
 40
3.5
  0
CIRCLE
  5
519
100
AcDbEntity
  8
0
100
AcDbCircle
  6
BYLAYER
 10
259.861451129316
 20
93.7832268927677
 40
3.5
  0
CIRCLE
  5
51A
100
AcDbEntity
  8
0
100
AcDbCircle
  6
BYLAYER
 10
336.361451129317
 20
276.216776438897
 40
2.6
  0
CIRCLE
  5
51B
100
AcDbEntity
  8
0
100
AcDbCircle
  6
BYLAYER
 10
374.144676356252
 20
185.000001665832
 40
2.6
  0
CIRCLE
  5
51C
100
AcDbEntity
  8
0
100
AcDbCircle
  6
BYLAYER
 10
336.361451129316
 20
93.7832268927677
 40
2.6
  0
CIRCLE
  5
51D
100
AcDbEntity
  8
0
100
AcDbCircle
  6
BYLAYER
 10
168.644676356251
 20
341.500001665832
 40
2.6
  0
CIRCLE
  5
51E
100
AcDbEntity
  8
0
100
AcDbCircle
  6
BYLAYER
 10
77.4279015831869
 20
303.716776438897
 40
2.6
  0
CIRCLE
  5
51F
100
AcDbEntity
  8
0
100
AcDbCircle
  6
BYLAYER
 10
168.644676356251
 20
341.500001665832
 40
2.6
  0
CIRCLE
  5
520
100
AcDbEntity
  8
0
100
AcDbCircle
  6
BYLAYER
 10
259.861451129316
 20
303.716776438897
 40
2.6
  0
LINE
  5
521
100
AcDbEntity
  8
0
100
AcDbLine
  6
BYLAYER
 10
384.644676356252
 20
1.6658323148E-6
 11
142.644676356252
 21
1.6658323148E-6
  0
ENDBLK
  5
522
100
AcDbEntity
  8
0
 67
     1
100
AcDbBlockEnd
  0
ENDSEC
  0
SECTION
  2
ENTITIES
  0
LWPOLYLINE
  5
523
100
AcDbEntity
  8
0
100
AcDbPolyline
  6
BYLAYER
370
0
 90
     2
 10
3065.4608018359
  20
591.429209758933
 10
3008.56187234095
  20
591.429209758933
  0
CIRCLE
  5
524
100
AcDbEntity
  8
0
100
AcDbCircle
  6
BYLAYER
 10
3284.77864711401
 20
898.645984531998
 40
2.6
  0
CIRCLE
  5
525
100
AcDbEntity
  8
0
100
AcDbCircle
  6
BYLAYER
 10
3193.56187234095
 20
936.429209758933
 40
2.6
  0
CIRCLE
  5
526
100
AcDbEntity
  8
0
100
AcDbCircle
  6
BYLAYER
 10
3102.34509756789
 20
898.645984531998
 40
2.6
  0
CIRCLE
  5
527
100
AcDbEntity
  8
0
100
AcDbCircle
  6
BYLAYER
 10
3322.56187234095
 20
807.429209758933
 40
2.6
  0
CIRCLE
  5
528
100
AcDbEntity
  8
0
100
AcDbCircle
  6
BYLAYER
 10
3284.77864711401
 20
716.212434985868
 40
2.6
  0
CIRCLE
  5
529
100
AcDbEntity
  8
0
100
AcDbCircle
  6
BYLAYER
 10
3193.56187234095
 20
678.429209758933
 40
2.6
  0
CIRCLE
  5
52A
100
AcDbEntity
  8
0
100
AcDbCircle
  6
BYLAYER
 10
3102.34509756789
 20
716.212434985868
 40
2.6
  0
CIRCLE
  5
52B
100
AcDbEntity
  8
0
100
AcDbCircle
  6
BYLAYER
 10
3193.56187234095
 20
601.929209758933
 40
2.6
  0
CIRCLE
  5
52C
100
AcDbEntity
  8
0
100
AcDbCircle
  6
BYLAYER
 10
3064.56187234095
 20
807.429209758933
 40
2.6
  0
LINE
  5
52D
100
AcDbEntity
  8
0
100
AcDbLine
  6
BYLAYER
 10
3007.06187234095
 20
567.429209758933
 11
3007.06187234095
 21
857.429209758933
  0
LINE
  5
52E
100
AcDbEntity
  8
0
100
AcDbLine
  6
BYLAYER
 10
3008.56187234095
 20
567.429209758933
 11
3008.56187234095
 21
857.429209758933
  0
LINE
  5
52F
100
AcDbEntity
  8
0
100
AcDbLine
  6
BYLAYER
 10
3008.56187234095
 20
857.429209758933
 11
3007.06187234095
 21
857.429209758933
  0
LINE
  5
530
100
AcDbEntity
  8
0
100
AcDbLine
  6
BYLAYER
 10
3008.56187234095
 20
567.429209758933
 11
3007.06187234095
 21
567.429209758933
  0
CIRCLE
  5
531
100
AcDbEntity
  8
0
100
AcDbCircle
  6
BYLAYER
 10
3193.56187234095
 20
807.429209758933
 40
141.5
  0
CIRCLE
  5
532
100
AcDbEntity
  8
0
100
AcDbCircle
  6
BYLAYER
 10
3193.56187234095
 20
807.429209758933
 40
102.5
  0
CIRCLE
  5
533
100
AcDbEntity
  8
0
100
AcDbCircle
  6
BYLAYER
 10
3193.56187234095
 20
807.429209758933
 40
140
  0
CIRCLE
  5
534
100
AcDbEntity
  8
0
100
AcDbCircle
  6
BYLAYER
 10
3284.77864711401
 20
898.645984531998
 40
3.5
  0
CIRCLE
  5
535
100
AcDbEntity
  8
0
100
AcDbCircle
  6
BYLAYER
 10
3193.56187234095
 20
936.429209758933
 40
3.5
  0
CIRCLE
  5
536
100
AcDbEntity
  8
0
100
AcDbCircle
  6
BYLAYER
 10
3322.56187234095
 20
807.429209758933
 40
3.5
  0
CIRCLE
  5
537
100
AcDbEntity
  8
0
100
AcDbCircle
  6
BYLAYER
 10
3284.77864711401
 20
716.212434985869
 40
3.5
  0
CIRCLE
  5
538
100
AcDbEntity
  8
0
100
AcDbCircle
  6
BYLAYER
 10
3193.56187234095
 20
678.429209758933
 40
3.5
  0
CIRCLE
  5
539
100
AcDbEntity
  8
0
100
AcDbCircle
  6
BYLAYER
 10
3102.34509756789
 20
898.645984531998
 40
3.5
  0
CIRCLE
  5
53A
100
AcDbEntity
  8
0
100
AcDbCircle
  6
BYLAYER
 10
3064.56187234095
 20
807.429209758933
 40
3.5
  0
CIRCLE
  5
53B
100
AcDbEntity
  8
0
100
AcDbCircle
  6
BYLAYER
 10
3102.34509756789
 20
716.212434985869
 40
3.5
  0
CIRCLE
  5
53C
100
AcDbEntity
  8
0
100
AcDbCircle
  6
BYLAYER
 10
3284.77864711401
 20
639.712434985868
 40
2.6
  0
CIRCLE
  5
53D
100
AcDbEntity
  8
0
100
AcDbCircle
  6
BYLAYER
 10
3193.56187234095
 20
601.929209758933
 40
2.6
  0
CIRCLE
  5
53E
100
AcDbEntity
  8
0
100
AcDbCircle
  6
BYLAYER
 10
3102.34509756789
 20
639.712434985868
 40
2.6
  0
CIRCLE
  5
53F
100
AcDbEntity
  8
0
100
AcDbCircle
  6
BYLAYER
 10
3350.06187234095
 20
807.429209758934
 40
2.6
  0
CIRCLE
  5
540
100
AcDbEntity
  8
0
100
AcDbCircle
  6
BYLAYER
 10
3312.27864711401
 20
898.645984531998
 40
2.6
  0
CIRCLE
  5
541
100
AcDbEntity
  8
0
100
AcDbCircle
  6
BYLAYER
 10
3350.06187234095
 20
807.429209758933
 40
2.6
  0
CIRCLE
  5
542
100
AcDbEntity
  8
0
100
AcDbCircle
  6
BYLAYER
 10
3312.27864711401
 20
716.212434985869
 40
2.6
  0
CIRCLE
  5
543
100
AcDbEntity
  8
BASE
100
AcDbCircle
  6
BYLAYER
 10
3193.56187234095
 20
807.429209758933
 40
119
  0
LINE
  5
544
100
AcDbEntity
  8
BASE
100
AcDbLine
  6
BYLAYER
 10
2474.50865003897
 20
847.429209758933
 11
2474.50865003897
 21
577.429209758933
  0
LINE
  5
545
100
AcDbEntity
  8
BASE
100
AcDbLine
  6
BYLAYER
 10
2507.50865003897
 20
594.929209758933
 11
2507.50865003897
 21
829.929209758933
  0
LINE
  5
546
100
AcDbEntity
  8
BASE
100
AcDbLine
  6
BYLAYER
 10
2804.50865003897
 20
577.429209758933
 11
2804.50865003897
 21
847.429209758933
  0
LINE
  5
547
100
AcDbEntity
  8
BASE
100
AcDbLine
  6
BYLAYER
 10
2771.50865003897
 20
829.929209758933
 11
2771.50865003897
 21
594.929209758933
  0
LINE
  5
548
100
AcDbEntity
  8
BASE
100
AcDbLine
  6
BYLAYER
 10
2794.50865003897
 20
857.429209758933
 11
2484.50865003897
 21
857.429209758933
  0
LINE
  5
549
100
AcDbEntity
  8
BASE
100
AcDbLine
  6
BYLAYER
 10
2507.50865003897
 20
829.929209758933
 11
2771.50865003897
 21
829.929209758933
  0
LINE
  5
54A
100
AcDbEntity
  8
BASE
100
AcDbLine
  6
BYLAYER
 10
2765.50865003897
 20
975.075088575888
 11
2513.50865003897
 21
975.075088575888
  0
LINE
  5
54B
100
AcDbEntity
  8
BASE
100
AcDbLine
  6
BYLAYER
 10
2774.50865003897
 20
857.429209758933
 11
2774.50865003897
 21
976.075088575888
  0
LINE
  5
54C
100
AcDbEntity
  8
BASE
100
AcDbLine
  6
BYLAYER
 10
2765.50865003897
 20
857.429209758933
 11
2765.50865003897
 21
976.075088575888
  0
LINE
  5
54D
100
AcDbEntity
  8
BASE
100
AcDbLine
  6
BYLAYER
 10
2765.50865003897
 20
976.075088575888
 11
2774.50865003897
 21
976.075088575888
  0
CIRCLE
  5
54E
100
AcDbEntity
  8
BASE
100
AcDbCircle
  6
BYLAYER
 10
2794.50865003897
 20
847.429209758933
 40
4.25
  0
ARC
  5
54F
100
AcDbEntity
  8
BASE
100
AcDbCircle
  6
BYLAYER
 10
2794.50865003897
 20
847.429209758933
 40
10
100
AcDbArc
 50
0
 51
90
  0
CIRCLE
  5
550
100
AcDbEntity
  8
BASE
100
AcDbCircle
  6
BYLAYER
 10
2639.50865003897
 20
847.429209758933
 40
4.25
  0
LINE
  5
551
100
AcDbEntity
  8
BASE
100
AcDbLine
  6
BYLAYER
 10
2504.50865003897
 20
857.429209758933
 11
2504.50865003897
 21
976.075088575888
  0
LINE
  5
552
100
AcDbEntity
  8
BASE
100
AcDbLine
  6
BYLAYER
 10
2513.50865003897
 20
857.429209758933
 11
2513.50865003897
 21
976.075088575888
  0
LINE
  5
553
100
AcDbEntity
  8
BASE
100
AcDbLine
  6
BYLAYER
 10
2513.50865003897
 20
976.075088575888
 11
2504.50865003897
 21
976.075088575888
  0
ARC
  5
554
100
AcDbEntity
  8
BASE
100
AcDbCircle
  6
BYLAYER
 10
2484.50865003897
 20
847.429209758933
 40
10
100
AcDbArc
 50
90
 51
180
  0
LINE
  5
555
100
AcDbEntity
  8
BASE
100
AcDbLine
  6
BYLAYER
 10
2484.50865003897
 20
567.429209758933
 11
2794.50865003897
 21
567.429209758933
  0
LINE
  5
556
100
AcDbEntity
  8
BASE
100
AcDbLine
  6
BYLAYER
 10
2771.50865003897
 20
594.929209758933
 11
2507.50865003897
 21
594.929209758933
  0
LINE
  5
557
100
AcDbEntity
  8
BASE
100
AcDbLine
  6
BYLAYER
 10
2507.50865003897
 20
741.877354719415
 11
2771.50865003897
 21
741.877354719415
  0
LINE
  5
558
100
AcDbEntity
  8
BASE
100
AcDbLine
  6
BYLAYER
 10
2507.50865003897
 20
746.483557895183
 11
2771.50865003897
 21
746.483557895183
  0
CIRCLE
  5
559
100
AcDbEntity
  8
BASE
100
AcDbCircle
  6
BYLAYER
 10
2794.50865003897
 20
712.429209758933
 40
4.25
  0
ARC
  5
55A
100
AcDbEntity
  8
BASE
100
AcDbCircle
  6
BYLAYER
 10
2794.50865003897
 20
577.429209758933
 40
10
100
AcDbArc
 50
270
 51
0
  0
CIRCLE
  5
55B
100
AcDbEntity
  8
BASE
100
AcDbCircle
  6
BYLAYER
 10
2795.00865003897
 20
577.429209758933
 40
4.25
  0
CIRCLE
  5
55C
100
AcDbEntity
  8
BASE
100
AcDbCircle
  6
BYLAYER
 10
2639.50865003897
 20
577.429209758933
 40
4.25
  0
CIRCLE
  5
55D
100
AcDbEntity
  8
BASE
100
AcDbCircle
  6
BYLAYER
 10
2484.50865003897
 20
712.429209758933
 40
4.25
  0
CIRCLE
  5
55E
100
AcDbEntity
  8
BASE
100
AcDbCircle
  6
BYLAYER
 10
2484.00865003897
 20
577.429209758933
 40
4.25
  0
ARC
  5
55F
100
AcDbEntity
  8
BASE
100
AcDbCircle
  6
BYLAYER
 10
2484.50865003897
 20
577.429209758933
 40
10
100
AcDbArc
 50
180
 51
270
  0
LINE
  5
560
100
AcDbEntity
  8
BASE
100
AcDbLine
  6
BYLAYER
 10
2743.23865003897
 20
724.381456815231
 11
2653.97865003897
 21
724.381456815231
  0
LINE
  5
561
100
AcDbEntity
  8
BASE
100
AcDbLine
  6
BYLAYER
 10
2743.23865003897
 20
719.18462389857
 11
2653.97865003897
 21
719.18462389857
  0
LINE
  5
562
100
AcDbEntity
  8
BASE
100
AcDbLine
  6
BYLAYER
 10
2743.23865003897
 20
717.439231948192
 11
2653.97865003897
 21
717.439231948192
  0
LINE
  5
563
100
AcDbEntity
  8
BASE
100
AcDbLine
  6
BYLAYER
 10
2743.23865003897
 20
716.728796347119
 11
2653.97865003897
 21
716.728796347119
  0
LINE
  5
564
100
AcDbEntity
  8
BASE
100
AcDbLine
  6
BYLAYER
 10
2743.23865003897
 20
709.043075260742
 11
2653.97865003897
 21
709.043075260742
  0
LINE
  5
565
100
AcDbEntity
  8
BASE
100
AcDbLine
  6
BYLAYER
 10
2743.23865003897
 20
707.888440686626
 11
2653.97865003897
 21
707.888440686626
  0
LINE
  5
566
100
AcDbEntity
  8
BASE
100
AcDbLine
  6
BYLAYER
 10
2743.23865003897
 20
701.585243898513
 11
2653.97865003897
 21
701.585243898513
  0
LINE
  5
567
100
AcDbEntity
  8
BASE
100
AcDbLine
  6
BYLAYER
 10
2743.23865003897
 20
700.788688518948
 11
2653.97865003897
 21
700.788688518948
  0
LINE
  5
568
100
AcDbEntity
  8
BASE
100
AcDbLine
  6
BYLAYER
 10
2743.23865003897
 20
697.01456001033
 11
2653.97865003897
 21
697.01456001033
  0
LINE
  5
569
100
AcDbEntity
  8
BASE
100
AcDbLine
  6
BYLAYER
 10
2743.23865003897
 20
696.216662470976
 11
2653.97865003897
 21
696.216662470976
  0
LINE
  5
56A
100
AcDbEntity
  8
BASE
100
AcDbLine
  6
BYLAYER
 10
2743.23865003897
 20
695.455699937779
 11
2653.97865003897
 21
695.455699937779
  0
LINE
  5
56B
100
AcDbEntity
  8
BASE
100
AcDbLine
  6
BYLAYER
 10
2743.23865003897
 20
694.678224803546
 11
2653.97865003897
 21
694.678224803546
  0
LINE
  5
56C
100
AcDbEntity
  8
BASE
100
AcDbLine
  6
BYLAYER
 10
2535.77865003897
 20
724.381456815231
 11
2625.03865003897
 21
724.381456815231
  0
LINE
  5
56D
100
AcDbEntity
  8
BASE
100
AcDbLine
  6
BYLAYER
 10
2535.77865003897
 20
719.18462389857
 11
2625.03865003897
 21
719.18462389857
  0
LINE
  5
56E
100
AcDbEntity
  8
BASE
100
AcDbLine
  6
BYLAYER
 10
2535.77865003897
 20
717.439231948192
 11
2625.03865003897
 21
717.439231948192
  0
LINE
  5
56F
100
AcDbEntity
  8
BASE
100
AcDbLine
  6
BYLAYER
 10
2535.77865003897
 20
716.728796347119
 11
2625.03865003897
 21
716.728796347119
  0
LINE
  5
570
100
AcDbEntity
  8
BASE
100
AcDbLine
  6
BYLAYER
 10
2535.77865003897
 20
709.043075260742
 11
2625.03865003897
 21
709.043075260742
  0
LINE
  5
571
100
AcDbEntity
  8
BASE
100
AcDbLine
  6
BYLAYER
 10
2535.77865003897
 20
707.888440686626
 11
2625.03865003897
 21
707.888440686626
  0
LINE
  5
572
100
AcDbEntity
  8
BASE
100
AcDbLine
  6
BYLAYER
 10
2535.77865003897
 20
701.585243898513
 11
2625.03865003897
 21
701.585243898513
  0
LINE
  5
573
100
AcDbEntity
  8
BASE
100
AcDbLine
  6
BYLAYER
 10
2535.77865003897
 20
700.788688518948
 11
2625.03865003897
 21
700.788688518948
  0
LINE
  5
574
100
AcDbEntity
  8
BASE
100
AcDbLine
  6
BYLAYER
 10
2535.77865003897
 20
697.01456001033
 11
2625.03865003897
 21
697.01456001033
  0
LINE
  5
575
100
AcDbEntity
  8
BASE
100
AcDbLine
  6
BYLAYER
 10
2535.77865003897
 20
696.216662470976
 11
2625.03865003897
 21
696.216662470976
  0
LINE
  5
576
100
AcDbEntity
  8
BASE
100
AcDbLine
  6
BYLAYER
 10
2535.77865003897
 20
695.455699937779
 11
2625.03865003897
 21
695.455699937779
  0
LINE
  5
577
100
AcDbEntity
  8
BASE
100
AcDbLine
  6
BYLAYER
 10
2535.77865003897
 20
694.678224803546
 11
2625.03865003897
 21
694.678224803546
  0
ARC
  5
578
100
AcDbEntity
  8
BASE
100
AcDbCircle
  6
BYLAYER
 10
2522.50865003897
 20
693.279209758932
 40
1
100
AcDbArc
 50
180
 51
270
  0
LINE
  5
579
100
AcDbEntity
  8
BASE
100
AcDbLine
  6
BYLAYER
 10
2522.50865003897
 20
692.279209758933
 11
2523.00865003897
 21
692.279209758933
  0
ARC
  5
57A
100
AcDbEntity
  8
BASE
100
AcDbCircle
  6
BYLAYER
 10
2523.00865003897
 20
693.279209758932
 40
1
100
AcDbArc
 50
270
 51
0
  0
ARC
  5
57B
100
AcDbEntity
  8
BASE
100
AcDbCircle
  6
BYLAYER
 10
2525.00865003897
 20
696.429209758932
 40
1
100
AcDbArc
 50
90
 51
180
  0
LINE
  5
57C
100
AcDbEntity
  8
BASE
100
AcDbLine
  6
BYLAYER
 10
2525.00865003897
 20
697.429209758932
 11
2528.90855879224
 21
697.429209758932
  0
LINE
  5
57D
100
AcDbEntity
  8
BASE
100
AcDbLine
  6
BYLAYER
 10
2535.77865003897
 20
694.678224803546
 11
2528.90855879224
 21
697.429209758933
  0
LINE
  5
57E
100
AcDbEntity
  8
BASE
100
AcDbLine
  6
BYLAYER
 10
2535.77865003897
 20
700.788688518948
 11
2528.90855879224
 21
703.539673474334
  0
LINE
  5
57F
100
AcDbEntity
  8
BASE
100
AcDbLine
  6
BYLAYER
 10
2535.77865003897
 20
701.585243898513
 11
2528.90855879224
 21
704.3362288539
  0
LINE
  5
580
100
AcDbEntity
  8
BASE
100
AcDbLine
  6
BYLAYER
 10
2528.90855879224
 20
741.877354719415
 11
2528.90855879224
 21
697.429209758933
  0
ARC
  5
581
100
AcDbEntity
  8
BASE
100
AcDbCircle
  6
BYLAYER
 10
2531.53393122343
 20
695.815181158326
 40
26.857549216919
100
AcDbArc
 50
111.989959715541
 51
153.450021445333
  0
LINE
  5
582
100
AcDbEntity
  8
BASE
100
AcDbLine
  6
BYLAYER
 10
2535.77865003897
 20
695.455699937779
 11
2528.90855879224
 21
698.206684893165
  0
LINE
  5
583
100
AcDbEntity
  8
BASE
100
AcDbLine
  6
BYLAYER
 10
2639.30865003897
 20
693.279209758932
 11
2639.30865003897
 21
741.877354719415
  0
LINE
  5
584
100
AcDbEntity
  8
BASE
100
AcDbLine
  6
BYLAYER
 10
2535.77865003897
 20
696.216662470976
 11
2528.90855879224
 21
698.967647426363
  0
LINE
  5
585
100
AcDbEntity
  8
BASE
100
AcDbLine
  6
BYLAYER
 10
2535.77865003897
 20
697.01456001033
 11
2528.90855879224
 21
699.765544965717
  0
LINE
  5
586
100
AcDbEntity
  8
BASE
100
AcDbLine
  6
BYLAYER
 10
2636.80865003897
 20
693.279209758932
 11
2636.80865003897
 21
741.877354719415
  0
LINE
  5
587
100
AcDbEntity
  8
BASE
100
AcDbLine
  6
BYLAYER
 10
2535.77865003897
 20
707.888440686626
 11
2528.90855879224
 21
710.639425642013
  0
LINE
  5
588
100
AcDbEntity
  8
BASE
100
AcDbLine
  6
BYLAYER
 10
2639.70865003897
 20
693.279209758932
 11
2639.70865003897
 21
741.877354719415
  0
LINE
  5
589
100
AcDbEntity
  8
BASE
100
AcDbLine
  6
BYLAYER
 10
2642.20865003897
 20
693.279209758932
 11
2642.20865003897
 21
741.877354719415
  0
LINE
  5
58A
100
AcDbEntity
  8
BASE
100
AcDbLine
  6
BYLAYER
 10
2535.77865003897
 20
709.043075260742
 11
2528.90855879224
 21
711.794060216128
  0
LINE
  5
58B
100
AcDbEntity
  8
BASE
100
AcDbLine
  6
BYLAYER
 10
2535.77865003897
 20
716.728796347119
 11
2528.90855879224
 21
719.479781302505
  0
LINE
  5
58C
100
AcDbEntity
  8
BASE
100
AcDbLine
  6
BYLAYER
 10
2647.10855879224
 20
741.877354719415
 11
2647.10855879224
 21
697.429209758933
  0
LINE
  5
58D
100
AcDbEntity
  8
BASE
100
AcDbLine
  6
BYLAYER
 10
2631.9087412857
 20
741.877354719415
 11
2631.9087412857
 21
697.429209758933
  0
LINE
  5
58E
100
AcDbEntity
  8
BASE
100
AcDbLine
  6
BYLAYER
 10
2535.77865003897
 20
717.439231948192
 11
2528.90855879224
 21
720.190216903578
  0
LINE
  5
58F
100
AcDbEntity
  8
BASE
100
AcDbLine
  6
BYLAYER
 10
2755.00865003897
 20
693.279209758932
 11
2755.00865003897
 21
741.877354719415
  0
LINE
  5
590
100
AcDbEntity
  8
BASE
100
AcDbLine
  6
BYLAYER
 10
2535.77865003897
 20
719.18462389857
 11
2528.90855879224
 21
721.935608853956
  0
LINE
  5
591
100
AcDbEntity
  8
BASE
100
AcDbLine
  6
BYLAYER
 10
2757.50865003897
 20
693.279209758932
 11
2757.50865003897
 21
741.877354719415
  0
LINE
  5
592
100
AcDbEntity
  8
BASE
100
AcDbLine
  6
BYLAYER
 10
2535.77865003897
 20
724.381456815231
 11
2528.90855879224
 21
727.132441770618
  0
ARC
  5
593
100
AcDbEntity
  8
BASE
100
AcDbCircle
  6
BYLAYER
 10
2640.70865003897
 20
693.279209758932
 40
1
100
AcDbArc
 50
180
 51
270
  0
LINE
  5
594
100
AcDbEntity
  8
BASE
100
AcDbLine
  6
BYLAYER
 10
2635.80865003897
 20
697.429209758932
 11
2634.50865003897
 21
697.429209758932
  0
ARC
  5
595
100
AcDbEntity
  8
BASE
100
AcDbCircle
  6
BYLAYER
 10
2635.80865003897
 20
696.429209758932
 40
1
100
AcDbArc
 50
0
 51
90
  0
ARC
  5
596
100
AcDbEntity
  8
BASE
100
AcDbCircle
  6
BYLAYER
 10
2637.80865003897
 20
693.279209758932
 40
1
100
AcDbArc
 50
180
 51
270
  0
LINE
  5
597
100
AcDbEntity
  8
PV-25B
100
AcDbLine
  6
BYLAYER
 10
2481.00865003897
 20
917.861037904979
 11
2481.00865003897
 21
864.132228370156
  0
LINE
  5
598
100
AcDbEntity
  8
PV-25B
100
AcDbLine
  6
BYLAYER
 10
2483.50865003897
 20
922.861037904979
 11
2481.00865003897
 21
920.361037904979
  0
LINE
  5
599
100
AcDbEntity
  8
BASE
100
AcDbLine
  6
BYLAYER
 10
2638.30865003897
 20
692.279209758933
 11
2637.80865003897
 21
692.279209758933
  0
ARC
  5
59A
100
AcDbEntity
  8
BASE
100
AcDbCircle
  6
BYLAYER
 10
2638.30865003897
 20
693.279209758932
 40
1
100
AcDbArc
 50
270
 51
0
  0
LINE
  5
59B
100
AcDbEntity
  8
PV-25B
100
AcDbLine
  6
BYLAYER
 10
2492.00865003897
 20
867.239892448233
 11
2492.00865003897
 21
871.457326592658
  0
LINE
  5
59C
100
AcDbEntity
  8
BASE
100
AcDbLine
  6
BYLAYER
 10
2634.50865003897
 20
697.429209758933
 11
2631.9087412857
 21
697.429209758933
  0
LINE
  5
59D
100
AcDbEntity
  8
BASE
100
AcDbLine
  6
BYLAYER
 10
2625.03865003897
 20
697.01456001033
 11
2631.9087412857
 21
699.765544965717
  0
LINE
  5
59E
100
AcDbEntity
  8
PV-25B
100
AcDbLine
  6
BYLAYER
 10
2483.50865003897
 20
871.457326592658
 11
2483.50865003897
 21
867.239892448233
  0
LINE
  5
59F
100
AcDbEntity
  8
PV-25B
100
AcDbLine
  6
BYLAYER
 10
2492.00865003897
 20
871.457326592658
 11
2492.00865003897
 21
874.381767113973
  0
LINE
  5
5A0
100
AcDbEntity
  8
BASE
100
AcDbLine
  6
BYLAYER
 10
2625.03865003897
 20
696.216662470976
 11
2631.9087412857
 21
698.967647426363
  0
LINE
  5
5A1
100
AcDbEntity
  8
BASE
100
AcDbLine
  6
BYLAYER
 10
2625.03865003897
 20
695.455699937779
 11
2631.9087412857
 21
698.206684893165
  0
LINE
  5
5A2
100
AcDbEntity
  8
PV-25B
100
AcDbLine
  6
BYLAYER
 10
2483.50865003897
 20
867.239892448233
 11
2492.00865003897
 21
867.239892448233
  0
LINE
  5
5A3
100
AcDbEntity
  8
BASE
100
AcDbLine
  6
BYLAYER
 10
2625.03865003897
 20
701.585243898513
 11
2631.9087412857
 21
704.3362288539
  0
LINE
  5
5A4
100
AcDbEntity
  8
PV-25B
100
AcDbLine
  6
BYLAYER
 10
2486.00865003897
 20
864.791621173203
 11
2483.50865003897
 21
864.791621173203
  0
LINE
  5
5A5
100
AcDbEntity
  8
BASE
100
AcDbLine
  6
BYLAYER
 10
2625.03865003897
 20
700.788688518948
 11
2631.9087412857
 21
703.539673474334
  0
LINE
  5
5A6
100
AcDbEntity
  8
PV-25B
100
AcDbLine
  6
BYLAYER
 10
2486.00865003897
 20
864.791621173203
 11
2492.00865003897
 21
864.791621173203
  0
LINE
  5
5A7
100
AcDbEntity
  8
BASE
100
AcDbLine
  6
BYLAYER
 10
2625.03865003897
 20
694.678224803546
 11
2631.9087412857
 21
697.429209758933
  0
LINE
  5
5A8
100
AcDbEntity
  8
BASE
100
AcDbLine
  6
BYLAYER
 10
2625.03865003897
 20
719.18462389857
 11
2631.9087412857
 21
721.935608853956
  0
LINE
  5
5A9
100
AcDbEntity
  8
PV-25B
100
AcDbLine
  6
BYLAYER
 10
2492.00865003897
 20
864.791621173203
 11
2492.00865003897
 21
867.239892448233
  0
LINE
  5
5AA
100
AcDbEntity
  8
BASE
100
AcDbLine
  6
BYLAYER
 10
2625.03865003897
 20
717.439231948192
 11
2631.9087412857
 21
720.190216903578
  0
LINE
  5
5AB
100
AcDbEntity
  8
PV-25B
100
AcDbLine
  6
BYLAYER
 10
2483.50865003897
 20
867.239892448233
 11
2483.50865003897
 21
864.791621173203
  0
LINE
  5
5AC
100
AcDbEntity
  8
BASE
100
AcDbLine
  6
BYLAYER
 10
2625.03865003897
 20
716.728796347119
 11
2631.9087412857
 21
719.479781302505
  0
LINE
  5
5AD
100
AcDbEntity
  8
PV-25B
100
AcDbLine
  6
BYLAYER
 10
2481.00865003897
 20
861.632228370156
 11
2483.50865003897
 21
859.132228370156
  0
LINE
  5
5AE
100
AcDbEntity
  8
BASE
100
AcDbLine
  6
BYLAYER
 10
2625.03865003897
 20
709.043075260742
 11
2631.9087412857
 21
711.794060216128
  0
LINE
  5
5AF
100
AcDbEntity
  8
BASE
100
AcDbLine
  6
BYLAYER
 10
2625.03865003897
 20
707.888440686626
 11
2631.9087412857
 21
710.639425642013
  0
LINE
  5
5B0
100
AcDbEntity
  8
BASE
100
AcDbLine
  6
BYLAYER
 10
2625.03865003897
 20
724.381456815231
 11
2631.9087412857
 21
727.132441770618
  0
LINE
  5
5B1
100
AcDbEntity
  8
BASE
100
AcDbLine
  6
BYLAYER
 10
2643.20865003897
 20
697.429209758932
 11
2647.10855879224
 21
697.429209758932
  0
LINE
  5
5B2
100
AcDbEntity
  8
0
100
AcDbLine
  6
BYLAYER
 10
2498.50865003897
 20
949.861037904979
 11
2504.50865003897
 21
949.861037904979
  0
ARC
  5
5B3
100
AcDbEntity
  8
BASE
100
AcDbCircle
  6
BYLAYER
 10
2643.20865003897
 20
696.429209758932
 40
1
100
AcDbArc
 50
90
 51
180
  0
LINE
  5
5B4
100
AcDbEntity
  8
PV-5756
100
AcDbLine
  6
BYLAYER
 10
2497.00865003897
 20
897.632228370156
 11
2497.00865003897
 21
902.632228370156
  0
ARC
  5
5B5
100
AcDbEntity
  8
BASE
100
AcDbCircle
  6
BYLAYER
 10
2641.20865003897
 20
693.279209758932
 40
1
100
AcDbArc
 50
270
 51
0
  0
LINE
  5
5B6
100
AcDbEntity
  8
PV-5756
100
AcDbLine
  6
BYLAYER
 10
2497.00865003897
 20
892.632228370156
 11
2497.00865003897
 21
897.632228370156
  0
LINE
  5
5B7
100
AcDbEntity
  8
BASE
100
AcDbLine
  6
BYLAYER
 10
2640.70865003897
 20
692.279209758933
 11
2641.20865003897
 21
692.279209758933
  0
LINE
  5
5B8
100
AcDbEntity
  8
BASE
100
AcDbLine
  6
BYLAYER
 10
2653.97865003897
 20
694.678224803546
 11
2647.10855879224
 21
697.429209758933
  0
LINE
  5
5B9
100
AcDbEntity
  8
PV-5756
100
AcDbLine
  6
BYLAYER
 10
2498.50865003897
 20
892.632228370156
 11
2497.00865003897
 21
892.632228370156
  0
LINE
  5
5BA
100
AcDbEntity
  8
BASE
100
AcDbLine
  6
BYLAYER
 10
2653.97865003897
 20
700.788688518948
 11
2647.10855879224
 21
703.539673474334
  0
LINE
  5
5BB
100
AcDbEntity
  8
BASE
100
AcDbLine
  6
BYLAYER
 10
2653.97865003897
 20
701.585243898513
 11
2647.10855879224
 21
704.3362288539
  0
LINE
  5
5BC
100
AcDbEntity
  8
BASE
100
AcDbLine
  6
BYLAYER
 10
2653.97865003897
 20
695.455699937779
 11
2647.10855879224
 21
698.206684893165
  0
LINE
  5
5BD
100
AcDbEntity
  8
PV-5756
100
AcDbLine
  6
BYLAYER
 10
2498.50865003897
 20
897.632228370156
 11
2497.00865003897
 21
897.632228370156
  0
LINE
  5
5BE
100
AcDbEntity
  8
BASE
100
AcDbLine
  6
BYLAYER
 10
2653.97865003897
 20
696.216662470976
 11
2647.10855879224
 21
698.967647426363
  0
LINE
  5
5BF
100
AcDbEntity
  8
BASE
100
AcDbLine
  6
BYLAYER
 10
2653.97865003897
 20
697.01456001033
 11
2647.10855879224
 21
699.765544965717
  0
LINE
  5
5C0
100
AcDbEntity
  8
PV-5756
100
AcDbLine
  6
BYLAYER
 10
2498.50865003897
 20
903.405731062052
 11
2497.00865003897
 21
903.405731062052
  0
LINE
  5
5C1
100
AcDbEntity
  8
BASE
100
AcDbLine
  6
BYLAYER
 10
2653.97865003897
 20
716.728796347119
 11
2647.10855879224
 21
719.479781302505
  0
LINE
  5
5C2
100
AcDbEntity
  8
0
100
AcDbLine
  6
BYLAYER
 10
2504.50865003897
 20
949.861037904979
 11
2504.50865003897
 21
857.429209758933
  0
LINE
  5
5C3
100
AcDbEntity
  8
BASE
100
AcDbLine
  6
BYLAYER
 10
2653.97865003897
 20
717.439231948192
 11
2647.10855879224
 21
720.190216903578
  0
LINE
  5
5C4
100
AcDbEntity
  8
0
100
AcDbLine
  6
BYLAYER
 10
2483.50865003897
 20
864.791621173203
 11
2483.50865003897
 21
857.379084129999
  0
LINE
  5
5C5
100
AcDbEntity
  8
BASE
100
AcDbLine
  6
BYLAYER
 10
2653.97865003897
 20
719.18462389857
 11
2647.10855879224
 21
721.935608853956
  0
LINE
  5
5C6
100
AcDbEntity
  8
BASE
100
AcDbLine
  6
BYLAYER
 10
2653.97865003897
 20
707.888440686626
 11
2647.10855879224
 21
710.639425642013
  0
LINE
  5
5C7
100
AcDbEntity
  8
BASE
100
AcDbLine
  6
BYLAYER
 10
2653.97865003897
 20
709.043075260742
 11
2647.10855879224
 21
711.794060216128
  0
LINE
  5
5C8
100
AcDbEntity
  8
BASE
100
AcDbLine
  6
BYLAYER
 10
2653.97865003897
 20
724.381456815231
 11
2647.10855879224
 21
727.132441770618
  0
CIRCLE
  5
5C9
100
AcDbEntity
  8
0
100
AcDbCircle
  6
BYLAYER
 10
2484.50865003897
 20
847.429209758933
 40
4.25
  0
LINE
  5
5CA
100
AcDbEntity
  8
0
100
AcDbLine
  6
BYLAYER
 10
2774.50865003897
 20
949.861037904979
 11
2780.50865003897
 21
949.861037904979
  0
LINE
  5
5CB
100
AcDbEntity
  8
BASE
100
AcDbLine
  6
BYLAYER
 10
2752.70865003897
 20
697.429209758933
 11
2750.1087412857
 21
697.429209758933
  0
ARC
  5
5CC
100
AcDbEntity
  8
BASE
100
AcDbCircle
  6
BYLAYER
 10
2756.50865003897
 20
693.279209758932
 40
1
100
AcDbArc
 50
270
 51
0
  0
LINE
  5
5CD
100
AcDbEntity
  8
PV-5756
100
AcDbLine
  6
BYLAYER
 10
2782.00865003897
 20
903.405731062052
 11
2782.00865003897
 21
902.632228370156
  0
LINE
  5
5CE
100
AcDbEntity
  8
BASE
100
AcDbLine
  6
BYLAYER
 10
2756.50865003897
 20
692.279209758933
 11
2756.00865003897
 21
692.279209758933
  0
ARC
  5
5CF
100
AcDbEntity
  8
BASE
100
AcDbCircle
  6
BYLAYER
 10
2756.00865003897
 20
693.279209758932
 40
1
100
AcDbArc
 50
180
 51
270
  0
LINE
  5
5D0
100
AcDbEntity
  8
PV-5756
100
AcDbLine
  6
BYLAYER
 10
2780.50865003897
 20
903.405731062052
 11
2782.00865003897
 21
903.405731062052
  0
ARC
  5
5D1
100
AcDbEntity
  8
BASE
100
AcDbCircle
  6
BYLAYER
 10
2754.00865003897
 20
696.429209758932
 40
1
100
AcDbArc
 50
0
 51
90
  0
LINE
  5
5D2
100
AcDbEntity
  8
PV-5756
100
AcDbLine
  6
BYLAYER
 10
2780.50865003897
 20
902.632228370156
 11
2782.00865003897
 21
902.632228370156
  0
LINE
  5
5D3
100
AcDbEntity
  8
PV-5756
100
AcDbLine
  6
BYLAYER
 10
2780.50865003897
 20
897.632228370156
 11
2782.00865003897
 21
897.632228370156
  0
LINE
  5
5D4
100
AcDbEntity
  8
BASE
100
AcDbLine
  6
BYLAYER
 10
2754.00865003897
 20
697.429209758932
 11
2752.70865003897
 21
697.429209758932
  0
LINE
  5
5D5
100
AcDbEntity
  8
BASE
100
AcDbLine
  6
BYLAYER
 10
2743.23865003897
 20
694.678224803546
 11
2750.1087412857
 21
697.429209758933
  0
LINE
  5
5D6
100
AcDbEntity
  8
PV-5756
100
AcDbLine
  6
BYLAYER
 10
2782.00865003897
 20
892.632228370156
 11
2782.00865003897
 21
891.85872567826
  0
LINE
  5
5D7
100
AcDbEntity
  8
BASE
100
AcDbLine
  6
BYLAYER
 10
2743.23865003897
 20
700.788688518948
 11
2750.1087412857
 21
703.539673474334
  0
LINE
  5
5D8
100
AcDbEntity
  8
BASE
100
AcDbLine
  6
BYLAYER
 10
2743.23865003897
 20
701.585243898513
 11
2750.1087412857
 21
704.3362288539
  0
LINE
  5
5D9
100
AcDbEntity
  8
BASE
100
AcDbLine
  6
BYLAYER
 10
2743.23865003897
 20
695.455699937779
 11
2750.1087412857
 21
698.206684893165
  0
LINE
  5
5DA
100
AcDbEntity
  8
BASE
100
AcDbLine
  6
BYLAYER
 10
2743.23865003897
 20
696.216662470976
 11
2750.1087412857
 21
698.967647426363
  0
LINE
  5
5DB
100
AcDbEntity
  8
BASE
100
AcDbLine
  6
BYLAYER
 10
2743.23865003897
 20
697.01456001033
 11
2750.1087412857
 21
699.765544965717
  0
LINE
  5
5DC
100
AcDbEntity
  8
BASE
100
AcDbLine
  6
BYLAYER
 10
2743.23865003897
 20
716.728796347119
 11
2750.1087412857
 21
719.479781302505
  0
LINE
  5
5DD
100
AcDbEntity
  8
PV-5756
100
AcDbLine
  6
BYLAYER
 10
2780.50865003897
 20
940.361037904978
 11
2782.00865003897
 21
940.361037904978
  0
LINE
  5
5DE
100
AcDbEntity
  8
BASE
100
AcDbLine
  6
BYLAYER
 10
2743.23865003897
 20
717.439231948192
 11
2750.1087412857
 21
720.190216903578
  0
LINE
  5
5DF
100
AcDbEntity
  8
BASE
100
AcDbLine
  6
BYLAYER
 10
2743.23865003897
 20
719.18462389857
 11
2750.1087412857
 21
721.935608853956
  0
LINE
  5
5E0
100
AcDbEntity
  8
PV-5756
100
AcDbLine
  6
BYLAYER
 10
2780.50865003897
 20
941.134540596874
 11
2782.00865003897
 21
941.134540596874
  0
LINE
  5
5E1
100
AcDbEntity
  8
PV-5756
100
AcDbLine
  6
BYLAYER
 10
2782.00865003897
 20
941.134540596874
 11
2782.00865003897
 21
940.361037904978
  0
LINE
  5
5E2
100
AcDbEntity
  8
BASE
100
AcDbLine
  6
BYLAYER
 10
2743.23865003897
 20
707.888440686626
 11
2750.1087412857
 21
710.639425642013
  0
LINE
  5
5E3
100
AcDbEntity
  8
PV-5756
100
AcDbLine
  6
BYLAYER
 10
2780.50865003897
 20
935.361037904978
 11
2782.00865003897
 21
935.361037904978
  0
LINE
  5
5E4
100
AcDbEntity
  8
BASE
100
AcDbLine
  6
BYLAYER
 10
2743.23865003897
 20
709.043075260742
 11
2750.1087412857
 21
711.794060216128
  0
LINE
  5
5E5
100
AcDbEntity
  8
BASE
100
AcDbLine
  6
BYLAYER
 10
2743.23865003897
 20
724.381456815231
 11
2750.1087412857
 21
727.132441770618
  0
LINE
  5
5E6
100
AcDbEntity
  8
BASE
100
AcDbLine
  6
BYLAYER
 10
2524.00865003897
 20
693.279209758932
 11
2524.00865003897
 21
741.877354719415
  0
LINE
  5
5E7
100
AcDbEntity
  8
BASE
100
AcDbLine
  6
BYLAYER
 10
2521.50865003897
 20
693.279209758932
 11
2521.50865003897
 21
741.877354719415
  0
LINE
  5
5E8
100
AcDbEntity
  8
BASE
100
AcDbLine
  6
BYLAYER
 10
2750.1087412857
 20
741.877354719415
 11
2750.1087412857
 21
697.429209758933
  0
ARC
  5
5E9
100
AcDbEntity
  8
BASE
100
AcDbCircle
  6
BYLAYER
 10
2747.45199888122
 20
695.815181158324
 40
26.8575492169213
100
AcDbArc
 50
28.6463496305267
 51
68.0100402844588
  0
LINE
  5
5EA
100
AcDbEntity
  8
PV-25B
100
AcDbLine
  6
BYLAYER
 10
2483.50865003897
 20
935.361037904979
 11
2483.50865003897
 21
874.381767113973
  0
LINE
  5
5EB
100
AcDbEntity
  8
PV-25B
100
AcDbLine
  6
BYLAYER
 10
2481.00865003897
 20
920.361037904979
 11
2481.00865003897
 21
917.861037904979
  0
LINE
  5
5EC
100
AcDbEntity
  8
PV-25B
100
AcDbLine
  6
BYLAYER
 10
2483.50865003897
 20
874.381767113973
 11
2483.50865003897
 21
871.457326592658
  0
LINE
  5
5ED
100
AcDbEntity
  8
PV-25B
100
AcDbLine
  6
BYLAYER
 10
2481.00865003897
 20
864.132228370156
 11
2481.00865003897
 21
861.632228370156
  0
INSERT
  5
5EE
100
AcDbEntity
  8
0
100
AcDbBlockReference
  6
BYLAYER
  2
A$C7924541D
 10
2477.00864948752
 20
922.861037584393
 30
0.0
  0
LINE
  5
5EF
100
AcDbEntity
  8
0
100
AcDbLine
  6
BYLAYER
 10
2492.00865003897
 20
874.381767113973
 11
2492.00865003897
 21
922.861037904979
  0
LINE
  5
5F0
100
AcDbEntity
  8
0
100
AcDbLine
  6
BYLAYER
 10
2498.50865003897
 20
949.861037904979
 11
2498.50865003897
 21
857.429209758933
  0
LINE
  5
5F1
100
AcDbEntity
  8
PV-5756
100
AcDbLine
  6
BYLAYER
 10
2498.50865003897
 20
891.85872567826
 11
2497.00865003897
 21
891.85872567826
  0
LINE
  5
5F2
100
AcDbEntity
  8
PV-5756
100
AcDbLine
  6
BYLAYER
 10
2497.00865003897
 20
891.85872567826
 11
2497.00865003897
 21
892.632228370156
  0
LINE
  5
5F3
100
AcDbEntity
  8
PV-5756
100
AcDbLine
  6
BYLAYER
 10
2498.50865003897
 20
902.632228370156
 11
2497.00865003897
 21
902.632228370156
  0
LINE
  5
5F4
100
AcDbEntity
  8
PV-5756
100
AcDbLine
  6
BYLAYER
 10
2497.00865003897
 20
902.632228370156
 11
2497.00865003897
 21
903.405731062052
  0
LINE
  5
5F5
100
AcDbEntity
  8
0
100
AcDbLine
  6
BYLAYER
 10
2486.25865003897
 20
864.791621173203
 11
2486.25865003897
 21
857.429209758933
  0
LINE
  5
5F6
100
AcDbEntity
  8
0
100
AcDbLine
  6
BYLAYER
 10
2780.50865003897
 20
949.861037904979
 11
2780.50865003897
 21
857.429209758933
  0
LINE
  5
5F7
100
AcDbEntity
  8
PV-5756
100
AcDbLine
  6
BYLAYER
 10
2782.00865003897
 20
902.632228370156
 11
2782.00865003897
 21
897.632228370156
  0
LINE
  5
5F8
100
AcDbEntity
  8
PV-5756
100
AcDbLine
  6
BYLAYER
 10
2780.50865003897
 20
891.85872567826
 11
2782.00865003897
 21
891.85872567826
  0
LINE
  5
5F9
100
AcDbEntity
  8
PV-5756
100
AcDbLine
  6
BYLAYER
 10
2780.50865003897
 20
892.632228370156
 11
2782.00865003897
 21
892.632228370156
  0
LINE
  5
5FA
100
AcDbEntity
  8
PV-5756
100
AcDbLine
  6
BYLAYER
 10
2782.00865003897
 20
897.632228370156
 11
2782.00865003897
 21
892.632228370156
  0
LINE
  5
5FB
100
AcDbEntity
  8
PV-5756
100
AcDbLine
  6
BYLAYER
 10
2782.00865003897
 20
935.361037904978
 11
2782.00865003897
 21
930.361037904978
  0
LINE
  5
5FC
100
AcDbEntity
  8
PV-5756
100
AcDbLine
  6
BYLAYER
 10
2780.50865003897
 20
930.361037904978
 11
2782.00865003897
 21
930.361037904978
  0
LINE
  5
5FD
100
AcDbEntity
  8
PV-5756
100
AcDbLine
  6
BYLAYER
 10
2782.00865003897
 20
940.361037904978
 11
2782.00865003897
 21
935.361037904978
  0
LINE
  5
5FE
100
AcDbEntity
  8
0
100
AcDbLine
  6
BYLAYER
 10
2504.50865003897
 20
567.429209758933
 11
2504.50865003897
 21
551.718147504299
  0
ARC
  5
5FF
100
AcDbEntity
  8
0
100
AcDbCircle
  6
BYLAYER
 10
2502.90865003897
 20
551.718147504299
 40
1.6
100
AcDbArc
 50
270
 51
0
  0
LINE
  5
600
100
AcDbEntity
  8
0
100
AcDbLine
  6
BYLAYER
 10
2502.90865003897
 20
550.118147504299
 11
2468.40865003897
 21
550.118147504299
  0
LINE
  5
601
100
AcDbEntity
  8
0
100
AcDbLine
  6
BYLAYER
 10
2502.90865003897
 20
551.718147504299
 11
2468.40865003897
 21
551.718147504299
  0
LINE
  5
602
100
AcDbEntity
  8
0
100
AcDbLine
  6
BYLAYER
 10
2502.90865003897
 20
551.718147504299
 11
2502.90865003897
 21
567.429209758933
  0
LINE
  5
603
100
AcDbEntity
  8
DIM
100
AcDbLine
  6
BYLAYER
 62
0
370
  -2
 10
2804.50865003897
 20
849.616709758933
 11
2804.50865003897
 21
1046.98941837609
  0
LINE
  5
604
100
AcDbEntity
  8
DIM
100
AcDbLine
  6
BYLAYER
 62
0
370
  -2
 10
2474.50865003897
 20
849.616709758933
 11
2474.50865003897
 21
1046.98941837609
  0
LINE
  5
605
100
AcDbEntity
  8
DIM
100
AcDbLine
  6
BYLAYER
 62
0
370
  -2
 10
2783.50865003897
 20
1042.61441837609
 11
2669.25865003897
 21
1042.61441837609
  0
LINE
  5
606
100
AcDbEntity
  8
DIM
100
AcDbLine
  6
BYLAYER
 62
0
370
  -2
 10
2495.50865003897
 20
1042.61441837609
 11
2609.75865003897
 21
1042.61441837609
  0
SOLID
  5
607
100
AcDbEntity
  8
DIM
100
AcDbTrace
 10
2783.50865003897
 20
1046.11441837609
 30
0.0
 11
2783.50865003897
 21
1039.11441837609
 31
0.0
 12
2804.50865003897
 22
1042.61441837609
 32
0.0
 13
2804.50865003897
 23
1042.61441837609
 33
0.0
  0
SOLID
  5
608
100
AcDbEntity
  8
DIM
100
AcDbTrace
 10
2474.50865003897
 20
1042.61441837609
 30
0.0
 11
2495.50865003897
 21
1039.11441837609
 31
0.0
 12
2495.50865003897
 22
1046.11441837609
 32
0.0
 13
2495.50865003897
 23
1046.11441837609
 33
0.0
  0
TEXT
  5
609
100
AcDbEntity
  8
DIM
 62
0
100
AcDbText
  6
BYLAYER
 62
0
 10
2623.75865003897
 20
1032.11441837609
 40
21
  1
330
  7
Font_0
 72
1
 11
2639.50865003897
 21
1042.61441837609
100
AcDbText
 73
2
  0
LINE
  5
60A
100
AcDbEntity
  8
DIM
100
AcDbLine
  6
BYLAYER
 62
0
370
  -2
 10
2774.50865003897
 20
978.262588575888
 11
2774.50865003897
 21
1007.57632639405
  0
LINE
  5
60B
100
AcDbEntity
  8
DIM
100
AcDbLine
  6
BYLAYER
 62
0
370
  -2
 10
2504.50865003897
 20
978.262588575889
 11
2504.50865003897
 21
1007.57632639405
  0
LINE
  5
60C
100
AcDbEntity
  8
DIM
100
AcDbLine
  6
BYLAYER
 62
0
370
  -2
 10
2753.50865003897
 20
1003.20132639405
 11
2669.25865003897
 21
1003.20132639405
  0
LINE
  5
60D
100
AcDbEntity
  8
DIM
100
AcDbLine
  6
BYLAYER
 62
0
370
  -2
 10
2525.50865003897
 20
1003.20132639405
 11
2609.75865003897
 21
1003.20132639405
  0
SOLID
  5
60E
100
AcDbEntity
  8
DIM
100
AcDbTrace
 10
2753.50865003897
 20
1006.70132639405
 30
0.0
 11
2753.50865003897
 21
999.701326394053
 31
0.0
 12
2774.50865003897
 22
1003.20132639405
 32
0.0
 13
2774.50865003897
 23
1003.20132639405
 33
0.0
  0
SOLID
  5
60F
100
AcDbEntity
  8
DIM
100
AcDbTrace
 10
2504.50865003897
 20
1003.20132639405
 30
0.0
 11
2525.50865003897
 21
999.701326394053
 31
0.0
 12
2525.50865003897
 22
1006.70132639405
 32
0.0
 13
2525.50865003897
 23
1006.70132639405
 33
0.0
  0
TEXT
  5
610
100
AcDbEntity
  8
DIM
 62
0
100
AcDbText
  6
BYLAYER
 62
0
 10
2623.75865003897
 20
992.701326394053
 40
21
  1
270
  7
Font_0
 72
1
 11
2639.50865003897
 21
1003.20132639405
100
AcDbText
 73
2
  0
LINE
  5
611
100
AcDbEntity
  8
DIM
100
AcDbLine
  6
BYLAYER
 62
0
370
  -2
 10
2810.60865003897
 20
547.930647504299
 11
2810.60865003897
 21
461.144810697235
  0
LINE
  5
612
100
AcDbEntity
  8
DIM
100
AcDbLine
  6
BYLAYER
 62
0
370
  -2
 10
2468.40865003897
 20
547.930647504299
 11
2468.40865003897
 21
461.144810697235
  0
LINE
  5
613
100
AcDbEntity
  8
DIM
100
AcDbLine
  6
BYLAYER
 62
0
370
  -2
 10
2789.60865003897
 20
465.519810697235
 11
2671.00865003897
 21
465.519810697235
  0
LINE
  5
614
100
AcDbEntity
  8
DIM
100
AcDbLine
  6
BYLAYER
 62
0
370
  -2
 10
2489.40865003897
 20
465.519810697235
 11
2608.00865003897
 21
465.519810697235
  0
SOLID
  5
615
100
AcDbEntity
  8
DIM
100
AcDbTrace
 10
2789.60865003897
 20
469.019810697235
 30
0.0
 11
2789.60865003897
 21
462.019810697235
 31
0.0
 12
2810.60865003897
 22
465.519810697235
 32
0.0
 13
2810.60865003897
 23
465.519810697235
 33
0.0
  0
SOLID
  5
616
100
AcDbEntity
  8
DIM
100
AcDbTrace
 10
2468.40865003897
 20
465.519810697235
 30
0.0
 11
2489.40865003897
 21
462.019810697235
 31
0.0
 12
2489.40865003897
 22
469.019810697235
 32
0.0
 13
2489.40865003897
 23
469.019810697235
 33
0.0
  0
TEXT
  5
617
100
AcDbEntity
  8
DIM
 62
0
100
AcDbText
  6
BYLAYER
 62
0
 10
2623.75865003897
 20
455.019810697235
 40
21
  1
342
  7
Font_0
 72
1
 11
2639.50865003897
 21
465.519810697235
100
AcDbText
 73
2
  0
LINE
  5
618
100
AcDbEntity
  8
DIM
100
AcDbLine
  6
BYLAYER
 62
0
370
  -2
 10
2796.69615003897
 20
857.429209758933
 11
2869.21263772224
 21
857.429209758932
  0
LINE
  5
619
100
AcDbEntity
  8
DIM
100
AcDbLine
  6
BYLAYER
 62
0
370
  -2
 10
2796.69615003897
 20
567.429209758933
 11
2869.21263772224
 21
567.429209758933
  0
LINE
  5
61A
100
AcDbEntity
  8
DIM
100
AcDbLine
  6
BYLAYER
 62
0
370
  -2
 10
2864.83763772224
 20
836.429209758932
 11
2864.83763772224
 21
742.179209758933
  0
LINE
  5
61B
100
AcDbEntity
  8
DIM
100
AcDbLine
  6
BYLAYER
 62
0
370
  -2
 10
2864.83763772224
 20
588.429209758933
 11
2864.83763772224
 21
682.679209758932
  0
SOLID
  5
61C
100
AcDbEntity
  8
DIM
100
AcDbTrace
 10
2861.33763772224
 20
836.429209758932
 30
0.0
 11
2868.33763772224
 21
836.429209758932
 31
0.0
 12
2864.83763772224
 22
857.429209758932
 32
0.0
 13
2864.83763772224
 23
857.429209758932
 33
0.0
  0
SOLID
  5
61D
100
AcDbEntity
  8
DIM
100
AcDbTrace
 10
2864.83763772224
 20
567.429209758933
 30
0.0
 11
2868.33763772224
 21
588.429209758933
 31
0.0
 12
2861.33763772224
 22
588.429209758933
 32
0.0
 13
2861.33763772224
 23
588.429209758933
 33
0.0
  0
TEXT
  5
61E
100
AcDbEntity
  8
DIM
 62
0
100
AcDbText
  6
BYLAYER
 62
0
 10
2875.33763772224
 20
696.679209758933
 40
21
  1
290
  7
Font_0
 50
90
 72
1
 11
2864.83763772224
 21
712.429209758933
100
AcDbText
 73
2
  0
LINE
  5
61F
100
AcDbEntity
  8
DIM
100
AcDbLine
  6
BYLAYER
 62
0
370
  -2
 10
2796.69615003897
 20
847.429209758933
 11
2836.16043687172
 21
847.429209758933
  0
LINE
  5
620
100
AcDbEntity
  8
DIM
100
AcDbLine
  6
BYLAYER
 62
0
370
  -2
 10
2796.69615003897
 20
712.429209758933
 11
2836.16043687172
 21
712.429209758933
  0
LINE
  5
621
100
AcDbEntity
  8
DIM
100
AcDbLine
  6
BYLAYER
 62
0
370
  -2
 10
2831.78543687172
 20
826.429209758933
 11
2831.78543687172
 21
807.929209758933
  0
LINE
  5
622
100
AcDbEntity
  8
DIM
100
AcDbLine
  6
BYLAYER
 62
0
370
  -2
 10
2831.78543687172
 20
733.429209758933
 11
2831.78543687172
 21
751.929209758933
  0
SOLID
  5
623
100
AcDbEntity
  8
DIM
100
AcDbTrace
 10
2828.28543687172
 20
826.429209758933
 30
0.0
 11
2835.28543687172
 21
826.429209758933
 31
0.0
 12
2831.78543687172
 22
847.429209758933
 32
0.0
 13
2831.78543687172
 23
847.429209758933
 33
0.0
  0
SOLID
  5
624
100
AcDbEntity
  8
DIM
100
AcDbTrace
 10
2831.78543687172
 20
712.429209758933
 30
0.0
 11
2835.28543687172
 21
733.429209758933
 31
0.0
 12
2828.28543687172
 22
733.429209758933
 32
0.0
 13
2828.28543687172
 23
733.429209758933
 33
0.0
  0
TEXT
  5
625
100
AcDbEntity
  8
DIM
 62
0
100
AcDbText
  6
BYLAYER
 62
0
 10
2842.28543687172
 20
764.179209758933
 40
21
  1
135
  7
Font_0
 50
90
 72
1
 11
2831.78543687172
 21
779.929209758933
100
AcDbText
 73
2
  0
LINE
  5
626
100
AcDbEntity
  8
DIM
100
AcDbLine
  6
BYLAYER
 62
0
370
  -2
 10
2796.69615003897
 20
712.429209758933
 11
2836.16043687172
 21
712.429209758933
  0
LINE
  5
627
100
AcDbEntity
  8
DIM
100
AcDbLine
  6
BYLAYER
 62
0
370
  -2
 10
2797.19615003897
 20
577.429209758933
 11
2836.16043687172
 21
577.429209758933
  0
LINE
  5
628
100
AcDbEntity
  8
DIM
100
AcDbLine
  6
BYLAYER
 62
0
370
  -2
 10
2831.78543687172
 20
691.429209758933
 11
2831.78543687172
 21
672.929209758932
  0
LINE
  5
629
100
AcDbEntity
  8
DIM
100
AcDbLine
  6
BYLAYER
 62
0
370
  -2
 10
2831.78543687172
 20
598.429209758933
 11
2831.78543687172
 21
616.929209758933
  0
SOLID
  5
62A
100
AcDbEntity
  8
DIM
100
AcDbTrace
 10
2828.28543687172
 20
691.429209758933
 30
0.0
 11
2835.28543687172
 21
691.429209758933
 31
0.0
 12
2831.78543687172
 22
712.429209758933
 32
0.0
 13
2831.78543687172
 23
712.429209758933
 33
0.0
  0
SOLID
  5
62B
100
AcDbEntity
  8
DIM
100
AcDbTrace
 10
2831.78543687172
 20
577.429209758933
 30
0.0
 11
2835.28543687172
 21
598.429209758933
 31
0.0
 12
2828.28543687172
 22
598.429209758933
 32
0.0
 13
2828.28543687172
 23
598.429209758933
 33
0.0
  0
TEXT
  5
62C
100
AcDbEntity
  8
DIM
 62
0
100
AcDbText
  6
BYLAYER
 62
0
 10
2842.28543687172
 20
629.179209758933
 40
21
  1
135
  7
Font_0
 50
90
 72
1
 11
2831.78543687172
 21
644.929209758933
100
AcDbText
 73
2
  0
LINE
  5
62D
100
AcDbEntity
  8
BASE
100
AcDbLine
  6
BYLAYER
 10
2468.40865003897
 20
550.118147504299
 11
2468.40865003897
 21
551.718147504299
  0
LINE
  5
62E
100
AcDbEntity
  8
HIDDEN
100
AcDbLine
  6
BYLAYER
 10
2476.30865003897
 20
551.7181475043
 11
2476.30865003897
 21
550.118147504299
  0
LINE
  5
62F
100
AcDbEntity
  8
HIDDEN
100
AcDbLine
  6
BYLAYER
 10
2490.50865003897
 20
551.7181475043
 11
2490.50865003897
 21
550.118147504299
  0
LINE
  5
630
100
AcDbEntity
  8
CEN
100
AcDbLine
  6
BYLAYER
 10
2483.40865003897
 20
552.718147504299
 11
2483.40865003897
 21
549.118147504299
  0
LINE
  5
631
100
AcDbEntity
  8
0
100
AcDbLine
  6
BYLAYER
 10
2774.50865003897
 20
567.429209758933
 11
2774.50865003897
 21
551.718147504299
  0
ARC
  5
632
100
AcDbEntity
  8
0
100
AcDbCircle
  6
BYLAYER
 10
2776.10865003897
 20
551.718147504299
 40
1.6
100
AcDbArc
 50
180
 51
270
  0
LINE
  5
633
100
AcDbEntity
  8
0
100
AcDbLine
  6
BYLAYER
 10
2776.10865003897
 20
550.118147504299
 11
2810.60865003897
 21
550.118147504299
  0
LINE
  5
634
100
AcDbEntity
  8
0
100
AcDbLine
  6
BYLAYER
 10
2776.10865003897
 20
551.718147504299
 11
2810.60865003897
 21
551.718147504299
  0
LINE
  5
635
100
AcDbEntity
  8
0
100
AcDbLine
  6
BYLAYER
 10
2776.10865003897
 20
551.718147504299
 11
2776.10865003897
 21
567.429209758933
  0
LINE
  5
636
100
AcDbEntity
  8
BASE
100
AcDbLine
  6
BYLAYER
 10
2810.60865003897
 20
550.118147504299
 11
2810.60865003897
 21
551.718147504299
  0
LINE
  5
637
100
AcDbEntity
  8
HIDDEN
100
AcDbLine
  6
BYLAYER
 10
2802.70865003897
 20
551.7181475043
 11
2802.70865003897
 21
550.118147504299
  0
LINE
  5
638
100
AcDbEntity
  8
HIDDEN
100
AcDbLine
  6
BYLAYER
 10
2788.50865003897
 20
551.7181475043
 11
2788.50865003897
 21
550.118147504299
  0
LINE
  5
639
100
AcDbEntity
  8
CEN
100
AcDbLine
  6
BYLAYER
 10
2795.60865003897
 20
552.718147504299
 11
2795.60865003897
 21
549.118147504299
  0
LINE
  5
63A
100
AcDbEntity
  8
DIM
100
AcDbLine
  6
BYLAYER
 62
0
370
  -2
 10
2795.60865003897
 20
546.930647504299
 11
2795.60865003897
 21
494.599235924672
  0
LINE
  5
63B
100
AcDbEntity
  8
DIM
100
AcDbLine
  6
BYLAYER
 62
0
370
  -2
 10
2483.40865003897
 20
546.930647504299
 11
2483.40865003897
 21
494.599235924672
  0
LINE
  5
63C
100
AcDbEntity
  8
DIM
100
AcDbLine
  6
BYLAYER
 62
0
370
  -2
 10
2774.60865003897
 20
498.974235924672
 11
2667.50865003897
 21
498.974235924672
  0
LINE
  5
63D
100
AcDbEntity
  8
DIM
100
AcDbLine
  6
BYLAYER
 62
0
370
  -2
 10
2504.40865003897
 20
498.974235924672
 11
2611.50865003897
 21
498.974235924672
  0
SOLID
  5
63E
100
AcDbEntity
  8
DIM
100
AcDbTrace
 10
2774.60865003897
 20
502.474235924672
 30
0.0
 11
2774.60865003897
 21
495.474235924672
 31
0.0
 12
2795.60865003897
 22
498.974235924672
 32
0.0
 13
2795.60865003897
 23
498.974235924672
 33
0.0
  0
SOLID
  5
63F
100
AcDbEntity
  8
DIM
100
AcDbTrace
 10
2483.40865003897
 20
498.974235924672
 30
0.0
 11
2504.40865003897
 21
495.474235924672
 31
0.0
 12
2504.40865003897
 22
502.474235924672
 32
0.0
 13
2504.40865003897
 23
502.474235924672
 33
0.0
  0
TEXT
  5
640
100
AcDbEntity
  8
DIM
 62
0
100
AcDbText
  6
BYLAYER
 62
0
 10
2623.75865003897
 20
488.474235924672
 40
21
  1
312
  7
Font_0
 72
1
 11
2639.50865003897
 21
498.974235924672
100
AcDbText
 73
2
  0
LINE
  5
641
100
AcDbEntity
  8
DIM
100
AcDbLine
  6
BYLAYER
 62
0
370
  -2
 10
2771.50865003897
 20
625.907343952464
 11
2771.50865003897
 21
628.094843952464
  0
LINE
  5
642
100
AcDbEntity
  8
DIM
100
AcDbLine
  6
BYLAYER
 62
0
370
  -2
 10
2507.50865003897
 20
625.907343952464
 11
2507.50865003897
 21
628.094843952464
  0
LINE
  5
643
100
AcDbEntity
  8
DIM
100
AcDbLine
  6
BYLAYER
 62
0
370
  -2
 10
2750.50865003897
 20
623.719843952464
 11
2671.00865003897
 21
623.719843952464
  0
LINE
  5
644
100
AcDbEntity
  8
DIM
100
AcDbLine
  6
BYLAYER
 62
0
370
  -2
 10
2528.50865003897
 20
623.719843952464
 11
2608.00865003897
 21
623.719843952464
  0
SOLID
  5
645
100
AcDbEntity
  8
DIM
100
AcDbTrace
 10
2750.50865003897
 20
627.219843952464
 30
0.0
 11
2750.50865003897
 21
620.219843952464
 31
0.0
 12
2771.50865003897
 22
623.719843952464
 32
0.0
 13
2771.50865003897
 23
623.719843952464
 33
0.0
  0
SOLID
  5
646
100
AcDbEntity
  8
DIM
100
AcDbTrace
 10
2507.50865003897
 20
623.719843952464
 30
0.0
 11
2528.50865003897
 21
620.219843952464
 31
0.0
 12
2528.50865003897
 22
627.219843952464
 32
0.0
 13
2528.50865003897
 23
627.219843952464
 33
0.0
  0
TEXT
  5
647
100
AcDbEntity
  8
DIM
 62
0
100
AcDbText
  6
BYLAYER
 62
0
 10
2623.75865003897
 20
613.219843952464
 40
21
  1
264
  7
Font_0
 72
1
 11
2639.50865003897
 21
623.719843952464
100
AcDbText
 73
2
  0
LINE
  5
648
100
AcDbEntity
  8
DIM
100
AcDbLine
  6
BYLAYER
 62
0
370
  -2
 10
2505.32115003897
 20
829.929209758932
 11
2441.00894022492
 21
829.929209758932
  0
LINE
  5
649
100
AcDbEntity
  8
DIM
100
AcDbLine
  6
BYLAYER
 62
0
370
  -2
 10
2505.32115003897
 20
594.929209758933
 11
2441.00894022492
 21
594.929209758933
  0
LINE
  5
64A
100
AcDbEntity
  8
DIM
100
AcDbLine
  6
BYLAYER
 62
0
370
  -2
 10
2445.38394022492
 20
808.929209758932
 11
2445.38394022492
 21
743.929209758932
  0
LINE
  5
64B
100
AcDbEntity
  8
DIM
100
AcDbLine
  6
BYLAYER
 62
0
370
  -2
 10
2445.38394022492
 20
615.929209758933
 11
2445.38394022492
 21
680.929209758932
  0
SOLID
  5
64C
100
AcDbEntity
  8
DIM
100
AcDbTrace
 10
2441.88394022492
 20
808.929209758932
 30
0.0
 11
2448.88394022492
 21
808.929209758932
 31
0.0
 12
2445.38394022492
 22
829.929209758932
 32
0.0
 13
2445.38394022492
 23
829.929209758932
 33
0.0
  0
SOLID
  5
64D
100
AcDbEntity
  8
DIM
100
AcDbTrace
 10
2445.38394022492
 20
594.929209758933
 30
0.0
 11
2448.88394022492
 21
615.929209758933
 31
0.0
 12
2441.88394022492
 22
615.929209758933
 32
0.0
 13
2441.88394022492
 23
615.929209758933
 33
0.0
  0
TEXT
  5
64E
100
AcDbEntity
  8
DIM
 62
0
100
AcDbText
  6
BYLAYER
 62
0
 10
2455.88394022492
 20
696.679209758933
 40
21
  1
235
  7
Font_0
 50
90
 72
1
 11
2445.38394022492
 21
712.429209758933
100
AcDbText
 73
2
  0
LINE
  5
64F
100
AcDbEntity
  8
0
100
AcDbLine
  6
BYLAYER
 10
3055.77293459558
 20
551.718147504299
 11
3053.41809427661
 21
554.072987823273
  0
LINE
  5
650
100
AcDbEntity
  8
0
100
AcDbLine
  6
BYLAYER
 10
3335.17011649935
 20
551.718147504299
 11
3051.95362818254
 21
551.718147504298
  0
LINE
  5
651
100
AcDbEntity
  8
0
100
AcDbLine
  6
BYLAYER
 10
3335.17011649935
 20
550.118147504299
 11
3051.95362818254
 21
550.118147504299
  0
ARC
  5
652
100
AcDbEntity
  8
0
100
AcDbCircle
  6
BYLAYER
 10
3193.56187234095
 20
759.429209758933
 40
142.5
100
AcDbArc
 50
230.475870969794
 51
309.524129030206
  0
LINE
  5
653
100
AcDbEntity
  8
0
100
AcDbLine
  6
BYLAYER
 10
3087.80303210352
 20
645.737278955371
 11
3052.32964090716
 21
559.510820779599
  0
ARC
  5
654
100
AcDbEntity
  8
0
100
AcDbCircle
  6
BYLAYER
 10
3056.95362818254
 20
557.608521729207
 40
5
100
AcDbArc
 50
157.637832743799
 51
225.000000000014
  0
ARC
  5
655
100
AcDbEntity
  8
0
100
AcDbCircle
  6
BYLAYER
 10
3096.73076932408
 20
642.064425847132
 40
9.65372165717004
100
AcDbArc
 50
50.475870969794
 51
157.637832743799
  0
ARC
  5
656
100
AcDbEntity
  8
0
100
AcDbCircle
  6
BYLAYER
 10
3290.39297535782
 20
642.064425847132
 40
9.65372165717004
100
AcDbArc
 50
22.3621672562011
 51
129.524129030206
  0
LINE
  5
657
100
AcDbEntity
  8
0
100
AcDbLine
  6
BYLAYER
 10
3299.32071257838
 20
645.737278955371
 11
3334.79410377474
 21
559.5108207796
  0
ARC
  5
658
100
AcDbEntity
  8
0
100
AcDbCircle
  6
BYLAYER
 10
3193.56187234095
 20
730.929209758934
 40
125.75
100
AcDbArc
 50
269.222725712991
 51
270.777274287009
  0
ARC
  5
659
100
AcDbEntity
  8
0
100
AcDbCircle
  6
BYLAYER
 10
3193.56187234095
 20
730.929209758934
 40
132.25
100
AcDbArc
 50
269.222725712991
 51
270.777274287009
  0
ARC
  5
65A
100
AcDbEntity
  8
0
100
AcDbCircle
  6
BYLAYER
 10
3191.81191259872
 20
601.941079913972
 40
3.25
100
AcDbArc
 50
89.2227257130172
 51
269.222725712991
  0
ARC
  5
65B
100
AcDbEntity
  8
0
100
AcDbCircle
  6
BYLAYER
 10
3195.31183208318
 20
601.941079913972
 40
3.25
100
AcDbArc
 50
270.777274287009
 51
90.7772742869828
  0
ARC
  5
65C
100
AcDbEntity
  8
0
100
AcDbCircle
  6
BYLAYER
 10
3193.56187234095
 20
730.929209758934
 40
125.75
100
AcDbArc
 50
224.222725713013
 51
225.77727428698
  0
ARC
  5
65D
100
AcDbEntity
  8
0
100
AcDbCircle
  6
BYLAYER
 10
3193.56187234095
 20
730.929209758934
 40
132.25
100
AcDbArc
 50
224.222725713013
 51
225.77727428698
  0
ARC
  5
65E
100
AcDbEntity
  8
0
100
AcDbCircle
  6
BYLAYER
 10
3101.11608263447
 20
640.958236853524
 40
3.25
100
AcDbArc
 50
44.2227257130131
 51
224.222725713013
  0
ARC
  5
65F
100
AcDbEntity
  8
0
100
AcDbCircle
  6
BYLAYER
 10
3103.59089943554
 20
638.483420052457
 40
3.25
100
AcDbArc
 50
225.77727428698
 51
45.77727428698
  0
ARC
  5
660
100
AcDbEntity
  8
0
100
AcDbCircle
  6
BYLAYER
 10
3193.56187234095
 20
730.929209758934
 40
125.75
100
AcDbArc
 50
314.22272571302
 51
315.777274286987
  0
ARC
  5
661
100
AcDbEntity
  8
0
100
AcDbCircle
  6
BYLAYER
 10
3193.56187234095
 20
730.929209758934
 40
132.25
100
AcDbArc
 50
314.22272571302
 51
315.777274286987
  0
ARC
  5
662
100
AcDbEntity
  8
0
100
AcDbCircle
  6
BYLAYER
 10
3286.00766204742
 20
640.958236853524
 40
3.25
100
AcDbArc
 50
315.777274286987
 51
135.777274286987
  0
ARC
  5
663
100
AcDbEntity
  8
0
100
AcDbCircle
  6
BYLAYER
 10
3283.53284524636
 20
638.483420052457
 40
3.25
100
AcDbArc
 50
134.22272571302
 51
314.22272571302
  0
LINE
  5
664
100
AcDbEntity
  8
0
100
AcDbLine
  6
BYLAYER
 10
3051.95362818254
 20
551.718147504298
 11
3051.95362818254
 21
550.118147504299
  0
LINE
  5
665
100
AcDbEntity
  8
HIDDEN
100
AcDbLine
  6
BYLAYER
 10
3055.77293459558
 20
551.718147504299
 11
3055.77293459558
 21
550.118147504299
  0
LINE
  5
666
100
AcDbEntity
  8
0
100
AcDbLine
  6
BYLAYER
 10
3331.35081008631
 20
551.718147504299
 11
3333.70565040528
 21
554.072987823273
  0
ARC
  5
667
100
AcDbEntity
  8
0
100
AcDbCircle
  6
BYLAYER
 10
3330.17011649935
 20
557.608521729207
 40
5
100
AcDbArc
 50
315.000000000023
 51
22.3621672562011
  0
LINE
  5
668
100
AcDbEntity
  8
0
100
AcDbLine
  6
BYLAYER
 10
3335.17011649935
 20
551.718147504298
 11
3335.17011649935
 21
550.118147504299
  0
LINE
  5
669
100
AcDbEntity
  8
HIDDEN
100
AcDbLine
  6
BYLAYER
 10
3331.35081008631
 20
551.718147504299
 11
3331.35081008631
 21
550.118147504299
  0
LINE
  5
66A
100
AcDbEntity
  8
HIDDEN
100
AcDbLine
  6
BYLAYER
 10
3083.16187234095
 20
550.118147504299
 11
3083.16187234095
 21
551.718147504298
  0
LINE
  5
66B
100
AcDbEntity
  8
HIDDEN
100
AcDbLine
  6
BYLAYER
 10
3068.96187234095
 20
550.118147504299
 11
3068.96187234095
 21
551.718147504298
  0
LINE
  5
66C
100
AcDbEntity
  8
CEN
100
AcDbLine
  6
BYLAYER
 10
3076.06187234095
 20
549.118147504298
 11
3076.06187234095
 21
552.718147504298
  0
LINE
  5
66D
100
AcDbEntity
  8
HIDDEN
100
AcDbLine
  6
BYLAYER
 10
3303.96187234095
 20
550.118147504299
 11
3303.96187234095
 21
551.718147504298
  0
LINE
  5
66E
100
AcDbEntity
  8
HIDDEN
100
AcDbLine
  6
BYLAYER
 10
3318.16187234095
 20
550.118147504299
 11
3318.16187234095
 21
551.718147504298
  0
LINE
  5
66F
100
AcDbEntity
  8
CEN
100
AcDbLine
  6
BYLAYER
 10
3311.06187234095
 20
549.118147504298
 11
3311.06187234095
 21
552.718147504298
  0
LINE
  5
670
100
AcDbEntity
  8
DIM
100
AcDbLine
  6
BYLAYER
 62
0
370
  -2
 10
3386.12436963946
 20
795.128817019541
 11
3386.12436963946
 21
1046.98941837609
  0
LINE
  5
671
100
AcDbEntity
  8
DIM
100
AcDbLine
  6
BYLAYER
 62
0
370
  -2
 10
3007.06187234095
 20
859.616709758933
 11
3007.06187234095
 21
1046.98941837609
  0
LINE
  5
672
100
AcDbEntity
  8
DIM
100
AcDbLine
  6
BYLAYER
 62
0
370
  -2
 10
3365.12436963946
 20
1042.61441837609
 11
3226.34312099021
 21
1042.61441837609
  0
LINE
  5
673
100
AcDbEntity
  8
DIM
100
AcDbLine
  6
BYLAYER
 62
0
370
  -2
 10
3028.06187234095
 20
1042.61441837609
 11
3166.84312099021
 21
1042.61441837609
  0
SOLID
  5
674
100
AcDbEntity
  8
DIM
100
AcDbTrace
 10
3365.12436963946
 20
1046.11441837609
 30
0.0
 11
3365.12436963946
 21
1039.11441837609
 31
0.0
 12
3386.12436963946
 22
1042.61441837609
 32
0.0
 13
3386.12436963946
 23
1042.61441837609
 33
0.0
  0
SOLID
  5
675
100
AcDbEntity
  8
DIM
100
AcDbTrace
 10
3007.06187234095
 20
1042.61441837609
 30
0.0
 11
3028.06187234095
 21
1039.11441837609
 31
0.0
 12
3028.06187234095
 22
1046.11441837609
 32
0.0
 13
3028.06187234095
 23
1046.11441837609
 33
0.0
  0
TEXT
  5
676
100
AcDbEntity
  8
DIM
 62
0
100
AcDbText
  6
BYLAYER
 62
0
 10
3180.84312099021
 20
1032.11441837609
 40
21
  1
380
  7
Font_0
 72
1
 11
3196.59312099021
 21
1042.61441837609
100
AcDbText
 73
2
  0
LINE
  5
677
100
AcDbEntity
  8
DIM
100
AcDbLine
  6
BYLAYER
 62
0
370
  -2
 10
3195.74937234095
 20
807.429209758933
 11
3427.15283373923
 21
807.429209758933
  0
LINE
  5
678
100
AcDbEntity
  8
DIM
100
AcDbLine
  6
BYLAYER
 62
0
370
  -2
 10
3192.62499494578
 20
591.432207623234
 11
3427.15283373923
 21
591.432207623234
  0
LINE
  5
679
100
AcDbEntity
  8
DIM
100
AcDbLine
  6
BYLAYER
 62
0
370
  -2
 10
3422.77783373923
 20
786.429209758933
 11
3422.77783373923
 21
727.430708691084
  0
LINE
  5
67A
100
AcDbEntity
  8
DIM
100
AcDbLine
  6
BYLAYER
 62
0
370
  -2
 10
3422.77783373923
 20
612.432207623234
 11
3422.77783373923
 21
671.430708691084
  0
SOLID
  5
67B
100
AcDbEntity
  8
DIM
100
AcDbTrace
 10
3419.27783373923
 20
786.429209758933
 30
0.0
 11
3426.27783373923
 21
786.429209758933
 31
0.0
 12
3422.77783373923
 22
807.429209758933
 32
0.0
 13
3422.77783373923
 23
807.429209758933
 33
0.0
  0
SOLID
  5
67C
100
AcDbEntity
  8
DIM
100
AcDbTrace
 10
3422.77783373923
 20
591.432207623234
 30
0.0
 11
3426.27783373923
 21
612.432207623234
 31
0.0
 12
3419.27783373923
 22
612.432207623234
 32
0.0
 13
3419.27783373923
 23
612.432207623234
 33
0.0
  0
TEXT
  5
67D
100
AcDbEntity
  8
DIM
 62
0
100
AcDbText
  6
BYLAYER
 62
0
 10
3433.27783373923
 20
683.680708691084
 40
21
  1
216
  7
Font_0
 50
90
 72
1
 11
3422.77783373923
 21
699.430708691084
100
AcDbText
 73
2
  0
LINE
  5
67E
100
AcDbEntity
  8
DIM
100
AcDbLine
  6
BYLAYER
 62
0
370
  -2
 10
3076.06187234095
 20
546.930647504298
 11
3076.06187234095
 21
514.112131516265
  0
LINE
  5
67F
100
AcDbEntity
  8
DIM
100
AcDbLine
  6
BYLAYER
 62
0
370
  -2
 10
3311.06187234095
 20
546.930647504298
 11
3311.06187234095
 21
514.112131516265
  0
LINE
  5
680
100
AcDbEntity
  8
DIM
100
AcDbLine
  6
BYLAYER
 62
0
370
  -2
 10
3097.06187234095
 20
518.487131516265
 11
3162.06187234095
 21
518.487131516265
  0
LINE
  5
681
100
AcDbEntity
  8
DIM
100
AcDbLine
  6
BYLAYER
 62
0
370
  -2
 10
3290.06187234095
 20
518.487131516265
 11
3225.06187234095
 21
518.487131516265
  0
SOLID
  5
682
100
AcDbEntity
  8
DIM
100
AcDbTrace
 10
3076.06187234095
 20
518.487131516265
 30
0.0
 11
3097.06187234095
 21
514.987131516265
 31
0.0
 12
3097.06187234095
 22
521.987131516265
 32
0.0
 13
3097.06187234095
 23
521.987131516265
 33
0.0
  0
SOLID
  5
683
100
AcDbEntity
  8
DIM
100
AcDbTrace
 10
3290.06187234095
 20
521.987131516265
 30
0.0
 11
3290.06187234095
 21
514.987131516265
 31
0.0
 12
3311.06187234095
 22
518.487131516265
 32
0.0
 13
3311.06187234095
 23
518.487131516265
 33
0.0
  0
TEXT
  5
684
100
AcDbEntity
  8
DIM
 62
0
100
AcDbText
  6
BYLAYER
 62
0
 10
3177.81187234095
 20
507.987131516265
 40
21
  1
235
  7
Font_0
 72
1
 11
3193.56187234095
 21
518.487131516265
100
AcDbText
 73
2
  0
LINE
  5
685
100
AcDbEntity
  8
DIM
100
AcDbLine
  6
BYLAYER
 62
0
370
  -2
 10
3051.95362818254
 20
547.930647504298
 11
3051.95362818254
 21
475.03913252337
  0
LINE
  5
686
100
AcDbEntity
  8
DIM
100
AcDbLine
  6
BYLAYER
 62
0
370
  -2
 10
3335.17011649935
 20
547.930647504298
 11
3335.17011649935
 21
475.03913252337
  0
LINE
  5
687
100
AcDbEntity
  8
DIM
100
AcDbLine
  6
BYLAYER
 62
0
370
  -2
 10
3072.95362818254
 20
479.41413252337
 11
3162.06187234095
 21
479.41413252337
  0
LINE
  5
688
100
AcDbEntity
  8
DIM
100
AcDbLine
  6
BYLAYER
 62
0
370
  -2
 10
3314.17011649935
 20
479.41413252337
 11
3225.06187234095
 21
479.41413252337
  0
SOLID
  5
689
100
AcDbEntity
  8
DIM
100
AcDbTrace
 10
3051.95362818254
 20
479.41413252337
 30
0.0
 11
3072.95362818254
 21
475.91413252337
 31
0.0
 12
3072.95362818254
 22
482.91413252337
 32
0.0
 13
3072.95362818254
 23
482.91413252337
 33
0.0
  0
SOLID
  5
68A
100
AcDbEntity
  8
DIM
100
AcDbTrace
 10
3314.17011649935
 20
482.91413252337
 30
0.0
 11
3314.17011649935
 21
475.91413252337
 31
0.0
 12
3335.17011649935
 22
479.41413252337
 32
0.0
 13
3335.17011649935
 23
479.41413252337
 33
0.0
  0
TEXT
  5
68B
100
AcDbEntity
  8
DIM
 62
0
100
AcDbText
  6
BYLAYER
 62
0
 10
3177.81187234095
 20
468.91413252337
 40
21
  1
283
  7
Font_0
 72
1
 11
3193.56187234095
 21
479.41413252337
100
AcDbText
 73
2
  0
LINE
  5
68C
100
AcDbEntity
  8
DIM
100
AcDbLine
  6
BYLAYER
 62
0
370
  -2
 10
3007.06187234095
 20
859.616709758933
 11
3007.06187234095
 21
1007.57632639405
  0
LINE
  5
68D
100
AcDbEntity
  8
DIM
100
AcDbLine
  6
BYLAYER
 62
0
370
  -2
 10
3193.56187234095
 20
809.616709758933
 11
3193.56187234095
 21
1007.57632639405
  0
LINE
  5
68E
100
AcDbEntity
  8
DIM
100
AcDbLine
  6
BYLAYER
 62
0
370
  -2
 10
3028.06187234095
 20
1003.20132639405
 11
3072.31187234095
 21
1003.20132639405
  0
LINE
  5
68F
100
AcDbEntity
  8
DIM
100
AcDbLine
  6
BYLAYER
 62
0
370
  -2
 10
3172.56187234095
 20
1003.20132639405
 11
3128.31187234095
 21
1003.20132639405
  0
SOLID
  5
690
100
AcDbEntity
  8
DIM
100
AcDbTrace
 10
3007.06187234095
 20
1003.20132639405
 30
0.0
 11
3028.06187234095
 21
999.701326394053
 31
0.0
 12
3028.06187234095
 22
1006.70132639405
 32
0.0
 13
3028.06187234095
 23
1006.70132639405
 33
0.0
  0
SOLID
  5
691
100
AcDbEntity
  8
DIM
100
AcDbTrace
 10
3172.56187234095
 20
1006.70132639405
 30
0.0
 11
3172.56187234095
 21
999.701326394053
 31
0.0
 12
3193.56187234095
 22
1003.20132639405
 32
0.0
 13
3193.56187234095
 23
1003.20132639405
 33
0.0
  0
TEXT
  5
692
100
AcDbEntity
  8
DIM
 62
0
100
AcDbText
  6
BYLAYER
 62
0
 10
3084.56187234095
 20
992.701326394053
 40
21
  1
187
  7
Font_0
 72
1
 11
3100.31187234095
 21
1003.20132639405
100
AcDbText
 73
2
  0
LINE
  5
693
100
AcDbEntity
  8
DIM
100
AcDbLine
  6
BYLAYER
 62
0
370
  -2
 10
3193.56187234095
 20
809.616709758933
 11
3193.56187234095
 21
1007.57632639405
  0
LINE
  5
694
100
AcDbEntity
  8
DIM
100
AcDbLine
  6
BYLAYER
 62
0
370
  -2
 10
3386.12436963946
 20
795.128817019455
 11
3386.12436963946
 21
1007.57632639405
  0
LINE
  5
695
100
AcDbEntity
  8
DIM
100
AcDbLine
  6
BYLAYER
 62
0
370
  -2
 10
3214.56187234095
 20
1003.20132639405
 11
3261.84312099021
 21
1003.20132639405
  0
LINE
  5
696
100
AcDbEntity
  8
DIM
100
AcDbLine
  6
BYLAYER
 62
0
370
  -2
 10
3365.12436963946
 20
1003.20132639405
 11
3317.84312099021
 21
1003.20132639405
  0
SOLID
  5
697
100
AcDbEntity
  8
DIM
100
AcDbTrace
 10
3193.56187234095
 20
1003.20132639405
 30
0.0
 11
3214.56187234095
 21
999.701326394053
 31
0.0
 12
3214.56187234095
 22
1006.70132639405
 32
0.0
 13
3214.56187234095
 23
1006.70132639405
 33
0.0
  0
SOLID
  5
698
100
AcDbEntity
  8
DIM
100
AcDbTrace
 10
3365.12436963946
 20
1006.70132639405
 30
0.0
 11
3365.12436963946
 21
999.701326394053
 31
0.0
 12
3386.12436963946
 22
1003.20132639405
 32
0.0
 13
3386.12436963946
 23
1003.20132639405
 33
0.0
  0
TEXT
  5
699
100
AcDbEntity
  8
DIM
 62
0
100
AcDbText
  6
BYLAYER
 62
0
 10
3274.09312099021
 20
992.701326394053
 40
21
  1
193
  7
Font_0
 72
1
 11
3289.84312099021
 21
1003.20132639405
100
AcDbText
 73
2
  0
LINE
  5
69A
100
AcDbEntity
  8
DIM
100
AcDbLine
  6
BYLAYER
 62
0
370
  -2
 10
3211.26669891472
 20
976.075088575889
 11
3427.15283373923
 21
976.075088575889
  0
LINE
  5
69B
100
AcDbEntity
  8
DIM
100
AcDbLine
  6
BYLAYER
 62
0
370
  -2
 10
3195.74937234095
 20
807.429209758933
 11
3427.15283373923
 21
807.429209758933
  0
LINE
  5
69C
100
AcDbEntity
  8
DIM
100
AcDbLine
  6
BYLAYER
 62
0
370
  -2
 10
3422.77783373923
 20
955.075088575889
 11
3422.77783373923
 21
919.752149167411
  0
LINE
  5
69D
100
AcDbEntity
  8
DIM
100
AcDbLine
  6
BYLAYER
 62
0
370
  -2
 10
3422.77783373923
 20
828.429209758933
 11
3422.77783373923
 21
863.752149167411
  0
SOLID
  5
69E
100
AcDbEntity
  8
DIM
100
AcDbTrace
 10
3419.27783373923
 20
955.075088575889
 30
0.0
 11
3426.27783373923
 21
955.075088575889
 31
0.0
 12
3422.77783373923
 22
976.075088575889
 32
0.0
 13
3422.77783373923
 23
976.075088575889
 33
0.0
  0
SOLID
  5
69F
100
AcDbEntity
  8
DIM
100
AcDbTrace
 10
3422.77783373923
 20
807.429209758933
 30
0.0
 11
3426.27783373923
 21
828.429209758933
 31
0.0
 12
3419.27783373923
 22
828.429209758933
 32
0.0
 13
3419.27783373923
 23
828.429209758933
 33
0.0
  0
TEXT
  5
6A0
100
AcDbEntity
  8
DIM
 62
0
100
AcDbText
  6
BYLAYER
 62
0
 10
3433.27783373923
 20
876.002149167411
 40
21
  1
169
  7
Font_0
 50
90
 72
1
 11
3422.77783373923
 21
891.752149167411
100
AcDbText
 73
2
  0
LINE
  5
6A1
100
AcDbEntity
  8
DIM
100
AcDbLine
  6
BYLAYER
 62
0
370
  -2
 10
3103.27841873459
 20
674.082291135215
 11
3124.27841873459
 21
674.082291135215
  0
LINE
  5
6A2
100
AcDbEntity
  8
DIM
100
AcDbLine
  6
BYLAYER
 62
0
370
  -2
 10
3124.27841873459
 20
674.082291135215
 11
3136.90476165088
 21
698.107312119911
  0
TEXT
  5
6A3
100
AcDbEntity
  8
DIM
 62
0
100
AcDbText
  6
BYLAYER
 62
0
 10
3036.77841873459
 20
663.582291135215
 40
21
  1
φ205
  7
Font_0
 72
1
 11
3063.02841873459
 21
674.082291135215
100
AcDbText
 73
2
  0
SOLID
  5
6A4
100
AcDbEntity
  8
DIM
100
AcDbTrace
 10
3133.80657021982
 20
699.735565741578
 30
0.0
 11
3140.00295308195
 21
696.479058498243
 31
0.0
 12
3146.67428338089
 22
716.696460706303
 32
0.0
 13
3146.67428338089
 23
716.696460706303
 33
0.0
  0
LINE
  5
6A5
100
AcDbEntity
  8
DIM
100
AcDbLine
  6
BYLAYER
 62
0
370
  -2
 10
3192.62499494579
 20
591.432207623234
 11
3427.15283373923
 21
591.432207623234
  0
LINE
  5
6A6
100
AcDbEntity
  8
DIM
100
AcDbLine
  6
BYLAYER
 62
0
370
  -2
 10
3337.35761649935
 20
550.118147504299
 11
3427.15283373923
 21
550.118147504299
  0
LINE
  5
6A7
100
AcDbEntity
  8
DIM
100
AcDbLine
  6
BYLAYER
 62
0
370
  -2
 10
3422.77783373923
 20
612.432207623234
 11
3422.77783373923
 21
633.432207623234
  0
LINE
  5
6A8
100
AcDbEntity
  8
DIM
100
AcDbLine
  6
BYLAYER
 62
0
370
  -2
 10
3422.77783373923
 20
529.118147504299
 11
3422.77783373923
 21
508.118147504299
  0
SOLID
  5
6A9
100
AcDbEntity
  8
DIM
100
AcDbTrace
 10
3422.77783373923
 20
591.432207623234
 30
0.0
 11
3426.27783373923
 21
612.432207623234
 31
0.0
 12
3419.27783373923
 22
612.432207623234
 32
0.0
 13
3419.27783373923
 23
612.432207623234
 33
0.0
  0
SOLID
  5
6AA
100
AcDbEntity
  8
DIM
100
AcDbTrace
 10
3419.27783373923
 20
529.118147504299
 30
0.0
 11
3426.27783373923
 21
529.118147504299
 31
0.0
 12
3422.77783373923
 22
550.118147504299
 32
0.0
 13
3422.77783373923
 23
550.118147504299
 33
0.0
  0
TEXT
  5
6AB
100
AcDbEntity
  8
DIM
 62
0
100
AcDbText
  6
BYLAYER
 62
0
 10
3433.27783373923
 20
560.275177563767
 40
21
  1
41
  7
Font_0
 50
90
 72
1
 11
3422.77783373923
 21
570.775177563767
100
AcDbText
 73
2
  0
LINE
  5
6AC
100
AcDbEntity
  8
DIM
100
AcDbLine
  6
BYLAYER
 62
0
370
  -2
 10
2484.50865003897
 20
575.241709758933
 11
2484.50865003897
 21
527.598210601373
  0
LINE
  5
6AD
100
AcDbEntity
  8
DIM
100
AcDbLine
  6
BYLAYER
 62
0
370
  -2
 10
2639.50865003897
 20
575.241709758933
 11
2639.50865003897
 21
527.598210601373
  0
LINE
  5
6AE
100
AcDbEntity
  8
DIM
100
AcDbLine
  6
BYLAYER
 62
0
370
  -2
 10
2505.50865003897
 20
531.973210601373
 11
2534.00865003897
 21
531.973210601373
  0
LINE
  5
6AF
100
AcDbEntity
  8
DIM
100
AcDbLine
  6
BYLAYER
 62
0
370
  -2
 10
2618.50865003897
 20
531.973210601373
 11
2590.00865003897
 21
531.973210601373
  0
SOLID
  5
6B0
100
AcDbEntity
  8
DIM
100
AcDbTrace
 10
2484.50865003897
 20
531.973210601373
 30
0.0
 11
2505.50865003897
 21
528.473210601373
 31
0.0
 12
2505.50865003897
 22
535.473210601373
 32
0.0
 13
2505.50865003897
 23
535.473210601373
 33
0.0
  0
SOLID
  5
6B1
100
AcDbEntity
  8
DIM
100
AcDbTrace
 10
2618.50865003897
 20
535.473210601373
 30
0.0
 11
2618.50865003897
 21
528.473210601373
 31
0.0
 12
2639.50865003897
 22
531.973210601373
 32
0.0
 13
2639.50865003897
 23
531.973210601373
 33
0.0
  0
TEXT
  5
6B2
100
AcDbEntity
  8
DIM
 62
0
100
AcDbText
  6
BYLAYER
 62
0
 10
2546.25865003897
 20
521.473210601373
 40
21
  1
155
  7
Font_0
 72
1
 11
2562.00865003897
 21
531.973210601373
100
AcDbText
 73
2
  0
LINE
  5
6B3
100
AcDbEntity
  8
DIM
100
AcDbLine
  6
BYLAYER
 62
0
370
  -2
 10
2639.50865003897
 20
575.241709758933
 11
2639.50865003897
 21
527.598210601373
  0
LINE
  5
6B4
100
AcDbEntity
  8
DIM
100
AcDbLine
  6
BYLAYER
 62
0
370
  -2
 10
2794.50865003897
 20
575.241709758933
 11
2794.50865003897
 21
527.598210601373
  0
LINE
  5
6B5
100
AcDbEntity
  8
DIM
100
AcDbLine
  6
BYLAYER
 62
0
370
  -2
 10
2660.50865003897
 20
531.973210601373
 11
2689.50997077922
 21
531.973210601373
  0
LINE
  5
6B6
100
AcDbEntity
  8
DIM
100
AcDbLine
  6
BYLAYER
 62
0
370
  -2
 10
2773.50865003897
 20
531.973210601373
 11
2745.50997077922
 21
531.973210601373
  0
SOLID
  5
6B7
100
AcDbEntity
  8
DIM
100
AcDbTrace
 10
2639.50865003897
 20
531.973210601373
 30
0.0
 11
2660.50865003897
 21
528.473210601373
 31
0.0
 12
2660.50865003897
 22
535.473210601373
 32
0.0
 13
2660.50865003897
 23
535.473210601373
 33
0.0
  0
SOLID
  5
6B8
100
AcDbEntity
  8
DIM
100
AcDbTrace
 10
2773.50865003897
 20
535.473210601373
 30
0.0
 11
2773.50865003897
 21
528.473210601373
 31
0.0
 12
2794.50865003897
 22
531.973210601373
 32
0.0
 13
2794.50865003897
 23
531.973210601373
 33
0.0
  0
TEXT
  5
6B9
100
AcDbEntity
  8
DIM
 62
0
100
AcDbText
  6
BYLAYER
 62
0
 10
2701.75997077922
 20
521.473210601373
 40
21
  1
155
  7
Font_0
 72
1
 11
2717.50997077922
 21
531.973210601373
100
AcDbText
 73
2
  0
LINE
  5
6BA
100
AcDbEntity
  8
DIM
100
AcDbLine
  6
BYLAYER
 62
0
370
  -2
 10
2841.67541388407
 20
538.954806141459
 11
2820.67541388407
 21
538.954806141458
  0
LINE
  5
6BB
100
AcDbEntity
  8
DIM
100
AcDbLine
  6
BYLAYER
 62
0
370
  -2
 10
2820.67541388407
 20
538.954806141458
 11
2809.02131570576
 21
556.424265081283
  0
TEXT
  5
6BC
100
AcDbEntity
  8
DIM
 62
0
100
AcDbText
  6
BYLAYER
 62
0
 10
2860.92541388407
 20
528.454806141459
 40
21
  1
8-φ8.5
  7
Font_0
 72
1
 11
2897.67541388407
 21
538.954806141459
100
AcDbText
 73
2
  0
SOLID
  5
6BD
100
AcDbEntity
  8
DIM
100
AcDbTrace
 10
2797.36721752744
 20
573.893724021108
 30
0.0
 11
2806.10973921578
 21
554.481915384898
 31
0.0
 12
2811.93289219573
 22
558.366614777669
 32
0.0
 13
2811.93289219573
 23
558.366614777669
 33
0.0
  0
LINE
  5
6BE
100
AcDbEntity
  8
0
100
AcDbLine
  6
BYLAYER
 10
2776.10865003897
 20
551.718147504299
 11
2776.10865003897
 21
550.118147504299
  0
LINE
  5
6BF
100
AcDbEntity
  8
0
100
AcDbLine
  6
BYLAYER
 10
2776.10865003897
 20
551.718147504299
 11
2774.50865003897
 21
551.718147504299
  0
LINE
  5
6C0
100
AcDbEntity
  8
0
100
AcDbLine
  6
BYLAYER
 10
2502.90865003897
 20
551.718147504299
 11
2504.50865003897
 21
551.718147504299
  0
LINE
  5
6C1
100
AcDbEntity
  8
0
100
AcDbLine
  6
BYLAYER
 10
2502.90865003897
 20
551.718147504299
 11
2502.90865003897
 21
550.118147504299
  0
LINE
  5
6C2
100
AcDbEntity
  8
DIM
100
AcDbLine
  6
BYLAYER
 62
0
370
  -2
 10
3337.35761649935
 20
550.118147504299
 11
3462.32820662703
 21
550.118147504299
  0
LINE
  5
6C3
100
AcDbEntity
  8
DIM
100
AcDbLine
  6
BYLAYER
 62
0
370
  -2
 10
3211.26669891472
 20
976.075088575889
 11
3462.32820662703
 21
976.075088575889
  0
LINE
  5
6C4
100
AcDbEntity
  8
DIM
100
AcDbLine
  6
BYLAYER
 62
0
370
  -2
 10
3457.95320662703
 20
571.118147504299
 11
3457.95320662703
 21
731.596618040094
  0
LINE
  5
6C5
100
AcDbEntity
  8
DIM
100
AcDbLine
  6
BYLAYER
 62
0
370
  -2
 10
3457.95320662703
 20
955.075088575889
 11
3457.95320662703
 21
794.596618040094
  0
SOLID
  5
6C6
100
AcDbEntity
  8
DIM
100
AcDbTrace
 10
3457.95320662703
 20
550.118147504299
 30
0.0
 11
3461.45320662703
 21
571.118147504299
 31
0.0
 12
3454.45320662703
 22
571.118147504299
 32
0.0
 13
3454.45320662703
 23
571.118147504299
 33
0.0
  0
SOLID
  5
6C7
100
AcDbEntity
  8
DIM
100
AcDbTrace
 10
3454.45320662703
 20
955.075088575889
 30
0.0
 11
3461.45320662703
 21
955.075088575889
 31
0.0
 12
3457.95320662703
 22
976.075088575889
 32
0.0
 13
3457.95320662703
 23
976.075088575889
 33
0.0
  0
TEXT
  5
6C8
100
AcDbEntity
  8
DIM
 62
0
100
AcDbText
  6
BYLAYER
 62
0
 10
3468.45320662703
 20
747.346618040094
 40
21
  1
426
  7
Font_0
 50
90
 72
1
 11
3457.95320662703
 21
763.096618040094
100
AcDbText
 73
2
  0
LINE
  5
6C9
100
AcDbEntity
  8
0
100
AcDbLine
  6
BYLAYER
 10
3335.17011649936
 20
70.4824522180625
 11
3331.35081008631
 21
70.4824522180625
  0
LINE
  5
6CA
100
AcDbEntity
  8
0
100
AcDbLine
  6
BYLAYER
 10
3055.77293459558
 20
70.4824522180625
 11
3051.95362818254
 21
70.4824522180625
  0
LINE
  5
6CB
100
AcDbEntity
  8
0
100
AcDbLine
  6
BYLAYER
 10
3335.17011649936
 20
72.0824522180624
 11
3051.95362818254
 21
72.0824522180624
  0
LINE
  5
6CC
100
AcDbEntity
  8
0
100
AcDbLine
  6
BYLAYER
 10
3335.17011649936
 20
342.082452218062
 11
3051.95362818254
 21
342.082452218062
  0
LINE
  5
6CD
100
AcDbEntity
  8
0
100
AcDbLine
  6
BYLAYER
 10
3317.10756467061
 20
35.9824522180625
 11
3070.01618001129
 21
35.9824522180625
  0
LINE
  5
6CE
100
AcDbEntity
  8
0
100
AcDbLine
  6
BYLAYER
 10
3055.77293459558
 20
70.4824522180625
 11
3053.41809427661
 21
68.1276118990877
  0
ARC
  5
6CF
100
AcDbEntity
  8
0
100
AcDbCircle
  6
BYLAYER
 10
3056.95362818254
 20
64.5920779931548
 40
5
100
AcDbArc
 50
135.000000000018
 51
202.362167256201
  0
LINE
  5
6D0
100
AcDbEntity
  8
0
100
AcDbLine
  6
BYLAYER
 10
3060.76820546053
 20
42.1778541172766
 11
3052.32964090716
 21
62.6897789427621
  0
ARC
  5
6D1
100
AcDbEntity
  8
0
100
AcDbCircle
  6
BYLAYER
 10
3070.01618001129
 20
45.9824522180625
 40
10
100
AcDbArc
 50
202.3621672562
 51
270
  0
LINE
  5
6D2
100
AcDbEntity
  8
0
100
AcDbLine
  6
BYLAYER
 10
3331.35081008631
 20
70.4824522180625
 11
3333.70565040529
 21
68.1276118990877
  0
ARC
  5
6D3
100
AcDbEntity
  8
0
100
AcDbCircle
  6
BYLAYER
 10
3330.17011649936
 20
64.5920779931548
 40
5
100
AcDbArc
 50
337.6378327438
 51
44.9999999999816
  0
LINE
  5
6D4
100
AcDbEntity
  8
0
100
AcDbLine
  6
BYLAYER
 10
3326.35553922137
 20
42.1778541172766
 11
3334.79410377474
 21
62.6897789427621
  0
ARC
  5
6D5
100
AcDbEntity
  8
0
100
AcDbCircle
  6
BYLAYER
 10
3317.10756467061
 20
45.9824522180625
 40
10
100
AcDbArc
 50
270
 51
337.6378327438
  0
CIRCLE
  5
6D6
100
AcDbEntity
  8
0
100
AcDbCircle
  6
BYLAYER
 10
3076.06187234095
 20
50.9824522180625
 40
7.1
  0
CIRCLE
  5
6D7
100
AcDbEntity
  8
0
100
AcDbCircle
  6
BYLAYER
 10
3311.06187234095
 20
50.9824522180625
 40
7.1
  0
LINE
  5
6D8
100
AcDbEntity
  8
DIM
100
AcDbLine
  6
BYLAYER
 62
0
370
  -2
 10
3265.2247202418
 20
312.464214860442
 11
3286.2247202418
 21
312.464214860442
  0
LINE
  5
6D9
100
AcDbEntity
  8
DIM
100
AcDbLine
  6
BYLAYER
 62
0
370
  -2
 10
3286.2247202418
 20
312.464214860442
 11
3298.70337627462
 21
337.946018734338
  0
TEXT
  5
6DA
100
AcDbEntity
  8
DIM
 62
0
100
AcDbText
  6
BYLAYER
 62
0
 10
3160.2247202418
 20
301.964214860441
 40
21
  1
4-φ14.2
  7
Font_0
 72
1
 11
3202.2247202418
 21
312.464214860441
100
AcDbText
 73
2
  0
SOLID
  5
6DB
100
AcDbEntity
  8
DIM
100
AcDbTrace
 10
3295.56004826063
 20
339.485333190999
 30
0.0
 11
3301.8467042886
 21
336.406704277678
 31
0.0
 12
3307.93926301458
 22
356.80598681826
 32
0.0
 13
3307.93926301458
 23
356.80598681826
 33
0.0
  0
LINE
  5
6DC
100
AcDbEntity
  8
0
100
AcDbLine
  6
BYLAYER
 10
3051.95362818254
 20
70.4824522180625
 11
3051.95362818254
 21
72.0824522180619
  0
LINE
  5
6DD
100
AcDbEntity
  8
0
100
AcDbLine
  6
BYLAYER
 10
3055.77293459558
 20
70.4824522180625
 11
3055.77293459558
 21
72.0824522180624
  0
LINE
  5
6DE
100
AcDbEntity
  8
0
100
AcDbLine
  6
BYLAYER
 10
3335.17011649936
 20
70.4824522180625
 11
3335.17011649936
 21
72.0824522180619
  0
LINE
  5
6DF
100
AcDbEntity
  8
0
100
AcDbLine
  6
BYLAYER
 10
3331.35081008631
 20
70.4824522180625
 11
3331.35081008631
 21
72.0824522180624
  0
LINE
  5
6E0
100
AcDbEntity
  8
0
100
AcDbLine
  6
BYLAYER
 10
3335.17011649936
 20
343.682452218062
 11
3331.35081008631
 21
343.682452218062
  0
LINE
  5
6E1
100
AcDbEntity
  8
0
100
AcDbLine
  6
BYLAYER
 10
3055.77293459558
 20
343.682452218062
 11
3051.95362818254
 21
343.682452218063
  0
LINE
  5
6E2
100
AcDbEntity
  8
0
100
AcDbLine
  6
BYLAYER
 10
3317.10756467061
 20
378.182452218062
 11
3070.01618001129
 21
378.182452218062
  0
LINE
  5
6E3
100
AcDbEntity
  8
0
100
AcDbLine
  6
BYLAYER
 10
3055.77293459558
 20
343.682452218062
 11
3053.41809427661
 21
346.037292537037
  0
ARC
  5
6E4
100
AcDbEntity
  8
0
100
AcDbCircle
  6
BYLAYER
 10
3056.95362818254
 20
349.57282644297
 40
5
100
AcDbArc
 50
157.637832743799
 51
224.999999999977
  0
LINE
  5
6E5
100
AcDbEntity
  8
0
100
AcDbLine
  6
BYLAYER
 10
3060.76820546053
 20
371.987050318848
 11
3052.32964090716
 21
351.475125493363
  0
ARC
  5
6E6
100
AcDbEntity
  8
0
100
AcDbCircle
  6
BYLAYER
 10
3070.01618001129
 20
368.182452218062
 40
10
100
AcDbArc
 50
90
 51
157.637832743799
  0
LINE
  5
6E7
100
AcDbEntity
  8
0
100
AcDbLine
  6
BYLAYER
 10
3331.35081008631
 20
343.682452218062
 11
3333.70565040529
 21
346.037292537037
  0
ARC
  5
6E8
100
AcDbEntity
  8
0
100
AcDbCircle
  6
BYLAYER
 10
3330.17011649936
 20
349.57282644297
 40
5
100
AcDbArc
 50
315.000000000023
 51
22.3621672562011
  0
LINE
  5
6E9
100
AcDbEntity
  8
0
100
AcDbLine
  6
BYLAYER
 10
3326.35553922137
 20
371.987050318848
 11
3334.79410377474
 21
351.475125493363
  0
ARC
  5
6EA
100
AcDbEntity
  8
0
100
AcDbCircle
  6
BYLAYER
 10
3317.10756467061
 20
368.182452218062
 40
10
100
AcDbArc
 50
22.3621672562011
 51
90
  0
CIRCLE
  5
6EB
100
AcDbEntity
  8
0
100
AcDbCircle
  6
BYLAYER
 10
3076.06187234095
 20
363.182452218062
 40
7.1
  0
CIRCLE
  5
6EC
100
AcDbEntity
  8
0
100
AcDbCircle
  6
BYLAYER
 10
3311.06187234095
 20
363.182452218062
 40
7.1
  0
LINE
  5
6ED
100
AcDbEntity
  8
0
100
AcDbLine
  6
BYLAYER
 10
3051.95362818254
 20
343.682452218062
 11
3051.95362818254
 21
342.082452218063
  0
LINE
  5
6EE
100
AcDbEntity
  8
0
100
AcDbLine
  6
BYLAYER
 10
3055.77293459558
 20
343.682452218063
 11
3055.77293459558
 21
342.082452218062
  0
LINE
  5
6EF
100
AcDbEntity
  8
0
100
AcDbLine
  6
BYLAYER
 10
3335.17011649936
 20
343.682452218062
 11
3335.17011649936
 21
342.082452218063
  0
LINE
  5
6F0
100
AcDbEntity
  8
0
100
AcDbLine
  6
BYLAYER
 10
3331.35081008631
 20
343.682452218063
 11
3331.35081008631
 21
342.082452218062
  0
LINE
  5
6F1
100
AcDbEntity
  8
DIM
100
AcDbLine
  6
BYLAYER
 62
0
370
  -2
 10
3313.24937234095
 20
363.182452218062
 11
3363.64599595503
 21
363.182452218062
  0
LINE
  5
6F2
100
AcDbEntity
  8
DIM
100
AcDbLine
  6
BYLAYER
 62
0
370
  -2
 10
3313.24937234095
 20
50.9824522180624
 11
3363.64599595503
 21
50.9824522180624
  0
LINE
  5
6F3
100
AcDbEntity
  8
DIM
100
AcDbLine
  6
BYLAYER
 62
0
370
  -2
 10
3359.27099595502
 20
342.182452218062
 11
3359.27099595502
 21
235.082452218062
  0
LINE
  5
6F4
100
AcDbEntity
  8
DIM
100
AcDbLine
  6
BYLAYER
 62
0
370
  -2
 10
3359.27099595502
 20
71.9824522180625
 11
3359.27099595502
 21
179.082452218062
  0
SOLID
  5
6F5
100
AcDbEntity
  8
DIM
100
AcDbTrace
 10
3355.77099595503
 20
342.182452218062
 30
0.0
 11
3362.77099595503
 21
342.182452218062
 31
0.0
 12
3359.27099595502
 22
363.182452218062
 32
0.0
 13
3359.27099595502
 23
363.182452218062
 33
0.0
  0
SOLID
  5
6F6
100
AcDbEntity
  8
DIM
100
AcDbTrace
 10
3359.27099595502
 20
50.9824522180624
 30
0.0
 11
3362.77099595503
 21
71.9824522180624
 31
0.0
 12
3355.77099595503
 22
71.9824522180625
 32
0.0
 13
3355.77099595503
 23
71.9824522180625
 33
0.0
  0
TEXT
  5
6F7
100
AcDbEntity
  8
DIM
 62
0
100
AcDbText
  6
BYLAYER
 62
0
 10
3369.77099595502
 20
191.332452218063
 40
21
  1
312
  7
Font_0
 50
90
 72
1
 11
3359.27099595502
 21
207.082452218063
100
AcDbText
 73
2
  0
LINE
  5
6F8
100
AcDbEntity
  8
DIM
100
AcDbLine
  6
BYLAYER
 62
0
370
  -2
 10
3311.06187234095
 20
48.7949522180625
 11
3311.06187234095
 21
5.35066363551232
  0
LINE
  5
6F9
100
AcDbEntity
  8
DIM
100
AcDbLine
  6
BYLAYER
 62
0
370
  -2
 10
3076.06187234095
 20
48.7949522180625
 11
3076.06187234095
 21
5.35066363551232
  0
LINE
  5
6FA
100
AcDbEntity
  8
DIM
100
AcDbLine
  6
BYLAYER
 62
0
370
  -2
 10
3290.06187234095
 20
9.72566363551232
 11
3225.06187234095
 21
9.72566363551232
  0
LINE
  5
6FB
100
AcDbEntity
  8
DIM
100
AcDbLine
  6
BYLAYER
 62
0
370
  -2
 10
3097.06187234095
 20
9.72566363551232
 11
3162.06187234095
 21
9.72566363551232
  0
SOLID
  5
6FC
100
AcDbEntity
  8
DIM
100
AcDbTrace
 10
3290.06187234095
 20
13.2256636355123
 30
0.0
 11
3290.06187234095
 21
6.22566363551232
 31
0.0
 12
3311.06187234095
 22
9.72566363551232
 32
0.0
 13
3311.06187234095
 23
9.72566363551232
 33
0.0
  0
SOLID
  5
6FD
100
AcDbEntity
  8
DIM
100
AcDbTrace
 10
3076.06187234095
 20
9.72566363551232
 30
0.0
 11
3097.06187234095
 21
6.22566363551232
 31
0.0
 12
3097.06187234095
 22
13.2256636355123
 32
0.0
 13
3097.06187234095
 23
13.2256636355123
 33
0.0
  0
TEXT
  5
6FE
100
AcDbEntity
  8
DIM
 62
0
100
AcDbText
  6
BYLAYER
 62
0
 10
3177.81187234095
 20
-0.774336364487681
 40
21
  1
235
  7
Font_0
 72
1
 11
3193.56187234095
 21
9.72566363551232
100
AcDbText
 73
2
  0
LINE
  5
6FF
100
AcDbEntity
  8
HIDDEN
100
AcDbLine
  6
BYLAYER
 10
3055.77293459558
 20
343.682452218062
 11
3331.35081008631
 21
343.682452218063
  0
LINE
  5
700
100
AcDbEntity
  8
HIDDEN
100
AcDbLine
  6
BYLAYER
 10
3055.77293459558
 20
70.4824522180625
 11
3331.35081008631
 21
70.4824522180625
  0
LINE
  5
701
100
AcDbEntity
  8
DIM
100
AcDbLine
  6
BYLAYER
 62
0
370
  -2
 10
3292.58047535782
 20
651.718147504302
 11
3384.01554515501
 21
651.718147504302
  0
LINE
  5
702
100
AcDbEntity
  8
DIM
100
AcDbLine
  6
BYLAYER
 62
0
370
  -2
 10
3337.35761649935
 20
550.118147504299
 11
3384.01554515501
 21
550.118147504299
  0
LINE
  5
703
100
AcDbEntity
  8
DIM
100
AcDbLine
  6
BYLAYER
 62
0
370
  -2
 10
3379.64054515501
 20
630.718147504302
 11
3379.64054515501
 21
571.118147504299
  0
LINE
  5
704
100
AcDbEntity
  8
DIM
100
AcDbLine
  6
BYLAYER
 62
0
370
  -2
 10
3379.64054515501
 20
550.118147504299
 11
3379.64054515501
 21
437.40951271493
  0
LINE
  5
705
100
AcDbEntity
  8
DIM
100
AcDbLine
  6
BYLAYER
 62
0
370
  -2
 10
3379.64054515501
 20
437.40951271493
 11
3358.64054515501
 21
437.40951271493
  0
SOLID
  5
706
100
AcDbEntity
  8
DIM
100
AcDbTrace
 10
3376.14054515501
 20
630.718147504302
 30
0.0
 11
3383.14054515501
 21
630.718147504302
 31
0.0
 12
3379.64054515501
 22
651.718147504302
 32
0.0
 13
3379.64054515501
 23
651.718147504302
 33
0.0
  0
SOLID
  5
707
100
AcDbEntity
  8
DIM
100
AcDbTrace
 10
3379.64054515501
 20
550.118147504299
 30
0.0
 11
3383.14054515501
 21
571.118147504299
 31
0.0
 12
3376.14054515501
 22
571.118147504299
 32
0.0
 13
3376.14054515501
 23
571.118147504299
 33
0.0
  0
TEXT
  5
708
100
AcDbEntity
  8
DIM
 62
0
100
AcDbText
  6
BYLAYER
 62
0
 10
3295.64054515501
 20
426.90951271493
 40
21
  1
101.6
  7
Font_0
 72
1
 11
3321.89054515501
 21
437.40951271493
100
AcDbText
 73
2
  0
LWPOLYLINE
  5
709
100
AcDbEntity
  8
0
100
AcDbPolyline
  6
BYLAYER
 90
     73
 10
3028.11182315114
  20
833.429209758933
 10
3032.24549031397
  20
843.764700793163
 10
3036.4339808034
  20
853.999558605864
 10
3040.75455747367
  20
864.089471520096
 10
3045.28448317903
  20
873.990127858918
 10
3050.10102077369
  20
883.657215945389
 10
3055.28143311191
  20
893.04642410257
 10
3060.90298304793
  20
902.113440653518
 10
3067.04293343598
  20
910.813953921295
 10
3073.77854713029
  20
919.103652228959
 10
3081.16434680149
  20
926.94079931214
 10
3089.16389438565
  20
934.293960556748
 10
3097.71801163524
  20
941.134276761263
 10
3106.76752030272
  20
947.432888724166
 10
3116.25324214055
  20
953.160937243937
 10
3126.11599890119
  20
958.289563119056
 10
3136.2966123371
  20
962.789907148003
 10
3146.73590420074
  20
966.633110129259
 10
3157.37469624457
  20
969.790312861305
 10
3168.15659297789
  20
972.238817525384
 10
3179.03632993736
  20
973.980571833799
 10
3189.97142541646
  20
975.023684881615
 10
3200.91939770868
  20
975.376265763898
 10
3211.83776510752
  20
975.046423575715
 10
3222.68404590647
  20
974.042267412132
 10
3233.41575839901
  20
972.371906368215
 10
3243.99042087864
  20
970.043449539029
 10
3254.36555163886
  20
967.065006019641
 10
3264.50294057636
  20
963.447391700726
 10
3274.38146400071
  20
959.212249655392
 10
3283.98426982469
  20
954.383929752357
 10
3293.29450596107
  20
948.986781860339
 10
3302.29532032265
  20
943.045155848056
 10
3310.96986082219
  20
936.583401584225
 10
3319.30127537247
  20
929.625868937564
 10
3327.27271188628
  20
922.196907776791
 10
3334.86731827639
  20
914.320867970623
 10
3342.06586525939
  20
906.020809791744
 10
3348.83961476703
  20
897.3146351287
 10
3355.15745153489
  20
888.218956274003
 10
3360.98826029853
  20
878.750385520166
 10
3366.30092579351
  20
868.9255351597
 10
3371.06433275541
  20
858.761017485118
 10
3375.24736591979
  20
848.273444788931
 10
3378.81891002222
  20
837.479429363652
 10
3381.74784979826
  20
826.395583501793
 10
3384.0106005054
  20
815.051393026142
 10
3385.61369948875
  20
803.527837880595
 10
3386.57121461537
  20
791.918771539324
 10
3386.89721375228
  20
780.318047476502
 10
3386.60576476654
  20
768.8195191663
 10
3385.71093552519
  20
757.517040082892
 10
3384.22679389525
  20
746.504463700449
 10
3382.16740774378
  20
735.875643493143
 10
3379.54684493782
  20
725.724432935147
 10
3376.38757826554
  20
716.125686405316
 10
3372.74570019964
  20
707.078261901239
 10
3368.68570813396
  20
698.562018325185
 10
3364.27209946234
  20
690.556814579426
 10
3359.56937157862
  20
683.042509566233
 10
3354.64202187664
  20
675.998962187878
 10
3349.55454775023
  20
669.40603134663
 10
3344.37144659323
  20
663.243575944761
 10
3339.15721579949
  20
657.491454884541
 10
3333.98333604533
  20
652.139504384289
 10
3328.94922113714
  20
647.217469926506
 10
3324.16126816377
  20
642.76507430974
 10
3319.7258742141
  20
638.82204033254
 10
3315.74943637699
  20
635.428090793452
 10
3312.3383517413
  20
632.622948491027
 10
3309.59901739592
  20
630.44633622381
 10
3307.63783042971
  20
628.937976790352
 10
3306.56118793153
  20
628.1375929892
  0
LINE
  5
70A
100
AcDbEntity
  8
0
100
AcDbLine
  6
BYLAYER
 10
3028.11182315114
 20
833.429209758933
 11
3008.56187234095
 21
833.429209758933
  0
LINE
  5
70B
100
AcDbEntity
  8
HIDDEN
100
AcDbLine
  6
BYLAYER
 10
3189.65931784407
 20
591.429209758933
 11
3065.4608018359
 21
591.429209758933
  0
LWPOLYLINE
  5
70C
100
AcDbEntity
  8
HIDDEN
100
AcDbPolyline
  6
BYLAYER
 90
     19
 10
3306.56118793153
  20
628.1375929892
 10
3300.33935674833
  20
623.811905745197
 10
3294.09121041985
  20
619.811537318745
 10
3287.80711990264
  20
616.123377180484
 10
3281.47745615325
  20
612.734314801054
 10
3275.09259012822
  20
609.631239651096
 10
3268.64289278409
  20
606.801041201249
 10
3262.1187350774
  20
604.230608922154
 10
3255.51048796471
  20
601.906832284451
 10
3248.80852240255
  20
599.816600758781
 10
3242.01277671083
  20
597.949654844636
 10
3235.16145866296
  20
596.307139156924
 10
3228.30234339571
  20
594.893049339405
 10
3221.48320604583
  20
593.71138103584
 10
3214.75182175011
  20
592.766129889989
 10
3208.1559656453
  20
592.061291545613
 10
3201.74341286818
  20
591.600861646471
 10
3195.56193855552
  20
591.388835836324
 10
3189.65931784407
  20
591.429209758934
  0
ENDSEC
  0
SECTION
  2
OBJECTS
  0
DICTIONARY
  5
70D
100
AcDbDictionary
  3
ACAD_GROUP
350
70E
  3
ACAD_MLINESTYLE
350
70F
  0
DICTIONARY
  5
70E
102
{ACAD_REACTORS
330
70D
102
}
100
AcDbDictionary
  0
DICTIONARY
  5
70F
102
{ACAD_REACTORS
330
70D
102
}
100
AcDbDictionary
  3
STANDARD
350
710
  0
MLINESTYLE
  5
710
102
{ACAD_REACTORS
330
70F
102
}
100
AcDbMlineStyle
  2
Standard
 70
     0
  3

 62
     0
 51
90.0
 52
90.0
 71
     2
 49
0.5
 62
   256
  6
ByLayer
 49
-0.5
 62
   256
  6
ByLayer
  0
ENDSEC
  0
EOF
