999
Outputted By AR_CAD Ver.1.6.0
  0
SECTION
  2
HEADER
  9
$ACADVER
  1
AC1014
  9
$DWGCODEPAGE
  3
ANSI_932
  9
$EXTMIN
 10
0
 20
0
  9
$EXTMAX
 10
594
 20
420
  9
$INSBASE
 10
0.0
 20
0.0
 30
0.0
  9
$HANDLING
 70
     1
  9
$HANDSEED
  5
7BB
  9
$LTSCALE
 40
1
  0
ENDSEC
  0
SECTION
  2
TABLES
  0
TABLE
  2
VPORT
  5
1
100
AcDbSymbolTable
 70
     1
  0
VPORT
  5
30
100
AcDbSymbolTableRecord
100
AcDbViewportTableRecord
  2
*ACTIVE
 70
     0
 10
0.0
 20
0.0
 11
1.0
 21
1.0
 12
210.0
 22
148.5
 13
0.0
 23
0.0
 14
10.0
 24
10.0
 15
10.0
 25
10.0
 16
0.0
 26
0.0
 36
1.0
 17
0.0
 27
0.0
 37
0.0
 40
302.94
 41
1.333333
 42
50.0
 43
0.0
 44
0.0
 50
0.0
 51
0.0
 71
     0
 72
   100
 73
     1
 74
     1
 75
     0
 76
     0
 77
     0
 78
     0
  0
ENDTAB
  0
TABLE
  2
LTYPE
  5
2
100
AcDbSymbolTable
 70
     28
  0
LTYPE
  5
31
100
AcDbSymbolTableRecord
100
AcDbLinetypeTableRecord
  2
BYBLOCK
 70
    64
 3

 72
    65
 73
    0
 40
    0
  0
LTYPE
  5
32
100
AcDbSymbolTableRecord
100
AcDbLinetypeTableRecord
  2
BYLAYER
 70
    64
 3

 72
    65
 73
    0
 40
    0
  0
LTYPE
  5
33
100
AcDbSymbolTableRecord
100
AcDbLinetypeTableRecord
  2
CONTINUOUS
 70
    64
 3
CONTINUOUS
 72
    65
 73
    0
 40
    0
  0
LTYPE
  5
34
100
AcDbSymbolTableRecord
100
AcDbLinetypeTableRecord
  2
DASHED
 70
    64
 3

 72
    65
 73
    2
 40
    3.5
 49
    2.91666666666667
 74
    0
 49
    -0.583333333333333
 74
    0
  0
LTYPE
  5
35
100
AcDbSymbolTableRecord
100
AcDbLinetypeTableRecord
  2
DOT
 70
    64
 3

 72
    65
 73
    2
 40
    0.5
 49
    0.25
 74
    0
 49
    -0.25
 74
    0
  0
LTYPE
  5
36
100
AcDbSymbolTableRecord
100
AcDbLinetypeTableRecord
  2
DASHDOT
 70
    64
 3

 72
    65
 73
    4
 40
    3.5
 49
    1.84210526315789
 74
    0
 49
    -0.552631578947368
 74
    0
 49
    0.552631578947368
 74
    0
 49
    -0.552631578947368
 74
    0
  0
LTYPE
  5
37
100
AcDbSymbolTableRecord
100
AcDbLinetypeTableRecord
  2
DIVIDE
 70
    64
 3

 72
    65
 73
    6
 40
    3.5
 49
    1.4
 74
    0
 49
    -0.42
 74
    0
 49
    0.42
 74
    0
 49
    -0.42
 74
    0
 49
    0.42
 74
    0
 49
    -0.42
 74
    0
  0
LTYPE
  5
38
100
AcDbSymbolTableRecord
100
AcDbLinetypeTableRecord
  2
HIDDEN
 70
    64
 3

 72
    65
 73
    2
 40
    9.525
 49
    6.35
 74
    0
 49
    -3.175
 74
    0
  0
LTYPE
  5
39
100
AcDbSymbolTableRecord
100
AcDbLinetypeTableRecord
  2
CENTERX2
 70
    64
 3

 72
    65
 73
    4
 40
    4
 49
    2.5
 74
    0
 49
    -0.5
 74
    0
 49
    0.5
 74
    0
 49
    -0.5
 74
    0
  0
LTYPE
  5
3A
100
AcDbSymbolTableRecord
100
AcDbLinetypeTableRecord
  2
CENTER
 70
    64
 3

 72
    65
 73
    4
 40
    50.8
 49
    31.75
 74
    0
 49
    -6.35
 74
    0
 49
    6.35
 74
    0
 49
    -6.35
 74
    0
  0
LTYPE
  5
3B
100
AcDbSymbolTableRecord
100
AcDbLinetypeTableRecord
  2
BORDER
 70
    64
 3

 72
    65
 73
    6
 40
    44.45
 49
    12.7
 74
    0
 49
    -6.35
 74
    0
 49
    12.7
 74
    0
 49
    -6.35
 74
    0
 49
    0
 74
    0
 49
    -6.35
 74
    0
  0
LTYPE
  5
3C
100
AcDbSymbolTableRecord
100
AcDbLinetypeTableRecord
  2
AM_ISO02W050
 70
    64
 3

 72
    65
 73
    2
 40
    7.5
 49
    6
 74
    0
 49
    -1.5
 74
    0
  0
LTYPE
  5
3D
100
AcDbSymbolTableRecord
100
AcDbLinetypeTableRecord
  2
AM_ISO08W050
 70
    64
 3

 72
    65
 73
    4
 40
    18
 49
    12
 74
    0
 49
    -1.5
 74
    0
 49
    3
 74
    0
 49
    -1.5
 74
    0
  0
LTYPE
  5
3E
100
AcDbSymbolTableRecord
100
AcDbLinetypeTableRecord
  2
AM_ISO09W050
 70
    64
 3

 72
    65
 73
    6
 40
    22.5
 49
    12
 74
    0
 49
    -1.5
 74
    0
 49
    3
 74
    0
 49
    -1.5
 74
    0
 49
    3
 74
    0
 49
    -1.5
 74
    0
  0
LTYPE
  5
3F
100
AcDbSymbolTableRecord
100
AcDbLinetypeTableRecord
  2
Amconstr
 70
    64
 3

 72
    65
 73
    1
 40
    9999
 49
    9999
 74
    0
  0
LTYPE
  5
40
100
AcDbSymbolTableRecord
100
AcDbLinetypeTableRecord
  2
AM_ISO08W050x2
 70
    64
 3

 72
    65
 73
    4
 40
    9
 49
    6
 74
    0
 49
    -0.75
 74
    0
 49
    1.5
 74
    0
 49
    -0.75
 74
    0
  0
LTYPE
  5
41
100
AcDbSymbolTableRecord
100
AcDbLinetypeTableRecord
  2
AM_ISO02W050x2
 70
    64
 3

 72
    65
 73
    2
 40
    3.75
 49
    3
 74
    0
 49
    -0.75
 74
    0
  0
LTYPE
  5
42
100
AcDbSymbolTableRecord
100
AcDbLinetypeTableRecord
  2
Amzigzag
 70
    64
 3

 72
    65
 73
    2
 40
    4
 49
    2
 74
    0
 49
    -2
 74
    0
  0
LTYPE
  5
43
100
AcDbSymbolTableRecord
100
AcDbLinetypeTableRecord
  2
PHANTOM2
 70
    64
 3

 72
    65
 73
    6
 40
    1.25
 49
    0.625
 74
    0
 49
    -0.125
 74
    0
 49
    0.125
 74
    0
 49
    -0.125
 74
    0
 49
    0.125
 74
    0
 49
    -0.125
 74
    0
  0
LTYPE
  5
44
100
AcDbSymbolTableRecord
100
AcDbLinetypeTableRecord
  2
CENTER2
 70
    64
 3

 72
    65
 73
    4
 40
    1.125
 49
    0.75
 74
    0
 49
    -0.125
 74
    0
 49
    0.125
 74
    0
 49
    -0.125
 74
    0
  0
LTYPE
  5
45
100
AcDbSymbolTableRecord
100
AcDbLinetypeTableRecord
  2
HIDDEN2
 70
    64
 3

 72
    65
 73
    2
 40
    0.188
 49
    0.125668449197861
 74
    0
 49
    -0.062331550802139
 74
    0
  0
LTYPE
  5
46
100
AcDbSymbolTableRecord
100
AcDbLinetypeTableRecord
  2
Amzigzag2
 70
    64
 3

 72
    65
 73
    2
 40
    4
 49
    2
 74
    0
 49
    -2
 74
    0
  0
LTYPE
  5
47
100
AcDbSymbolTableRecord
100
AcDbLinetypeTableRecord
  2
ACANSTGB
 70
    64
 3

 72
    65
 73
    6
 40
    0.354
 49
    0.157892045454545
 74
    0
 49
    -0.0392215909090909
 74
    0
 49
    0.0392215909090909
 74
    0
 49
    -0.0392215909090909
 74
    0
 49
    0.0392215909090909
 74
    0
 49
    -0.0392215909090909
 74
    0
  0
LTYPE
  5
48
100
AcDbSymbolTableRecord
100
AcDbLinetypeTableRecord
  2
ACANSTGL
 70
    64
 3

 72
    65
 73
    2
 40
    0.118
 49
    0.079
 74
    0
 49
    -0.039
 74
    0
  0
LTYPE
  5
49
100
AcDbSymbolTableRecord
100
AcDbLinetypeTableRecord
  2
BORDERX2
 70
    64
 3

 72
    65
 73
    6
 40
    3.5
 49
    1
 74
    0
 49
    -0.5
 74
    0
 49
    1
 74
    0
 49
    -0.5
 74
    0
 49
    0
 74
    0
 49
    -0.5
 74
    0
  0
LTYPE
  5
4A
100
AcDbSymbolTableRecord
100
AcDbLinetypeTableRecord
  2
BORDER2
 70
    64
 3

 72
    65
 73
    6
 40
    0.875
 49
    0.25
 74
    0
 49
    -0.125
 74
    0
 49
    0.25
 74
    0
 49
    -0.125
 74
    0
 49
    0
 74
    0
 49
    -0.125
 74
    0
  0
LTYPE
  5
4B
100
AcDbSymbolTableRecord
100
AcDbLinetypeTableRecord
  2
ACISOWELD
 70
    64
 3

 72
    65
 73
    2
 40
    2
 49
    1.33333333333333
 74
    0
 49
    -0.666666666666667
 74
    0
  0
LTYPE
  5
4C
100
AcDbSymbolTableRecord
100
AcDbLinetypeTableRecord
  2
ACISOTGB
 70
    64
 3

 72
    65
 73
    6
 40
    9
 49
    4
 74
    0
 49
    -1
 74
    0
 49
    1
 74
    0
 49
    -1
 74
    0
 49
    1
 74
    0
 49
    -1
 74
    0
  0
LTYPE
  5
4D
100
AcDbSymbolTableRecord
100
AcDbLinetypeTableRecord
  2
ACISOTGL
 70
    64
 3

 72
    65
 73
    2
 40
    3
 49
    2
 74
    0
 49
    -1
 74
    0
  0
ENDTAB
  0
TABLE
  2
LAYER
  5
3
100
AcDbSymbolTable
 70
   257
  0
LAYER
  5
4E
100
AcDbSymbolTableRecord
100
AcDbLayerTableRecord
  2
0
 70
    0
 62
7
  6
CONTINUOUS
  0
LAYER
  5
4F
100
AcDbSymbolTableRecord
100
AcDbLayerTableRecord
  2
DEFPOINTS
 70
    0
 62
7
  6
CONTINUOUS
  0
LAYER
  5
50
100
AcDbSymbolTableRecord
100
AcDbLayerTableRecord
  2
ASHADE
 70
    4
 62
7
  6
CONTINUOUS
  0
LAYER
  5
51
100
AcDbSymbolTableRecord
100
AcDbLayerTableRecord
  2
CEN
 70
    0
 62
3
  6
AM_ISO08W050
  0
LAYER
  5
52
100
AcDbSymbolTableRecord
100
AcDbLayerTableRecord
  2
DIM
 70
    0
 62
1
  6
CONTINUOUS
  0
LAYER
  5
53
100
AcDbSymbolTableRecord
100
AcDbLayerTableRecord
  2
HIDDEN
 70
    0
 62
3
  6
CONTINUOUS
  0
LAYER
  5
54
100
AcDbSymbolTableRecord
100
AcDbLayerTableRecord
  2
HATCH
 70
    0
 62
5
  6
CONTINUOUS
  0
LAYER
  5
55
100
AcDbSymbolTableRecord
100
AcDbLayerTableRecord
  2
TEXT
 70
    0
 62
7
  6
CONTINUOUS
  0
LAYER
  5
56
100
AcDbSymbolTableRecord
100
AcDbLayerTableRecord
  2
M
 70
    0
 62
6
  6
CONTINUOUS
  0
LAYER
  5
57
100
AcDbSymbolTableRecord
100
AcDbLayerTableRecord
  2
BREAK
 70
    0
 62
3
  6
AM_ISO09W050
  0
LAYER
  5
58
100
AcDbSymbolTableRecord
100
AcDbLayerTableRecord
  2
01
 70
    0
 62
3
  6
CONTINUOUS
  0
LAYER
  5
59
100
AcDbSymbolTableRecord
100
AcDbLayerTableRecord
  2
7475A
 70
    0
 62
1
  6
CONTINUOUS
  0
LAYER
  5
5A
100
AcDbSymbolTableRecord
100
AcDbLayerTableRecord
  2
BASE
 70
    0
 62
7
  6
CONTINUOUS
  0
LAYER
  5
5B
100
AcDbSymbolTableRecord
100
AcDbLayerTableRecord
  2
AME
 70
    0
 62
7
  6
CONTINUOUS
  0
LAYER
  5
5C
100
AcDbSymbolTableRecord
100
AcDbLayerTableRecord
  2
4
 70
    0
 62
4
  6
CONTINUOUS
  0
LAYER
  5
5D
100
AcDbSymbolTableRecord
100
AcDbLayerTableRecord
  2
AM_CL
 70
    0
 62
1
  6
Amzigzag
  0
LAYER
  5
5E
100
AcDbSymbolTableRecord
100
AcDbLayerTableRecord
  2
ｷsｸ_ｬ__､W_ｭｧj2_
 70
    0
 62
7
  6
CONTINUOUS
  0
LAYER
  5
5F
100
AcDbSymbolTableRecord
100
AcDbLayerTableRecord
  2
画層17
 70
    0
 62
70
  6
CONTINUOUS
  0
LAYER
  5
60
100
AcDbSymbolTableRecord
100
AcDbLayerTableRecord
  2
画層18
 70
    0
 62
211
  6
CONTINUOUS
  0
LAYER
  5
61
100
AcDbSymbolTableRecord
100
AcDbLayerTableRecord
  2
画層19
 70
    0
 62
137
  6
CONTINUOUS
  0
LAYER
  5
62
100
AcDbSymbolTableRecord
100
AcDbLayerTableRecord
  2
画層20
 70
    0
 62
4
  6
CONTINUOUS
  0
LAYER
  5
63
100
AcDbSymbolTableRecord
100
AcDbLayerTableRecord
  2
画層21
 70
    0
 62
131
  6
CONTINUOUS
  0
LAYER
  5
64
100
AcDbSymbolTableRecord
100
AcDbLayerTableRecord
  2
画層22
 70
    0
 62
4
  6
CONTINUOUS
  0
LAYER
  5
65
100
AcDbSymbolTableRecord
100
AcDbLayerTableRecord
  2
画層23
 70
    0
 62
4
  6
CONTINUOUS
  0
LAYER
  5
66
100
AcDbSymbolTableRecord
100
AcDbLayerTableRecord
  2
画層24
 70
    0
 62
7
  6
CONTINUOUS
  0
LAYER
  5
67
100
AcDbSymbolTableRecord
100
AcDbLayerTableRecord
  2
画層25
 70
    0
 62
7
  6
CONTINUOUS
  0
LAYER
  5
68
100
AcDbSymbolTableRecord
100
AcDbLayerTableRecord
  2
画層26
 70
    0
 62
7
  6
CONTINUOUS
  0
LAYER
  5
69
100
AcDbSymbolTableRecord
100
AcDbLayerTableRecord
  2
画層27
 70
    0
 62
7
  6
CONTINUOUS
  0
LAYER
  5
6A
100
AcDbSymbolTableRecord
100
AcDbLayerTableRecord
  2
画層28
 70
    0
 62
7
  6
CONTINUOUS
  0
LAYER
  5
6B
100
AcDbSymbolTableRecord
100
AcDbLayerTableRecord
  2
画層29
 70
    0
 62
7
  6
CONTINUOUS
  0
LAYER
  5
6C
100
AcDbSymbolTableRecord
100
AcDbLayerTableRecord
  2
画層30
 70
    0
 62
7
  6
CONTINUOUS
  0
LAYER
  5
6D
100
AcDbSymbolTableRecord
100
AcDbLayerTableRecord
  2
画層31
 70
    0
 62
7
  6
CONTINUOUS
  0
LAYER
  5
6E
100
AcDbSymbolTableRecord
100
AcDbLayerTableRecord
  2
画層32
 70
    0
 62
7
  6
CONTINUOUS
  0
LAYER
  5
6F
100
AcDbSymbolTableRecord
100
AcDbLayerTableRecord
  2
画層33
 70
    0
 62
7
  6
CONTINUOUS
  0
LAYER
  5
70
100
AcDbSymbolTableRecord
100
AcDbLayerTableRecord
  2
画層34
 70
    0
 62
7
  6
CONTINUOUS
  0
LAYER
  5
71
100
AcDbSymbolTableRecord
100
AcDbLayerTableRecord
  2
画層35
 70
    0
 62
7
  6
CONTINUOUS
  0
LAYER
  5
72
100
AcDbSymbolTableRecord
100
AcDbLayerTableRecord
  2
画層36
 70
    0
 62
7
  6
CONTINUOUS
  0
LAYER
  5
73
100
AcDbSymbolTableRecord
100
AcDbLayerTableRecord
  2
画層37
 70
    0
 62
7
  6
CONTINUOUS
  0
LAYER
  5
74
100
AcDbSymbolTableRecord
100
AcDbLayerTableRecord
  2
画層38
 70
    0
 62
7
  6
CONTINUOUS
  0
LAYER
  5
75
100
AcDbSymbolTableRecord
100
AcDbLayerTableRecord
  2
画層39
 70
    0
 62
7
  6
CONTINUOUS
  0
LAYER
  5
76
100
AcDbSymbolTableRecord
100
AcDbLayerTableRecord
  2
画層40
 70
    0
 62
7
  6
CONTINUOUS
  0
LAYER
  5
77
100
AcDbSymbolTableRecord
100
AcDbLayerTableRecord
  2
画層41
 70
    0
 62
7
  6
CONTINUOUS
  0
LAYER
  5
78
100
AcDbSymbolTableRecord
100
AcDbLayerTableRecord
  2
画層42
 70
    0
 62
7
  6
CONTINUOUS
  0
LAYER
  5
79
100
AcDbSymbolTableRecord
100
AcDbLayerTableRecord
  2
画層43
 70
    0
 62
7
  6
CONTINUOUS
  0
LAYER
  5
7A
100
AcDbSymbolTableRecord
100
AcDbLayerTableRecord
  2
画層44
 70
    0
 62
7
  6
CONTINUOUS
  0
LAYER
  5
7B
100
AcDbSymbolTableRecord
100
AcDbLayerTableRecord
  2
画層45
 70
    0
 62
7
  6
CONTINUOUS
  0
LAYER
  5
7C
100
AcDbSymbolTableRecord
100
AcDbLayerTableRecord
  2
画層46
 70
    0
 62
7
  6
CONTINUOUS
  0
LAYER
  5
7D
100
AcDbSymbolTableRecord
100
AcDbLayerTableRecord
  2
画層47
 70
    0
 62
7
  6
CONTINUOUS
  0
LAYER
  5
7E
100
AcDbSymbolTableRecord
100
AcDbLayerTableRecord
  2
画層48
 70
    0
 62
7
  6
CONTINUOUS
  0
LAYER
  5
7F
100
AcDbSymbolTableRecord
100
AcDbLayerTableRecord
  2
画層49
 70
    0
 62
7
  6
CONTINUOUS
  0
LAYER
  5
80
100
AcDbSymbolTableRecord
100
AcDbLayerTableRecord
  2
画層50
 70
    0
 62
7
  6
CONTINUOUS
  0
LAYER
  5
81
100
AcDbSymbolTableRecord
100
AcDbLayerTableRecord
  2
画層51
 70
    0
 62
7
  6
CONTINUOUS
  0
LAYER
  5
82
100
AcDbSymbolTableRecord
100
AcDbLayerTableRecord
  2
画層52
 70
    0
 62
7
  6
CONTINUOUS
  0
LAYER
  5
83
100
AcDbSymbolTableRecord
100
AcDbLayerTableRecord
  2
画層53
 70
    0
 62
7
  6
CONTINUOUS
  0
LAYER
  5
84
100
AcDbSymbolTableRecord
100
AcDbLayerTableRecord
  2
画層54
 70
    0
 62
7
  6
CONTINUOUS
  0
LAYER
  5
85
100
AcDbSymbolTableRecord
100
AcDbLayerTableRecord
  2
画層55
 70
    0
 62
7
  6
CONTINUOUS
  0
LAYER
  5
86
100
AcDbSymbolTableRecord
100
AcDbLayerTableRecord
  2
画層56
 70
    0
 62
7
  6
CONTINUOUS
  0
LAYER
  5
87
100
AcDbSymbolTableRecord
100
AcDbLayerTableRecord
  2
画層57
 70
    0
 62
7
  6
CONTINUOUS
  0
LAYER
  5
88
100
AcDbSymbolTableRecord
100
AcDbLayerTableRecord
  2
画層58
 70
    0
 62
7
  6
CONTINUOUS
  0
LAYER
  5
89
100
AcDbSymbolTableRecord
100
AcDbLayerTableRecord
  2
画層59
 70
    0
 62
7
  6
CONTINUOUS
  0
LAYER
  5
8A
100
AcDbSymbolTableRecord
100
AcDbLayerTableRecord
  2
画層60
 70
    0
 62
7
  6
CONTINUOUS
  0
LAYER
  5
8B
100
AcDbSymbolTableRecord
100
AcDbLayerTableRecord
  2
画層61
 70
    0
 62
7
  6
CONTINUOUS
  0
LAYER
  5
8C
100
AcDbSymbolTableRecord
100
AcDbLayerTableRecord
  2
画層62
 70
    0
 62
7
  6
CONTINUOUS
  0
LAYER
  5
8D
100
AcDbSymbolTableRecord
100
AcDbLayerTableRecord
  2
画層63
 70
    0
 62
7
  6
CONTINUOUS
  0
LAYER
  5
8E
100
AcDbSymbolTableRecord
100
AcDbLayerTableRecord
  2
画層64
 70
    0
 62
7
  6
CONTINUOUS
  0
LAYER
  5
8F
100
AcDbSymbolTableRecord
100
AcDbLayerTableRecord
  2
画層65
 70
    0
 62
7
  6
CONTINUOUS
  0
LAYER
  5
90
100
AcDbSymbolTableRecord
100
AcDbLayerTableRecord
  2
画層66
 70
    0
 62
7
  6
CONTINUOUS
  0
LAYER
  5
91
100
AcDbSymbolTableRecord
100
AcDbLayerTableRecord
  2
画層67
 70
    0
 62
7
  6
CONTINUOUS
  0
LAYER
  5
92
100
AcDbSymbolTableRecord
100
AcDbLayerTableRecord
  2
画層68
 70
    0
 62
7
  6
CONTINUOUS
  0
LAYER
  5
93
100
AcDbSymbolTableRecord
100
AcDbLayerTableRecord
  2
画層69
 70
    0
 62
7
  6
CONTINUOUS
  0
LAYER
  5
94
100
AcDbSymbolTableRecord
100
AcDbLayerTableRecord
  2
画層70
 70
    0
 62
7
  6
CONTINUOUS
  0
LAYER
  5
95
100
AcDbSymbolTableRecord
100
AcDbLayerTableRecord
  2
画層71
 70
    0
 62
7
  6
CONTINUOUS
  0
LAYER
  5
96
100
AcDbSymbolTableRecord
100
AcDbLayerTableRecord
  2
画層72
 70
    0
 62
7
  6
CONTINUOUS
  0
LAYER
  5
97
100
AcDbSymbolTableRecord
100
AcDbLayerTableRecord
  2
画層73
 70
    0
 62
7
  6
CONTINUOUS
  0
LAYER
  5
98
100
AcDbSymbolTableRecord
100
AcDbLayerTableRecord
  2
画層74
 70
    0
 62
7
  6
CONTINUOUS
  0
LAYER
  5
99
100
AcDbSymbolTableRecord
100
AcDbLayerTableRecord
  2
画層75
 70
    0
 62
7
  6
CONTINUOUS
  0
LAYER
  5
9A
100
AcDbSymbolTableRecord
100
AcDbLayerTableRecord
  2
画層76
 70
    0
 62
7
  6
CONTINUOUS
  0
LAYER
  5
9B
100
AcDbSymbolTableRecord
100
AcDbLayerTableRecord
  2
画層77
 70
    0
 62
7
  6
CONTINUOUS
  0
LAYER
  5
9C
100
AcDbSymbolTableRecord
100
AcDbLayerTableRecord
  2
画層78
 70
    0
 62
7
  6
CONTINUOUS
  0
LAYER
  5
9D
100
AcDbSymbolTableRecord
100
AcDbLayerTableRecord
  2
画層79
 70
    0
 62
7
  6
CONTINUOUS
  0
LAYER
  5
9E
100
AcDbSymbolTableRecord
100
AcDbLayerTableRecord
  2
画層80
 70
    0
 62
7
  6
CONTINUOUS
  0
LAYER
  5
9F
100
AcDbSymbolTableRecord
100
AcDbLayerTableRecord
  2
画層81
 70
    0
 62
7
  6
CONTINUOUS
  0
LAYER
  5
A0
100
AcDbSymbolTableRecord
100
AcDbLayerTableRecord
  2
画層82
 70
    0
 62
7
  6
CONTINUOUS
  0
LAYER
  5
A1
100
AcDbSymbolTableRecord
100
AcDbLayerTableRecord
  2
画層83
 70
    0
 62
7
  6
CONTINUOUS
  0
LAYER
  5
A2
100
AcDbSymbolTableRecord
100
AcDbLayerTableRecord
  2
画層84
 70
    0
 62
7
  6
CONTINUOUS
  0
LAYER
  5
A3
100
AcDbSymbolTableRecord
100
AcDbLayerTableRecord
  2
画層85
 70
    0
 62
7
  6
CONTINUOUS
  0
LAYER
  5
A4
100
AcDbSymbolTableRecord
100
AcDbLayerTableRecord
  2
画層86
 70
    0
 62
7
  6
CONTINUOUS
  0
LAYER
  5
A5
100
AcDbSymbolTableRecord
100
AcDbLayerTableRecord
  2
画層87
 70
    0
 62
7
  6
CONTINUOUS
  0
LAYER
  5
A6
100
AcDbSymbolTableRecord
100
AcDbLayerTableRecord
  2
画層88
 70
    0
 62
7
  6
CONTINUOUS
  0
LAYER
  5
A7
100
AcDbSymbolTableRecord
100
AcDbLayerTableRecord
  2
画層89
 70
    0
 62
7
  6
CONTINUOUS
  0
LAYER
  5
A8
100
AcDbSymbolTableRecord
100
AcDbLayerTableRecord
  2
画層90
 70
    0
 62
7
  6
CONTINUOUS
  0
LAYER
  5
A9
100
AcDbSymbolTableRecord
100
AcDbLayerTableRecord
  2
画層91
 70
    0
 62
7
  6
CONTINUOUS
  0
LAYER
  5
AA
100
AcDbSymbolTableRecord
100
AcDbLayerTableRecord
  2
画層92
 70
    0
 62
7
  6
CONTINUOUS
  0
LAYER
  5
AB
100
AcDbSymbolTableRecord
100
AcDbLayerTableRecord
  2
画層93
 70
    0
 62
7
  6
CONTINUOUS
  0
LAYER
  5
AC
100
AcDbSymbolTableRecord
100
AcDbLayerTableRecord
  2
画層94
 70
    0
 62
7
  6
CONTINUOUS
  0
LAYER
  5
AD
100
AcDbSymbolTableRecord
100
AcDbLayerTableRecord
  2
画層95
 70
    0
 62
7
  6
CONTINUOUS
  0
LAYER
  5
AE
100
AcDbSymbolTableRecord
100
AcDbLayerTableRecord
  2
画層96
 70
    0
 62
7
  6
CONTINUOUS
  0
LAYER
  5
AF
100
AcDbSymbolTableRecord
100
AcDbLayerTableRecord
  2
画層97
 70
    0
 62
7
  6
CONTINUOUS
  0
LAYER
  5
B0
100
AcDbSymbolTableRecord
100
AcDbLayerTableRecord
  2
画層98
 70
    0
 62
7
  6
CONTINUOUS
  0
LAYER
  5
B1
100
AcDbSymbolTableRecord
100
AcDbLayerTableRecord
  2
画層99
 70
    0
 62
7
  6
CONTINUOUS
  0
LAYER
  5
B2
100
AcDbSymbolTableRecord
100
AcDbLayerTableRecord
  2
画層100
 70
    0
 62
7
  6
CONTINUOUS
  0
LAYER
  5
B3
100
AcDbSymbolTableRecord
100
AcDbLayerTableRecord
  2
画層101
 70
    0
 62
7
  6
CONTINUOUS
  0
LAYER
  5
B4
100
AcDbSymbolTableRecord
100
AcDbLayerTableRecord
  2
画層102
 70
    0
 62
7
  6
CONTINUOUS
  0
LAYER
  5
B5
100
AcDbSymbolTableRecord
100
AcDbLayerTableRecord
  2
画層103
 70
    0
 62
7
  6
CONTINUOUS
  0
LAYER
  5
B6
100
AcDbSymbolTableRecord
100
AcDbLayerTableRecord
  2
画層104
 70
    0
 62
7
  6
CONTINUOUS
  0
LAYER
  5
B7
100
AcDbSymbolTableRecord
100
AcDbLayerTableRecord
  2
画層105
 70
    0
 62
7
  6
CONTINUOUS
  0
LAYER
  5
B8
100
AcDbSymbolTableRecord
100
AcDbLayerTableRecord
  2
画層106
 70
    0
 62
7
  6
CONTINUOUS
  0
LAYER
  5
B9
100
AcDbSymbolTableRecord
100
AcDbLayerTableRecord
  2
画層107
 70
    0
 62
7
  6
CONTINUOUS
  0
LAYER
  5
BA
100
AcDbSymbolTableRecord
100
AcDbLayerTableRecord
  2
画層108
 70
    0
 62
7
  6
CONTINUOUS
  0
LAYER
  5
BB
100
AcDbSymbolTableRecord
100
AcDbLayerTableRecord
  2
画層109
 70
    0
 62
7
  6
CONTINUOUS
  0
LAYER
  5
BC
100
AcDbSymbolTableRecord
100
AcDbLayerTableRecord
  2
画層110
 70
    0
 62
7
  6
CONTINUOUS
  0
LAYER
  5
BD
100
AcDbSymbolTableRecord
100
AcDbLayerTableRecord
  2
画層111
 70
    0
 62
7
  6
CONTINUOUS
  0
LAYER
  5
BE
100
AcDbSymbolTableRecord
100
AcDbLayerTableRecord
  2
画層112
 70
    0
 62
7
  6
CONTINUOUS
  0
LAYER
  5
BF
100
AcDbSymbolTableRecord
100
AcDbLayerTableRecord
  2
画層113
 70
    0
 62
7
  6
CONTINUOUS
  0
LAYER
  5
C0
100
AcDbSymbolTableRecord
100
AcDbLayerTableRecord
  2
画層114
 70
    0
 62
7
  6
CONTINUOUS
  0
LAYER
  5
C1
100
AcDbSymbolTableRecord
100
AcDbLayerTableRecord
  2
画層115
 70
    0
 62
7
  6
CONTINUOUS
  0
LAYER
  5
C2
100
AcDbSymbolTableRecord
100
AcDbLayerTableRecord
  2
画層116
 70
    0
 62
7
  6
CONTINUOUS
  0
LAYER
  5
C3
100
AcDbSymbolTableRecord
100
AcDbLayerTableRecord
  2
画層117
 70
    0
 62
7
  6
CONTINUOUS
  0
LAYER
  5
C4
100
AcDbSymbolTableRecord
100
AcDbLayerTableRecord
  2
画層118
 70
    0
 62
7
  6
CONTINUOUS
  0
LAYER
  5
C5
100
AcDbSymbolTableRecord
100
AcDbLayerTableRecord
  2
画層119
 70
    0
 62
7
  6
CONTINUOUS
  0
LAYER
  5
C6
100
AcDbSymbolTableRecord
100
AcDbLayerTableRecord
  2
画層120
 70
    0
 62
7
  6
CONTINUOUS
  0
LAYER
  5
C7
100
AcDbSymbolTableRecord
100
AcDbLayerTableRecord
  2
画層121
 70
    0
 62
7
  6
CONTINUOUS
  0
LAYER
  5
C8
100
AcDbSymbolTableRecord
100
AcDbLayerTableRecord
  2
画層122
 70
    0
 62
7
  6
CONTINUOUS
  0
LAYER
  5
C9
100
AcDbSymbolTableRecord
100
AcDbLayerTableRecord
  2
画層123
 70
    0
 62
7
  6
CONTINUOUS
  0
LAYER
  5
CA
100
AcDbSymbolTableRecord
100
AcDbLayerTableRecord
  2
画層124
 70
    0
 62
7
  6
CONTINUOUS
  0
LAYER
  5
CB
100
AcDbSymbolTableRecord
100
AcDbLayerTableRecord
  2
画層125
 70
    0
 62
7
  6
CONTINUOUS
  0
LAYER
  5
CC
100
AcDbSymbolTableRecord
100
AcDbLayerTableRecord
  2
画層126
 70
    0
 62
7
  6
CONTINUOUS
  0
LAYER
  5
CD
100
AcDbSymbolTableRecord
100
AcDbLayerTableRecord
  2
画層127
 70
    0
 62
7
  6
CONTINUOUS
  0
LAYER
  5
CE
100
AcDbSymbolTableRecord
100
AcDbLayerTableRecord
  2
画層128
 70
    0
 62
7
  6
CONTINUOUS
  0
LAYER
  5
CF
100
AcDbSymbolTableRecord
100
AcDbLayerTableRecord
  2
画層129
 70
    0
 62
7
  6
CONTINUOUS
  0
LAYER
  5
D0
100
AcDbSymbolTableRecord
100
AcDbLayerTableRecord
  2
画層130
 70
    0
 62
7
  6
CONTINUOUS
  0
LAYER
  5
D1
100
AcDbSymbolTableRecord
100
AcDbLayerTableRecord
  2
画層131
 70
    0
 62
7
  6
CONTINUOUS
  0
LAYER
  5
D2
100
AcDbSymbolTableRecord
100
AcDbLayerTableRecord
  2
画層132
 70
    0
 62
7
  6
CONTINUOUS
  0
LAYER
  5
D3
100
AcDbSymbolTableRecord
100
AcDbLayerTableRecord
  2
画層133
 70
    0
 62
7
  6
CONTINUOUS
  0
LAYER
  5
D4
100
AcDbSymbolTableRecord
100
AcDbLayerTableRecord
  2
画層134
 70
    0
 62
7
  6
CONTINUOUS
  0
LAYER
  5
D5
100
AcDbSymbolTableRecord
100
AcDbLayerTableRecord
  2
画層135
 70
    0
 62
7
  6
CONTINUOUS
  0
LAYER
  5
D6
100
AcDbSymbolTableRecord
100
AcDbLayerTableRecord
  2
画層136
 70
    0
 62
7
  6
CONTINUOUS
  0
LAYER
  5
D7
100
AcDbSymbolTableRecord
100
AcDbLayerTableRecord
  2
画層137
 70
    0
 62
7
  6
CONTINUOUS
  0
LAYER
  5
D8
100
AcDbSymbolTableRecord
100
AcDbLayerTableRecord
  2
画層138
 70
    0
 62
7
  6
CONTINUOUS
  0
LAYER
  5
D9
100
AcDbSymbolTableRecord
100
AcDbLayerTableRecord
  2
画層139
 70
    0
 62
7
  6
CONTINUOUS
  0
LAYER
  5
DA
100
AcDbSymbolTableRecord
100
AcDbLayerTableRecord
  2
画層140
 70
    0
 62
7
  6
CONTINUOUS
  0
LAYER
  5
DB
100
AcDbSymbolTableRecord
100
AcDbLayerTableRecord
  2
画層141
 70
    0
 62
7
  6
CONTINUOUS
  0
LAYER
  5
DC
100
AcDbSymbolTableRecord
100
AcDbLayerTableRecord
  2
画層142
 70
    0
 62
7
  6
CONTINUOUS
  0
LAYER
  5
DD
100
AcDbSymbolTableRecord
100
AcDbLayerTableRecord
  2
画層143
 70
    0
 62
7
  6
CONTINUOUS
  0
LAYER
  5
DE
100
AcDbSymbolTableRecord
100
AcDbLayerTableRecord
  2
画層144
 70
    0
 62
7
  6
CONTINUOUS
  0
LAYER
  5
DF
100
AcDbSymbolTableRecord
100
AcDbLayerTableRecord
  2
画層145
 70
    0
 62
7
  6
CONTINUOUS
  0
LAYER
  5
E0
100
AcDbSymbolTableRecord
100
AcDbLayerTableRecord
  2
画層146
 70
    0
 62
7
  6
CONTINUOUS
  0
LAYER
  5
E1
100
AcDbSymbolTableRecord
100
AcDbLayerTableRecord
  2
画層147
 70
    0
 62
7
  6
CONTINUOUS
  0
LAYER
  5
E2
100
AcDbSymbolTableRecord
100
AcDbLayerTableRecord
  2
画層148
 70
    0
 62
7
  6
CONTINUOUS
  0
LAYER
  5
E3
100
AcDbSymbolTableRecord
100
AcDbLayerTableRecord
  2
画層149
 70
    0
 62
7
  6
CONTINUOUS
  0
LAYER
  5
E4
100
AcDbSymbolTableRecord
100
AcDbLayerTableRecord
  2
画層150
 70
    0
 62
7
  6
CONTINUOUS
  0
LAYER
  5
E5
100
AcDbSymbolTableRecord
100
AcDbLayerTableRecord
  2
画層151
 70
    0
 62
7
  6
CONTINUOUS
  0
LAYER
  5
E6
100
AcDbSymbolTableRecord
100
AcDbLayerTableRecord
  2
画層152
 70
    0
 62
7
  6
CONTINUOUS
  0
LAYER
  5
E7
100
AcDbSymbolTableRecord
100
AcDbLayerTableRecord
  2
画層153
 70
    0
 62
7
  6
CONTINUOUS
  0
LAYER
  5
E8
100
AcDbSymbolTableRecord
100
AcDbLayerTableRecord
  2
画層154
 70
    0
 62
7
  6
CONTINUOUS
  0
LAYER
  5
E9
100
AcDbSymbolTableRecord
100
AcDbLayerTableRecord
  2
画層155
 70
    0
 62
7
  6
CONTINUOUS
  0
LAYER
  5
EA
100
AcDbSymbolTableRecord
100
AcDbLayerTableRecord
  2
画層156
 70
    0
 62
7
  6
CONTINUOUS
  0
LAYER
  5
EB
100
AcDbSymbolTableRecord
100
AcDbLayerTableRecord
  2
画層157
 70
    0
 62
7
  6
CONTINUOUS
  0
LAYER
  5
EC
100
AcDbSymbolTableRecord
100
AcDbLayerTableRecord
  2
画層158
 70
    0
 62
7
  6
CONTINUOUS
  0
LAYER
  5
ED
100
AcDbSymbolTableRecord
100
AcDbLayerTableRecord
  2
画層159
 70
    0
 62
7
  6
CONTINUOUS
  0
LAYER
  5
EE
100
AcDbSymbolTableRecord
100
AcDbLayerTableRecord
  2
画層160
 70
    0
 62
7
  6
CONTINUOUS
  0
LAYER
  5
EF
100
AcDbSymbolTableRecord
100
AcDbLayerTableRecord
  2
画層161
 70
    0
 62
7
  6
CONTINUOUS
  0
LAYER
  5
F0
100
AcDbSymbolTableRecord
100
AcDbLayerTableRecord
  2
画層162
 70
    0
 62
7
  6
CONTINUOUS
  0
LAYER
  5
F1
100
AcDbSymbolTableRecord
100
AcDbLayerTableRecord
  2
画層163
 70
    0
 62
7
  6
CONTINUOUS
  0
LAYER
  5
F2
100
AcDbSymbolTableRecord
100
AcDbLayerTableRecord
  2
画層164
 70
    0
 62
7
  6
CONTINUOUS
  0
LAYER
  5
F3
100
AcDbSymbolTableRecord
100
AcDbLayerTableRecord
  2
画層165
 70
    0
 62
7
  6
CONTINUOUS
  0
LAYER
  5
F4
100
AcDbSymbolTableRecord
100
AcDbLayerTableRecord
  2
画層166
 70
    0
 62
7
  6
CONTINUOUS
  0
LAYER
  5
F5
100
AcDbSymbolTableRecord
100
AcDbLayerTableRecord
  2
画層167
 70
    0
 62
7
  6
CONTINUOUS
  0
LAYER
  5
F6
100
AcDbSymbolTableRecord
100
AcDbLayerTableRecord
  2
画層168
 70
    0
 62
7
  6
CONTINUOUS
  0
LAYER
  5
F7
100
AcDbSymbolTableRecord
100
AcDbLayerTableRecord
  2
画層169
 70
    0
 62
7
  6
CONTINUOUS
  0
LAYER
  5
F8
100
AcDbSymbolTableRecord
100
AcDbLayerTableRecord
  2
画層170
 70
    0
 62
7
  6
CONTINUOUS
  0
LAYER
  5
F9
100
AcDbSymbolTableRecord
100
AcDbLayerTableRecord
  2
画層171
 70
    0
 62
7
  6
CONTINUOUS
  0
LAYER
  5
FA
100
AcDbSymbolTableRecord
100
AcDbLayerTableRecord
  2
画層172
 70
    0
 62
7
  6
CONTINUOUS
  0
LAYER
  5
FB
100
AcDbSymbolTableRecord
100
AcDbLayerTableRecord
  2
画層173
 70
    0
 62
7
  6
CONTINUOUS
  0
LAYER
  5
FC
100
AcDbSymbolTableRecord
100
AcDbLayerTableRecord
  2
画層174
 70
    0
 62
7
  6
CONTINUOUS
  0
LAYER
  5
FD
100
AcDbSymbolTableRecord
100
AcDbLayerTableRecord
  2
画層175
 70
    0
 62
7
  6
CONTINUOUS
  0
LAYER
  5
FE
100
AcDbSymbolTableRecord
100
AcDbLayerTableRecord
  2
画層176
 70
    0
 62
7
  6
CONTINUOUS
  0
LAYER
  5
FF
100
AcDbSymbolTableRecord
100
AcDbLayerTableRecord
  2
画層177
 70
    0
 62
7
  6
CONTINUOUS
  0
LAYER
  5
100
100
AcDbSymbolTableRecord
100
AcDbLayerTableRecord
  2
画層178
 70
    0
 62
7
  6
CONTINUOUS
  0
LAYER
  5
101
100
AcDbSymbolTableRecord
100
AcDbLayerTableRecord
  2
画層179
 70
    0
 62
7
  6
CONTINUOUS
  0
LAYER
  5
102
100
AcDbSymbolTableRecord
100
AcDbLayerTableRecord
  2
画層180
 70
    0
 62
7
  6
CONTINUOUS
  0
LAYER
  5
103
100
AcDbSymbolTableRecord
100
AcDbLayerTableRecord
  2
画層181
 70
    0
 62
7
  6
CONTINUOUS
  0
LAYER
  5
104
100
AcDbSymbolTableRecord
100
AcDbLayerTableRecord
  2
画層182
 70
    0
 62
7
  6
CONTINUOUS
  0
LAYER
  5
105
100
AcDbSymbolTableRecord
100
AcDbLayerTableRecord
  2
画層183
 70
    0
 62
7
  6
CONTINUOUS
  0
LAYER
  5
106
100
AcDbSymbolTableRecord
100
AcDbLayerTableRecord
  2
画層184
 70
    0
 62
7
  6
CONTINUOUS
  0
LAYER
  5
107
100
AcDbSymbolTableRecord
100
AcDbLayerTableRecord
  2
画層185
 70
    0
 62
7
  6
CONTINUOUS
  0
LAYER
  5
108
100
AcDbSymbolTableRecord
100
AcDbLayerTableRecord
  2
画層186
 70
    0
 62
7
  6
CONTINUOUS
  0
LAYER
  5
109
100
AcDbSymbolTableRecord
100
AcDbLayerTableRecord
  2
画層187
 70
    0
 62
7
  6
CONTINUOUS
  0
LAYER
  5
10A
100
AcDbSymbolTableRecord
100
AcDbLayerTableRecord
  2
画層188
 70
    0
 62
7
  6
CONTINUOUS
  0
LAYER
  5
10B
100
AcDbSymbolTableRecord
100
AcDbLayerTableRecord
  2
画層189
 70
    0
 62
7
  6
CONTINUOUS
  0
LAYER
  5
10C
100
AcDbSymbolTableRecord
100
AcDbLayerTableRecord
  2
画層190
 70
    0
 62
7
  6
CONTINUOUS
  0
LAYER
  5
10D
100
AcDbSymbolTableRecord
100
AcDbLayerTableRecord
  2
画層191
 70
    0
 62
7
  6
CONTINUOUS
  0
LAYER
  5
10E
100
AcDbSymbolTableRecord
100
AcDbLayerTableRecord
  2
画層192
 70
    0
 62
7
  6
CONTINUOUS
  0
LAYER
  5
10F
100
AcDbSymbolTableRecord
100
AcDbLayerTableRecord
  2
画層193
 70
    0
 62
7
  6
CONTINUOUS
  0
LAYER
  5
110
100
AcDbSymbolTableRecord
100
AcDbLayerTableRecord
  2
画層194
 70
    0
 62
7
  6
CONTINUOUS
  0
LAYER
  5
111
100
AcDbSymbolTableRecord
100
AcDbLayerTableRecord
  2
画層195
 70
    0
 62
7
  6
CONTINUOUS
  0
LAYER
  5
112
100
AcDbSymbolTableRecord
100
AcDbLayerTableRecord
  2
画層196
 70
    0
 62
7
  6
CONTINUOUS
  0
LAYER
  5
113
100
AcDbSymbolTableRecord
100
AcDbLayerTableRecord
  2
画層197
 70
    0
 62
7
  6
CONTINUOUS
  0
LAYER
  5
114
100
AcDbSymbolTableRecord
100
AcDbLayerTableRecord
  2
画層198
 70
    0
 62
7
  6
CONTINUOUS
  0
LAYER
  5
115
100
AcDbSymbolTableRecord
100
AcDbLayerTableRecord
  2
画層199
 70
    0
 62
7
  6
CONTINUOUS
  0
LAYER
  5
116
100
AcDbSymbolTableRecord
100
AcDbLayerTableRecord
  2
画層200
 70
    0
 62
7
  6
CONTINUOUS
  0
LAYER
  5
117
100
AcDbSymbolTableRecord
100
AcDbLayerTableRecord
  2
画層201
 70
    0
 62
7
  6
CONTINUOUS
  0
LAYER
  5
118
100
AcDbSymbolTableRecord
100
AcDbLayerTableRecord
  2
画層202
 70
    0
 62
7
  6
CONTINUOUS
  0
LAYER
  5
119
100
AcDbSymbolTableRecord
100
AcDbLayerTableRecord
  2
画層203
 70
    0
 62
7
  6
CONTINUOUS
  0
LAYER
  5
11A
100
AcDbSymbolTableRecord
100
AcDbLayerTableRecord
  2
画層204
 70
    0
 62
7
  6
CONTINUOUS
  0
LAYER
  5
11B
100
AcDbSymbolTableRecord
100
AcDbLayerTableRecord
  2
画層205
 70
    0
 62
7
  6
CONTINUOUS
  0
LAYER
  5
11C
100
AcDbSymbolTableRecord
100
AcDbLayerTableRecord
  2
画層206
 70
    0
 62
7
  6
CONTINUOUS
  0
LAYER
  5
11D
100
AcDbSymbolTableRecord
100
AcDbLayerTableRecord
  2
画層207
 70
    0
 62
7
  6
CONTINUOUS
  0
LAYER
  5
11E
100
AcDbSymbolTableRecord
100
AcDbLayerTableRecord
  2
画層208
 70
    0
 62
7
  6
CONTINUOUS
  0
LAYER
  5
11F
100
AcDbSymbolTableRecord
100
AcDbLayerTableRecord
  2
画層209
 70
    0
 62
7
  6
CONTINUOUS
  0
LAYER
  5
120
100
AcDbSymbolTableRecord
100
AcDbLayerTableRecord
  2
画層210
 70
    0
 62
7
  6
CONTINUOUS
  0
LAYER
  5
121
100
AcDbSymbolTableRecord
100
AcDbLayerTableRecord
  2
画層211
 70
    0
 62
7
  6
CONTINUOUS
  0
LAYER
  5
122
100
AcDbSymbolTableRecord
100
AcDbLayerTableRecord
  2
画層212
 70
    0
 62
7
  6
CONTINUOUS
  0
LAYER
  5
123
100
AcDbSymbolTableRecord
100
AcDbLayerTableRecord
  2
画層213
 70
    0
 62
7
  6
CONTINUOUS
  0
LAYER
  5
124
100
AcDbSymbolTableRecord
100
AcDbLayerTableRecord
  2
画層214
 70
    0
 62
7
  6
CONTINUOUS
  0
LAYER
  5
125
100
AcDbSymbolTableRecord
100
AcDbLayerTableRecord
  2
画層215
 70
    0
 62
7
  6
CONTINUOUS
  0
LAYER
  5
126
100
AcDbSymbolTableRecord
100
AcDbLayerTableRecord
  2
画層216
 70
    0
 62
7
  6
CONTINUOUS
  0
LAYER
  5
127
100
AcDbSymbolTableRecord
100
AcDbLayerTableRecord
  2
画層217
 70
    0
 62
7
  6
CONTINUOUS
  0
LAYER
  5
128
100
AcDbSymbolTableRecord
100
AcDbLayerTableRecord
  2
画層218
 70
    0
 62
7
  6
CONTINUOUS
  0
LAYER
  5
129
100
AcDbSymbolTableRecord
100
AcDbLayerTableRecord
  2
画層219
 70
    0
 62
7
  6
CONTINUOUS
  0
LAYER
  5
12A
100
AcDbSymbolTableRecord
100
AcDbLayerTableRecord
  2
画層220
 70
    0
 62
7
  6
CONTINUOUS
  0
LAYER
  5
12B
100
AcDbSymbolTableRecord
100
AcDbLayerTableRecord
  2
画層221
 70
    0
 62
7
  6
CONTINUOUS
  0
LAYER
  5
12C
100
AcDbSymbolTableRecord
100
AcDbLayerTableRecord
  2
画層222
 70
    0
 62
7
  6
CONTINUOUS
  0
LAYER
  5
12D
100
AcDbSymbolTableRecord
100
AcDbLayerTableRecord
  2
画層223
 70
    0
 62
7
  6
CONTINUOUS
  0
LAYER
  5
12E
100
AcDbSymbolTableRecord
100
AcDbLayerTableRecord
  2
画層224
 70
    0
 62
7
  6
CONTINUOUS
  0
LAYER
  5
12F
100
AcDbSymbolTableRecord
100
AcDbLayerTableRecord
  2
画層225
 70
    0
 62
7
  6
CONTINUOUS
  0
LAYER
  5
130
100
AcDbSymbolTableRecord
100
AcDbLayerTableRecord
  2
画層226
 70
    0
 62
7
  6
CONTINUOUS
  0
LAYER
  5
131
100
AcDbSymbolTableRecord
100
AcDbLayerTableRecord
  2
画層227
 70
    0
 62
7
  6
CONTINUOUS
  0
LAYER
  5
132
100
AcDbSymbolTableRecord
100
AcDbLayerTableRecord
  2
画層228
 70
    0
 62
7
  6
CONTINUOUS
  0
LAYER
  5
133
100
AcDbSymbolTableRecord
100
AcDbLayerTableRecord
  2
画層229
 70
    0
 62
7
  6
CONTINUOUS
  0
LAYER
  5
134
100
AcDbSymbolTableRecord
100
AcDbLayerTableRecord
  2
画層230
 70
    0
 62
7
  6
CONTINUOUS
  0
LAYER
  5
135
100
AcDbSymbolTableRecord
100
AcDbLayerTableRecord
  2
画層231
 70
    0
 62
7
  6
CONTINUOUS
  0
LAYER
  5
136
100
AcDbSymbolTableRecord
100
AcDbLayerTableRecord
  2
画層232
 70
    0
 62
7
  6
CONTINUOUS
  0
LAYER
  5
137
100
AcDbSymbolTableRecord
100
AcDbLayerTableRecord
  2
画層233
 70
    0
 62
7
  6
CONTINUOUS
  0
LAYER
  5
138
100
AcDbSymbolTableRecord
100
AcDbLayerTableRecord
  2
画層234
 70
    0
 62
7
  6
CONTINUOUS
  0
LAYER
  5
139
100
AcDbSymbolTableRecord
100
AcDbLayerTableRecord
  2
画層235
 70
    0
 62
7
  6
CONTINUOUS
  0
LAYER
  5
13A
100
AcDbSymbolTableRecord
100
AcDbLayerTableRecord
  2
画層236
 70
    0
 62
7
  6
CONTINUOUS
  0
LAYER
  5
13B
100
AcDbSymbolTableRecord
100
AcDbLayerTableRecord
  2
画層237
 70
    0
 62
7
  6
CONTINUOUS
  0
LAYER
  5
13C
100
AcDbSymbolTableRecord
100
AcDbLayerTableRecord
  2
画層238
 70
    0
 62
7
  6
CONTINUOUS
  0
LAYER
  5
13D
100
AcDbSymbolTableRecord
100
AcDbLayerTableRecord
  2
画層239
 70
    0
 62
7
  6
CONTINUOUS
  0
LAYER
  5
13E
100
AcDbSymbolTableRecord
100
AcDbLayerTableRecord
  2
画層240
 70
    0
 62
7
  6
CONTINUOUS
  0
LAYER
  5
13F
100
AcDbSymbolTableRecord
100
AcDbLayerTableRecord
  2
画層241
 70
    0
 62
7
  6
CONTINUOUS
  0
LAYER
  5
140
100
AcDbSymbolTableRecord
100
AcDbLayerTableRecord
  2
画層242
 70
    0
 62
7
  6
CONTINUOUS
  0
LAYER
  5
141
100
AcDbSymbolTableRecord
100
AcDbLayerTableRecord
  2
画層243
 70
    0
 62
7
  6
CONTINUOUS
  0
LAYER
  5
142
100
AcDbSymbolTableRecord
100
AcDbLayerTableRecord
  2
画層244
 70
    0
 62
7
  6
CONTINUOUS
  0
LAYER
  5
143
100
AcDbSymbolTableRecord
100
AcDbLayerTableRecord
  2
画層245
 70
    0
 62
7
  6
CONTINUOUS
  0
LAYER
  5
144
100
AcDbSymbolTableRecord
100
AcDbLayerTableRecord
  2
画層246
 70
    0
 62
7
  6
CONTINUOUS
  0
LAYER
  5
145
100
AcDbSymbolTableRecord
100
AcDbLayerTableRecord
  2
画層247
 70
    0
 62
7
  6
CONTINUOUS
  0
LAYER
  5
146
100
AcDbSymbolTableRecord
100
AcDbLayerTableRecord
  2
画層248
 70
    0
 62
7
  6
CONTINUOUS
  0
LAYER
  5
147
100
AcDbSymbolTableRecord
100
AcDbLayerTableRecord
  2
画層249
 70
    0
 62
7
  6
CONTINUOUS
  0
LAYER
  5
148
100
AcDbSymbolTableRecord
100
AcDbLayerTableRecord
  2
画層250
 70
    0
 62
7
  6
CONTINUOUS
  0
LAYER
  5
149
100
AcDbSymbolTableRecord
100
AcDbLayerTableRecord
  2
画層251
 70
    0
 62
7
  6
CONTINUOUS
  0
LAYER
  5
14A
100
AcDbSymbolTableRecord
100
AcDbLayerTableRecord
  2
画層252
 70
    0
 62
7
  6
CONTINUOUS
  0
LAYER
  5
14B
100
AcDbSymbolTableRecord
100
AcDbLayerTableRecord
  2
画層253
 70
    0
 62
7
  6
CONTINUOUS
  0
LAYER
  5
14C
100
AcDbSymbolTableRecord
100
AcDbLayerTableRecord
  2
画層254
 70
    0
 62
7
  6
CONTINUOUS
  0
LAYER
  5
14D
100
AcDbSymbolTableRecord
100
AcDbLayerTableRecord
  2
画層255
 70
    0
 62
7
  6
CONTINUOUS
  0
ENDTAB
  0
TABLE
  2
STYLE
  5
4
100
AcDbSymbolTable
 70
     1
  0
STYLE
  5
14E
100
AcDbSymbolTableRecord
100
AcDbTextStyleTableRecord
  2
Standard
 70
     0
 40
0.0
 41
1.0
 50
0.0
 71
     0
 42
3.2
  3
TXT
  4
BIGFONT
  0
STYLE
  5
14F
100
AcDbSymbolTableRecord
100
AcDbTextStyleTableRecord
  2
Font_0
 70
     0
 40
0.0
 41
1.0
 50
0.0
 71
     0
 42
3.2
  3
MS Gothic.ttf
  4

1001
ACAD
1000
MS Gothic
1071
  32817
  0
STYLE
  5
150
100
AcDbSymbolTableRecord
100
AcDbTextStyleTableRecord
  2
Font_1
 70
     0
 40
0.0
 41
1.0
 50
0.0
 71
     0
 42
3.2
  3
MS Gothic.ttf
  4

1001
ACAD
1000
@MS Gothic
1071
  32817
  0
ENDTAB
  0
TABLE
  2
VIEW
  5
5
100
AcDbSymbolTable
 70
     0
  0
ENDTAB
  0
TABLE
  2
UCS
  5
6
100
AcDbSymbolTable
 70
     0
  0
ENDTAB
  0
TABLE
  2
APPID
  5
7
100
AcDbSymbolTable
 70
     1
  0
APPID
  5
151
100
AcDbSymbolTableRecord
100
AcDbRegAppTableRecord
  2
ACAD
 70
     0
  0
ENDTAB
  0
TABLE
  2
DIMSTYLE
  5
8
100
AcDbSymbolTable
 70
     1
  0
DIMSTYLE
105
2A
100
AcDbSymbolTableRecord
100
AcDbDimStyleTableRecord
  2
STANDARD
 70
     0
  3

  4

  5

  6

  7

 40
1.0
 41
2.5
 42
2.0
 43
7.0
 44
1.25
 45
0.0
 46
0.0
 47
0.0
 48
0.0
 71
     0
 72
     0
 73
     0
 74
     0
 75
     0
 76
     0
 77
     1
 78
     0
140
2.5
141
2.5
142
0.0
143
0.0394
144
1.0
145
0.0
146
1.0
147
1.0
170
     0
171
     2
172
     0
173
     0
174
     1
175
     0
176
     0
177
     0
178
     0
270
     2
271
     2
272
     4
273
     2
274
     2
275
     0
280
     0
281
     0
282
     0
283
     1
284
     0
285
     0
286
     0
287
     3
288
     0
  0
ENDTAB
  0
TABLE
  2
BLOCK_RECORD
  5
9
100
AcDbSymbolTable
 70
     0
  0
BLOCK_RECORD
  5
152
100
AcDbSymbolTableRecord
100
AcDbBlockTableRecord
  2
*MODEL_SPACE
  0
BLOCK_RECORD
  5
153
100
AcDbSymbolTableRecord
100
AcDbBlockTableRecord
  2
*PAPER_SPACE
  0
BLOCK_RECORD
  5
154
100
AcDbSymbolTableRecord
100
AcDbBlockTableRecord
  2
0
  0
BLOCK_RECORD
  5
155
100
AcDbSymbolTableRecord
100
AcDbBlockTableRecord
  2
A4
  0
BLOCK_RECORD
  5
156
100
AcDbSymbolTableRecord
100
AcDbBlockTableRecord
  2
NOTE
  0
BLOCK_RECORD
  5
157
100
AcDbSymbolTableRecord
100
AcDbBlockTableRecord
  2
BASE
  0
BLOCK_RECORD
  5
158
100
AcDbSymbolTableRecord
100
AcDbBlockTableRecord
  2
LIST
  0
BLOCK_RECORD
  5
159
100
AcDbSymbolTableRecord
100
AcDbBlockTableRecord
  2
A4ｹﾏｮﾘ
  0
BLOCK_RECORD
  5
15A
100
AcDbSymbolTableRecord
100
AcDbBlockTableRecord
  2
JAME
  0
BLOCK_RECORD
  5
15B
100
AcDbSymbolTableRecord
100
AcDbBlockTableRecord
  2
GENAXEH
  0
BLOCK_RECORD
  5
15C
100
AcDbSymbolTableRecord
100
AcDbBlockTableRecord
  2
A$C36D836D4
  0
BLOCK_RECORD
  5
15D
100
AcDbSymbolTableRecord
100
AcDbBlockTableRecord
  2
A$C520435C5
  0
BLOCK_RECORD
  5
15E
100
AcDbSymbolTableRecord
100
AcDbBlockTableRecord
  2
A$C60F9129D
  0
BLOCK_RECORD
  5
15F
100
AcDbSymbolTableRecord
100
AcDbBlockTableRecord
  2
A
  0
BLOCK_RECORD
  5
160
100
AcDbSymbolTableRecord
100
AcDbBlockTableRecord
  2
B
  0
BLOCK_RECORD
  5
161
100
AcDbSymbolTableRecord
100
AcDbBlockTableRecord
  2
C
  0
BLOCK_RECORD
  5
162
100
AcDbSymbolTableRecord
100
AcDbBlockTableRecord
  2
D
  0
BLOCK_RECORD
  5
163
100
AcDbSymbolTableRecord
100
AcDbBlockTableRecord
  2
A4ｹﾏｮﾘ_JAME_
  0
BLOCK_RECORD
  5
164
100
AcDbSymbolTableRecord
100
AcDbBlockTableRecord
  2
A$C610B27C0
  0
BLOCK_RECORD
  5
165
100
AcDbSymbolTableRecord
100
AcDbBlockTableRecord
  2
Rｺﾝ､L
  0
BLOCK_RECORD
  5
166
100
AcDbSymbolTableRecord
100
AcDbBlockTableRecord
  2
A$C09260B6A
  0
ENDTAB
  0
ENDSEC
  0
SECTION
  2
BLOCKS
  0
BLOCK
  5
168
100
AcDbEntity
  8
0
100
AcDbBlockBegin
2
*MODEL_SPACE
 70
     0
 10
0.0
 20
0.0
 30
0.0
  3
*MODEL_SPACE
  1

  0
ENDBLK
  5
169
100
AcDbEntity
  8
0
100
AcDbBlockEnd
  0
BLOCK
  5
16A
100
AcDbEntity
 67
     1
  8
0
100
AcDbBlockBegin
  2
*PAPER_SPACE
 70
     0
 10
0.0
 20
0.0
 30
0.0
  3
*PAPER_SPACE
  1

  0
ENDBLK
  5
16B
100
AcDbEntity
 67
     1
  8
0
100
AcDbBlockEnd
  0
BLOCK
  5
16C
100
AcDbEntity
  8
0
100
AcDbBlockBegin
  2
0
 70
    0
 10
0
 20
0
 30
0.0
  3
0
  1

  0
LINE
  5
16D
100
AcDbEntity
  8
0
100
AcDbLine
  6
BYLAYER
 10
1
 20
1
 11
97.85
 21
1
  0
LINE
  5
16E
100
AcDbEntity
  8
0
100
AcDbLine
  6
BYLAYER
 10
1
 20
201
 11
1
 21
1
  0
LINE
  5
16F
100
AcDbEntity
  8
0
100
AcDbLine
  6
BYLAYER
 10
1
 20
1
 11
1
 21
35
  0
LINE
  5
170
100
AcDbEntity
  8
0
100
AcDbLine
  6
BYLAYER
 10
1
 20
7
 11
290
 21
7
  0
LINE
  5
171
100
AcDbEntity
  8
0
100
AcDbLine
  6
BYLAYER
 10
1
 20
13
 11
290
 21
13
  0
LINE
  5
172
100
AcDbEntity
  8
0
100
AcDbLine
  6
BYLAYER
 10
97.85
 20
19
 11
290
 21
19
  0
LINE
  5
173
100
AcDbEntity
  8
0
100
AcDbLine
  6
BYLAYER
 10
98
 20
25
 11
290
 21
25
  0
LINE
  5
174
100
AcDbEntity
  8
0
100
AcDbLine
  6
BYLAYER
 10
98
 20
31
 11
290
 21
31
  0
LINE
  5
175
100
AcDbEntity
  8
0
100
AcDbLine
  6
BYLAYER
 10
214
 20
37
 11
214
 21
1
  0
LINE
  5
176
100
AcDbEntity
  8
0
100
AcDbLine
  6
BYLAYER
 10
233
 20
37
 11
233
 21
1
  0
LINE
  5
177
100
AcDbEntity
  8
0
100
AcDbLine
  6
BYLAYER
 10
196.025
 20
31
 11
196.025
 21
1
  0
LINE
  5
178
100
AcDbEntity
  8
0
100
AcDbLine
  6
BYLAYER
 10
196.025
 20
31
 11
290
 21
31
  0
LINE
  5
179
100
AcDbEntity
  8
0
100
AcDbLine
  6
BYLAYER
 10
196.025
 20
1
 11
290
 21
1
  0
LINE
  5
17A
100
AcDbEntity
  8
0
100
AcDbLine
  6
BYLAYER
 10
196.15
 20
37
 11
196.15
 21
1
  0
LINE
  5
17B
100
AcDbEntity
  8
0
100
AcDbLine
  6
BYLAYER
 10
195.85
 20
37
 11
195.85
 21
1
  0
LINE
  5
17C
100
AcDbEntity
  8
0
100
AcDbLine
  6
BYLAYER
 10
98.15
 20
37
 11
98.15
 21
1
  0
LINE
  5
17D
100
AcDbEntity
  8
0
100
AcDbLine
  6
BYLAYER
 10
98.15
 20
31
 11
195.85
 21
31
  0
LINE
  5
17E
100
AcDbEntity
  8
0
100
AcDbLine
  6
BYLAYER
 10
98.15
 20
1
 11
195.85
 21
1
  0
LINE
  5
17F
100
AcDbEntity
  8
0
100
AcDbLine
  6
BYLAYER
 10
97.85
 20
37
 11
97.85
 21
1
  0
LINE
  5
180
100
AcDbEntity
  8
0
100
AcDbLine
  6
BYLAYER
 10
145
 20
37
 11
145
 21
1
  0
LINE
  5
181
100
AcDbEntity
  8
0
100
AcDbLine
  6
BYLAYER
 10
115
 20
37
 11
115
 21
1
  0
LINE
  5
182
100
AcDbEntity
  8
0
100
AcDbLine
  6
BYLAYER
 10
164
 20
37
 11
164
 21
1
  0
LINE
  5
183
100
AcDbEntity
  8
0
100
AcDbLine
  6
BYLAYER
 10
49
 20
13
 11
49
 21
1
  0
LINE
  5
184
100
AcDbEntity
  8
0
100
AcDbLine
  6
BYLAYER
 10
14
 20
13
 11
14
 21
1
  0
LINE
  5
185
100
AcDbEntity
  8
0
100
AcDbLine
  6
BYLAYER
 10
63
 20
13
 11
63
 21
1
  0
TEXT
  5
186
100
AcDbEntity
  8
0
100
AcDbText
  6
BYLAYER
 10
3
 20
7.72940914028269
 40
3
  1
TEL
  7
Font_0
100
AcDbText
  0
TEXT
  5
187
100
AcDbEntity
  8
0
100
AcDbText
  6
BYLAYER
 10
51
 20
7.91176142535337
 40
3
  1
FAX
  7
Font_0
100
AcDbText
  0
TEXT
  5
188
100
AcDbEntity
  8
0
100
AcDbText
  6
BYLAYER
 10
16.5400336288223
 20
8.09411371042404
 40
3
  1
(04)3322627
  7
Font_0
100
AcDbText
  0
TEXT
  5
189
100
AcDbEntity
  8
0
100
AcDbText
  6
BYLAYER
 10
67
 20
8.09411371042404
 40
3
  1
(04)3322629
  7
Font_0
100
AcDbText
  0
LINE
  5
18A
100
AcDbEntity
  8
0
100
AcDbLine
  6
BYLAYER
 10
1
 20
37
 11
290
 21
37
  0
TEXT
  5
18B
100
AcDbEntity
  8
0
100
AcDbText
  6
BYLAYER
 10
40.6536662502908
 20
8.06055328395253
 40
3
  1
~8
  7
Font_0
100
AcDbText
  0
TEXT
  5
18C
100
AcDbEntity
  8
0
100
AcDbText
  6
BYLAYER
 10
99.7036913346956
 20
32.2639399057443
 40
4
  1
･D ｺﾞ
  7
Font_0
100
AcDbText
  0
TEXT
  5
18D
100
AcDbEntity
  8
0
100
AcDbText
  6
BYLAYER
 10
99.7036913346956
 20
25.6992573518645
 40
4
  1
ｮﾖ ｹ�
  7
Font_0
100
AcDbText
  0
TEXT
  5
18E
100
AcDbEntity
  8
0
100
AcDbText
  6
BYLAYER
 10
99.8861871848885
 20
19.8639838602288
 40
4
  1
ﾃｸ ｹﾏ
  7
Font_0
100
AcDbText
  0
TEXT
  5
18F
100
AcDbEntity
  8
0
100
AcDbText
  6
BYLAYER
 10
99.8861871848885
 20
13.8463581030321
 40
4
  1
ｾ� ｺﾘ
  7
Font_0
100
AcDbText
  0
TEXT
  5
190
100
AcDbEntity
  8
0
100
AcDbText
  6
BYLAYER
 10
100.068683035081
 20
7.82873284267693
 40
4
  1
ｫ~ ｦW
  7
Font_0
100
AcDbText
  0
TEXT
  5
191
100
AcDbEntity
  8
0
100
AcDbText
  6
BYLAYER
 10
100.068683035081
 20
1.99345935104124
 40
4
  1
ｹﾏ ｸｹ
  7
Font_0
100
AcDbText
  0
TEXT
  5
192
100
AcDbEntity
  8
0
100
AcDbText
  6
BYLAYER
 10
146.605123404095
 20
31.8992353746223
 40
4
  1
ｧ� ｽ�
  7
Font_0
100
AcDbText
  0
TEXT
  5
193
100
AcDbEntity
  8
0
100
AcDbText
  6
BYLAYER
 10
146.605123404095
 20
25.8816096174256
 40
4
  1
､� ｨﾒ
  7
Font_0
100
AcDbText
  0
TEXT
  5
194
100
AcDbEntity
  8
0
100
AcDbText
  6
BYLAYER
 10
146.787619254287
 20
20.0463361257899
 40
4
  1
ｼﾆ ｶq
  7
Font_0
100
AcDbText
  0
TEXT
  5
195
100
AcDbEntity
  8
0
100
AcDbText
  6
BYLAYER
 10
146.97011510448
 20
14.0287103685931
 40
4
  1
ｳ� ｦ�
  7
Font_0
100
AcDbText
  0
TEXT
  5
196
100
AcDbEntity
  8
0
100
AcDbText
  6
BYLAYER
 10
146.422627553902
 20
8.01108510823795
 40
4
  1
ｪ揵ｱｳBｲz
  7
Font_0
100
AcDbText
  0
TEXT
  5
197
100
AcDbEntity
  8
0
100
AcDbText
  6
BYLAYER
 10
146.605123404095
 20
2.17581161660226
 40
4
  1
ｻsｹﾏ､魘ﾁ
  7
Font_0
100
AcDbText
  0
TEXT
  5
198
100
AcDbEntity
  8
0
100
AcDbText
  6
BYLAYER
 10
197.77841370095
 20
32.2399819360484
 40
4
  1
､� ｴﾁ
  7
Font_0
100
AcDbText
  0
TEXT
  5
199
100
AcDbEntity
  8
0
100
AcDbText
  6
BYLAYER
 10
215.423238216157
 20
32.0275605512105
 40
4
  1
ｭt
  7
Font_0
100
AcDbText
  0
TEXT
  5
19A
100
AcDbEntity
  8
0
100
AcDbText
  6
BYLAYER
 10
221.375709026727
 20
31.815139655317
 40
4
  1
ｳd
  7
Font_0
100
AcDbText
  0
TEXT
  5
19B
100
AcDbEntity
  8
0
100
AcDbText
  6
BYLAYER
 10
227.328179837297
 20
31.815139655317
 40
4
  1
､H
  7
Font_0
100
AcDbText
  0
TEXT
  5
19C
100
AcDbEntity
  8
0
100
AcDbText
  6
BYLAYER
 10
239.020533541933
 20
32.0275605512105
 40
4
  1
ｧ�
  7
Font_0
100
AcDbText
  0
TEXT
  5
19D
100
AcDbEntity
  8
0
100
AcDbText
  6
BYLAYER
 10
251.98841615305
 20
32.0275605512105
 40
4
  1
ｧ�
  7
Font_0
100
AcDbText
  0
TEXT
  5
19E
100
AcDbEntity
  8
0
100
AcDbText
  6
BYLAYER
 10
264.531122227431
 20
32.0275605512105
 40
4
  1
､ｺ
  7
Font_0
100
AcDbText
  0
TEXT
  5
19F
100
AcDbEntity
  8
0
100
AcDbText
  6
BYLAYER
 10
276.436064552298
 20
31.815139655317
 40
4
  1
ｮe
  7
Font_0
100
AcDbText
  0
TEXT
  5
1A0
100
AcDbEntity
  8
0
100
AcDbText
  6
BYLAYER
 10
23.0468952754036
 20
24.3731292136772
 40
7
  1
ｫﾘｷﾔ､uｷ~ｪﾑ･ｳｭｭ､ｽ･q
  7
Font_0
100
AcDbText
  0
TEXT
  5
1A1
100
AcDbEntity
  8
0
100
AcDbText
  6
BYLAYER
 10
22.2780828500217
 20
15.9228468305838
 40
3
  1
CHIEN YU INDUSTRIAL CO.,LTD.
  7
Font_0
100
AcDbText
  0
CIRCLE
  5
1A2
100
AcDbEntity
  8
0
100
AcDbCircle
  6
BYLAYER
 10
11.1054905349494
 20
25.350263158651
 40
9.36463111331499
  0
CIRCLE
  5
1A3
100
AcDbEntity
  8
0
100
AcDbCircle
  6
BYLAYER
 10
11.1054905349494
 20
25.350263158651
 40
7.62237416200057
  0
ARC
  5
1A4
100
AcDbEntity
  8
0
100
AcDbCircle
  6
BYLAYER
 10
11.1054905349494
 20
25.350263158651
 40
4.41008790801462
100
AcDbArc
 50
90
 51
0
  0
LINE
  5
1A5
100
AcDbEntity
  8
0
100
AcDbLine
  6
BYLAYER
 10
11.1054905349494
 20
29.7603510666656
 11
16.2233703294355
 21
29.7603510666656
  0
LINE
  5
1A6
100
AcDbEntity
  8
0
100
AcDbLine
  6
BYLAYER
 10
15.515578442964
 20
25.350263158651
 11
16.4411524483498
 21
25.350263158651
  0
TEXT
  5
1A7
100
AcDbEntity
  8
0
100
AcDbText
  6
BYLAYER
 10
8.49210581170386
 20
22.8477388856442
 40
5
  1
Y
  7
Font_0
100
AcDbText
  0
ARC
  5
1A8
100
AcDbEntity
  8
0
100
AcDbCircle
  6
BYLAYER
 10
11.5745216067836
 20
33.8983997393573
 40
0.704372460813671
100
AcDbArc
 50
83.8529806316668
 51
239.250071636948
  0
ARC
  5
1A9
100
AcDbEntity
  8
0
100
AcDbCircle
  6
BYLAYER
 10
7.23761506796891
 20
32.9876821284788
 40
0.704372460813671
100
AcDbArc
 50
113.852980631667
 51
269.250071636948
  0
ARC
  5
1AA
100
AcDbEntity
  8
0
100
AcDbCircle
  6
BYLAYER
 10
3.93710263695578
 20
30.0305242723769
 40
0.704372460813671
100
AcDbArc
 50
143.852980631667
 51
299.250071636948
  0
ARC
  5
1AB
100
AcDbEntity
  8
0
100
AcDbCircle
  6
BYLAYER
 10
2.55735395424305
 20
25.8192942304852
 40
0.704372460813671
100
AcDbArc
 50
173.852980631667
 51
329.250071636948
  0
ARC
  5
1AC
100
AcDbEntity
  8
0
100
AcDbCircle
  6
BYLAYER
 10
3.46807156512152
 20
21.4823876916705
 40
0.704372460813671
100
AcDbArc
 50
203.852980631667
 51
359.250071636948
  0
ARC
  5
1AD
100
AcDbEntity
  8
0
100
AcDbCircle
  6
BYLAYER
 10
6.42522942122351
 20
18.1818752606574
 40
0.704372460813671
100
AcDbArc
 50
233.852980631667
 51
29.2500716369476
  0
ARC
  5
1AE
100
AcDbEntity
  8
0
100
AcDbCircle
  6
BYLAYER
 10
10.6364594631151
 20
16.8021265779447
 40
0.704372460813671
100
AcDbArc
 50
263.852980631667
 51
59.2500716369476
  0
ARC
  5
1AF
100
AcDbEntity
  8
0
100
AcDbCircle
  6
BYLAYER
 10
14.9733660019298
 20
17.7128441888231
 40
0.704372460813671
100
AcDbArc
 50
293.852980631667
 51
89.2500716369476
  0
ARC
  5
1B0
100
AcDbEntity
  8
0
100
AcDbCircle
  6
BYLAYER
 10
18.273878432943
 20
20.6700020449251
 40
0.704372460813671
100
AcDbArc
 50
323.852980631667
 51
119.250071636948
  0
ARC
  5
1B1
100
AcDbEntity
  8
0
100
AcDbCircle
  6
BYLAYER
 10
19.6536271156557
 20
24.8812320868167
 40
0.704372460813671
100
AcDbArc
 50
353.852980631667
 51
149.250071636948
  0
ARC
  5
1B2
100
AcDbEntity
  8
0
100
AcDbCircle
  6
BYLAYER
 10
18.7429095047772
 20
29.2181386256314
 40
0.704372460813671
100
AcDbArc
 50
23.8529806316668
 51
179.250071636948
  0
ARC
  5
1B3
100
AcDbEntity
  8
0
100
AcDbCircle
  6
BYLAYER
 10
15.7857516486752
 20
32.5186510566446
 40
0.704372460813671
100
AcDbArc
 50
53.8529806316668
 51
209.250071636948
  0
LINE
  5
1B4
100
AcDbEntity
  8
0
100
AcDbLine
  6
BYLAYER
 10
1
 20
201
 11
290
 21
201
  0
LINE
  5
1B5
100
AcDbEntity
  8
0
100
AcDbLine
  6
BYLAYER
 10
290
 20
201
 11
290
 21
1
  0
ENDBLK
  5
1B6
100
AcDbEntity
  8
0
 67
     1
100
AcDbBlockEnd
  0
BLOCK
  5
1B7
100
AcDbEntity
  8
0
100
AcDbBlockBegin
  2
A4
 70
    0
 10
0
 20
0
 30
0.0
  3
A4
  1

  0
TEXT
  5
1B8
100
AcDbEntity
  8
0
100
AcDbText
  6
BYLAYER
 10
121.243373757434
 20
22.64898098486
 40
4.8
  1
ｿ� ｪ｢ ｵo
  7
Font_0
100
AcDbText
  0
TEXT
  5
1B9
100
AcDbEntity
  8
0
100
AcDbText
  6
BYLAYER
 10
175.643149157513
 20
16.5268633951276
 40
4.8
  1
M/M
  7
Font_0
100
AcDbText
  0
INSERT
  5
1BA
100
AcDbEntity
  8
0
100
AcDbBlockReference
  6
CONTINUOUS
  2
0
 10
2.77414193339833
 20
3.05830958210858
 30
0.0
  0
ENDBLK
  5
1BB
100
AcDbEntity
  8
0
 67
     1
100
AcDbBlockEnd
  0
BLOCK
  5
1BC
100
AcDbEntity
  8
0
100
AcDbBlockBegin
  2
NOTE
 70
    0
 10
0
 20
0
 30
0.0
  3
NOTE
  1

  0
LINE
  5
1BD
100
AcDbEntity
  8
0
100
AcDbLine
  6
BYLAYER
 10
0
 20
48
 11
244.5
 21
48
  0
LINE
  5
1BE
100
AcDbEntity
  8
0
100
AcDbLine
  6
BYLAYER
 10
0
 20
42
 11
244.5
 21
42
  0
LINE
  5
1BF
100
AcDbEntity
  8
0
100
AcDbLine
  6
BYLAYER
 10
0
 20
36
 11
244.5
 21
36
  0
LINE
  5
1C0
100
AcDbEntity
  8
0
100
AcDbLine
  6
BYLAYER
 10
0
 20
30
 11
244.5
 21
30
  0
LINE
  5
1C1
100
AcDbEntity
  8
0
100
AcDbLine
  6
BYLAYER
 10
0
 20
24
 11
244.5
 21
24
  0
LINE
  5
1C2
100
AcDbEntity
  8
0
100
AcDbLine
  6
BYLAYER
 10
0
 20
18
 11
244.5
 21
18
  0
LINE
  5
1C3
100
AcDbEntity
  8
0
100
AcDbLine
  6
BYLAYER
 10
0
 20
12
 11
244.5
 21
12
  0
LINE
  5
1C4
100
AcDbEntity
  8
0
100
AcDbLine
  6
BYLAYER
 10
0
 20
6
 11
244.5
 21
6
  0
LINE
  5
1C5
100
AcDbEntity
  8
0
100
AcDbLine
  6
BYLAYER
 62
3
 10
196.307106781187
 20
0.707106781186553
 11
211.192893218814
 21
0.707106781186553
  0
LINE
  5
1C6
100
AcDbEntity
  8
0
100
AcDbLine
  6
BYLAYER
 62
3
 10
196.307106781187
 20
6.70710678118655
 11
211.192893218814
 21
6.70710678118655
  0
LINE
  5
1C7
100
AcDbEntity
  8
0
100
AcDbLine
  6
BYLAYER
 62
3
 10
196.307106781187
 20
12.7071067811866
 11
211.192893218814
 21
12.7071067811866
  0
LINE
  5
1C8
100
AcDbEntity
  8
0
100
AcDbLine
  6
BYLAYER
 62
3
 10
196.307106781187
 20
18.7071067811866
 11
211.192893218814
 21
18.7071067811866
  0
LINE
  5
1C9
100
AcDbEntity
  8
0
100
AcDbLine
  6
BYLAYER
 62
3
 10
196.307106781187
 20
24.7071067811866
 11
211.192893218814
 21
24.7071067811866
  0
LINE
  5
1CA
100
AcDbEntity
  8
0
100
AcDbLine
  6
BYLAYER
 62
3
 10
196.307106781187
 20
30.7071067811865
 11
211.192893218814
 21
30.7071067811865
  0
LINE
  5
1CB
100
AcDbEntity
  8
0
100
AcDbLine
  6
BYLAYER
 62
3
 10
196.307106781187
 20
36.7071067811866
 11
211.192893218814
 21
36.7071067811866
  0
LINE
  5
1CC
100
AcDbEntity
  8
0
100
AcDbLine
  6
BYLAYER
 62
3
 10
65.9071067811866
 20
0.707106781186553
 11
80.7928932188135
 21
0.707106781186553
  0
LINE
  5
1CD
100
AcDbEntity
  8
0
100
AcDbLine
  6
BYLAYER
 62
3
 10
65.9071067811866
 20
6.70710678118655
 11
80.7928932188135
 21
6.70710678118655
  0
LINE
  5
1CE
100
AcDbEntity
  8
0
100
AcDbLine
  6
BYLAYER
 62
3
 10
65.9071067811866
 20
12.7071067811866
 11
80.7928932188135
 21
12.7071067811866
  0
LINE
  5
1CF
100
AcDbEntity
  8
0
100
AcDbLine
  6
BYLAYER
 62
3
 10
65.9071067811866
 20
18.7071067811866
 11
80.7928932188135
 21
18.7071067811866
  0
LINE
  5
1D0
100
AcDbEntity
  8
0
100
AcDbLine
  6
BYLAYER
 62
3
 10
65.9071067811866
 20
24.7071067811866
 11
80.7928932188135
 21
24.7071067811866
  0
LINE
  5
1D1
100
AcDbEntity
  8
0
100
AcDbLine
  6
BYLAYER
 62
3
 10
65.9071067811866
 20
30.7071067811865
 11
80.7928932188135
 21
30.7071067811865
  0
LINE
  5
1D2
100
AcDbEntity
  8
0
100
AcDbLine
  6
BYLAYER
 62
3
 10
65.9071067811866
 20
36.7071067811866
 11
80.7928932188135
 21
36.7071067811866
  0
LINE
  5
1D3
100
AcDbEntity
  8
0
100
AcDbLine
  6
BYLAYER
 10
65.2
 20
48
 11
65.2
 21
0
  0
LINE
  5
1D4
100
AcDbEntity
  8
0
100
AcDbLine
  6
BYLAYER
 10
32.6
 20
48
 11
32.6
 21
0
  0
LINE
  5
1D5
100
AcDbEntity
  8
0
100
AcDbLine
  6
BYLAYER
 10
16.3
 20
48
 11
16.3
 21
0
  0
LINE
  5
1D6
100
AcDbEntity
  8
0
100
AcDbLine
  6
BYLAYER
 10
48.9
 20
48
 11
48.9
 21
0
  0
LINE
  5
1D7
100
AcDbEntity
  8
0
100
AcDbLine
  6
BYLAYER
 62
3
 10
0.707106781186548
 20
0.707106781186553
 11
15.5928932188134
 21
0.707106781186553
  0
LINE
  5
1D8
100
AcDbEntity
  8
0
100
AcDbLine
  6
BYLAYER
 62
3
 10
0.707106781186548
 20
6.70710678118655
 11
15.5928932188134
 21
6.70710678118655
  0
LINE
  5
1D9
100
AcDbEntity
  8
0
100
AcDbLine
  6
BYLAYER
 62
3
 10
0.707106781186548
 20
12.7071067811866
 11
15.5928932188134
 21
12.7071067811866
  0
LINE
  5
1DA
100
AcDbEntity
  8
0
100
AcDbLine
  6
BYLAYER
 62
3
 10
0.707106781186548
 20
18.7071067811866
 11
15.5928932188134
 21
18.7071067811866
  0
LINE
  5
1DB
100
AcDbEntity
  8
0
100
AcDbLine
  6
BYLAYER
 62
3
 10
33.3071067811865
 20
0.707106781186553
 11
48.1928932188135
 21
0.707106781186553
  0
LINE
  5
1DC
100
AcDbEntity
  8
0
100
AcDbLine
  6
BYLAYER
 62
3
 10
33.3071067811865
 20
6.70710678118655
 11
48.1928932188135
 21
6.70710678118655
  0
LINE
  5
1DD
100
AcDbEntity
  8
0
100
AcDbLine
  6
BYLAYER
 62
3
 10
33.3071067811865
 20
12.7071067811866
 11
48.1928932188135
 21
12.7071067811866
  0
LINE
  5
1DE
100
AcDbEntity
  8
0
100
AcDbLine
  6
BYLAYER
 62
3
 10
33.3071067811865
 20
18.7071067811866
 11
48.1928932188135
 21
18.7071067811866
  0
LINE
  5
1DF
100
AcDbEntity
  8
0
100
AcDbLine
  6
BYLAYER
 62
3
 10
17.0071067811865
 20
0.707106781186553
 11
31.8928932188135
 21
0.707106781186553
  0
LINE
  5
1E0
100
AcDbEntity
  8
0
100
AcDbLine
  6
BYLAYER
 62
3
 10
17.0071067811865
 20
6.70710678118655
 11
31.8928932188135
 21
6.70710678118655
  0
LINE
  5
1E1
100
AcDbEntity
  8
0
100
AcDbLine
  6
BYLAYER
 62
3
 10
17.0071067811865
 20
12.7071067811866
 11
31.8928932188135
 21
12.7071067811866
  0
LINE
  5
1E2
100
AcDbEntity
  8
0
100
AcDbLine
  6
BYLAYER
 62
3
 10
17.0071067811865
 20
18.7071067811866
 11
31.8928932188135
 21
18.7071067811866
  0
LINE
  5
1E3
100
AcDbEntity
  8
0
100
AcDbLine
  6
BYLAYER
 62
3
 10
49.6071067811866
 20
0.707106781186553
 11
64.4928932188135
 21
0.707106781186553
  0
LINE
  5
1E4
100
AcDbEntity
  8
0
100
AcDbLine
  6
BYLAYER
 62
3
 10
49.6071067811866
 20
6.70710678118655
 11
64.4928932188135
 21
6.70710678118655
  0
LINE
  5
1E5
100
AcDbEntity
  8
0
100
AcDbLine
  6
BYLAYER
 62
3
 10
49.6071067811866
 20
12.7071067811866
 11
64.4928932188135
 21
12.7071067811866
  0
LINE
  5
1E6
100
AcDbEntity
  8
0
100
AcDbLine
  6
BYLAYER
 62
3
 10
49.6071067811866
 20
18.7071067811866
 11
64.4928932188135
 21
18.7071067811866
  0
LINE
  5
1E7
100
AcDbEntity
  8
0
100
AcDbLine
  6
BYLAYER
 62
3
 10
0.707106781186548
 20
24.7071067811866
 11
15.5928932188134
 21
24.7071067811866
  0
LINE
  5
1E8
100
AcDbEntity
  8
0
100
AcDbLine
  6
BYLAYER
 62
3
 10
0.707106781186548
 20
30.7071067811865
 11
15.5928932188134
 21
30.7071067811865
  0
LINE
  5
1E9
100
AcDbEntity
  8
0
100
AcDbLine
  6
BYLAYER
 62
3
 10
0.707106781186548
 20
36.7071067811866
 11
15.5928932188134
 21
36.7071067811866
  0
TEXT
  5
1EA
100
AcDbEntity
  8
0
100
AcDbText
  6
BYLAYER
 10
5.67126064773777
 20
43.5
 40
3
  1
､u･O
  7
Font_0
100
AcDbText
  0
LINE
  5
1EB
100
AcDbEntity
  8
0
100
AcDbLine
  6
BYLAYER
 62
3
 10
33.3071067811865
 20
24.7071067811866
 11
48.1928932188135
 21
24.7071067811866
  0
LINE
  5
1EC
100
AcDbEntity
  8
0
100
AcDbLine
  6
BYLAYER
 62
3
 10
33.3071067811865
 20
30.7071067811865
 11
48.1928932188135
 21
30.7071067811865
  0
LINE
  5
1ED
100
AcDbEntity
  8
0
100
AcDbLine
  6
BYLAYER
 62
3
 10
33.3071067811865
 20
36.7071067811866
 11
48.1928932188135
 21
36.7071067811866
  0
LINE
  5
1EE
100
AcDbEntity
  8
0
100
AcDbLine
  6
BYLAYER
 62
3
 10
17.0071067811865
 20
24.7071067811866
 11
31.8928932188135
 21
24.7071067811866
  0
LINE
  5
1EF
100
AcDbEntity
  8
0
100
AcDbLine
  6
BYLAYER
 62
3
 10
17.0071067811865
 20
30.7071067811865
 11
31.8928932188135
 21
30.7071067811865
  0
LINE
  5
1F0
100
AcDbEntity
  8
0
100
AcDbLine
  6
BYLAYER
 62
3
 10
17.0071067811865
 20
36.7071067811866
 11
31.8928932188135
 21
36.7071067811866
  0
TEXT
  5
1F1
100
AcDbEntity
  8
0
100
AcDbText
  6
BYLAYER
 10
21.3781148184937
 20
43.5
 40
3
  1
ｽsｸｹ
  7
Font_0
100
AcDbText
  0
TEXT
  5
1F2
100
AcDbEntity
  8
0
100
AcDbText
  6
BYLAYER
 10
39.5
 20
43.5
 40
3
  1
A
  7
Font_0
100
AcDbText
  0
LINE
  5
1F3
100
AcDbEntity
  8
0
100
AcDbLine
  6
BYLAYER
 62
3
 10
49.6071067811866
 20
24.7071067811866
 11
64.4928932188135
 21
24.7071067811866
  0
LINE
  5
1F4
100
AcDbEntity
  8
0
100
AcDbLine
  6
BYLAYER
 62
3
 10
49.6071067811866
 20
30.7071067811865
 11
64.4928932188135
 21
30.7071067811865
  0
LINE
  5
1F5
100
AcDbEntity
  8
0
100
AcDbLine
  6
BYLAYER
 62
3
 10
49.6071067811866
 20
36.7071067811866
 11
64.4928932188135
 21
36.7071067811866
  0
TEXT
  5
1F6
100
AcDbEntity
  8
0
100
AcDbText
  6
BYLAYER
 10
56
 20
43.5
 40
3
  1
B
  7
Font_0
100
AcDbText
  0
TEXT
  5
1F7
100
AcDbEntity
  8
0
100
AcDbText
  6
BYLAYER
 10
72.5
 20
43.5
 40
3
  1
C
  7
Font_0
100
AcDbText
  0
LINE
  5
1F8
100
AcDbEntity
  8
0
100
AcDbLine
  6
BYLAYER
 10
163
 20
48
 11
163
 21
0
  0
LINE
  5
1F9
100
AcDbEntity
  8
0
100
AcDbLine
  6
BYLAYER
 10
146.7
 20
48
 11
146.7
 21
0
  0
LINE
  5
1FA
100
AcDbEntity
  8
0
100
AcDbLine
  6
BYLAYER
 10
179.3
 20
48
 11
179.3
 21
0
  0
LINE
  5
1FB
100
AcDbEntity
  8
0
100
AcDbLine
  6
BYLAYER
 10
195.6
 20
48
 11
195.6
 21
0
  0
LINE
  5
1FC
100
AcDbEntity
  8
0
100
AcDbLine
  6
BYLAYER
 10
81.5
 20
48
 11
81.5
 21
0
  0
LINE
  5
1FD
100
AcDbEntity
  8
0
100
AcDbLine
  6
BYLAYER
 10
114.1
 20
48
 11
114.1
 21
0
  0
LINE
  5
1FE
100
AcDbEntity
  8
0
100
AcDbLine
  6
BYLAYER
 10
97.8
 20
48
 11
97.8
 21
0
  0
LINE
  5
1FF
100
AcDbEntity
  8
0
100
AcDbLine
  6
BYLAYER
 10
130.4
 20
48
 11
130.4
 21
0
  0
LINE
  5
200
100
AcDbEntity
  8
0
100
AcDbLine
  6
BYLAYER
 62
3
 10
131.107106781186
 20
0.707106781186553
 11
145.992893218813
 21
0.707106781186553
  0
LINE
  5
201
100
AcDbEntity
  8
0
100
AcDbLine
  6
BYLAYER
 62
3
 10
131.107106781186
 20
6.70710678118655
 11
145.992893218813
 21
6.70710678118655
  0
LINE
  5
202
100
AcDbEntity
  8
0
100
AcDbLine
  6
BYLAYER
 62
3
 10
131.107106781186
 20
12.7071067811866
 11
145.992893218813
 21
12.7071067811866
  0
LINE
  5
203
100
AcDbEntity
  8
0
100
AcDbLine
  6
BYLAYER
 62
3
 10
131.107106781186
 20
18.7071067811866
 11
145.992893218813
 21
18.7071067811866
  0
LINE
  5
204
100
AcDbEntity
  8
0
100
AcDbLine
  6
BYLAYER
 62
3
 10
98.5071067811866
 20
0.707106781186553
 11
113.392893218813
 21
0.707106781186553
  0
LINE
  5
205
100
AcDbEntity
  8
0
100
AcDbLine
  6
BYLAYER
 62
3
 10
98.5071067811866
 20
6.70710678118655
 11
113.392893218813
 21
6.70710678118655
  0
LINE
  5
206
100
AcDbEntity
  8
0
100
AcDbLine
  6
BYLAYER
 62
3
 10
98.5071067811866
 20
12.7071067811866
 11
113.392893218813
 21
12.7071067811866
  0
LINE
  5
207
100
AcDbEntity
  8
0
100
AcDbLine
  6
BYLAYER
 62
3
 10
98.5071067811866
 20
18.7071067811866
 11
113.392893218813
 21
18.7071067811866
  0
LINE
  5
208
100
AcDbEntity
  8
0
100
AcDbLine
  6
BYLAYER
 62
3
 10
82.2071067811865
 20
0.707106781186553
 11
97.0928932188135
 21
0.707106781186553
  0
LINE
  5
209
100
AcDbEntity
  8
0
100
AcDbLine
  6
BYLAYER
 62
3
 10
82.2071067811865
 20
6.70710678118655
 11
97.0928932188135
 21
6.70710678118655
  0
LINE
  5
20A
100
AcDbEntity
  8
0
100
AcDbLine
  6
BYLAYER
 62
3
 10
82.2071067811865
 20
12.7071067811866
 11
97.0928932188135
 21
12.7071067811866
  0
LINE
  5
20B
100
AcDbEntity
  8
0
100
AcDbLine
  6
BYLAYER
 62
3
 10
82.2071067811865
 20
18.7071067811866
 11
97.0928932188135
 21
18.7071067811866
  0
LINE
  5
20C
100
AcDbEntity
  8
0
100
AcDbLine
  6
BYLAYER
 62
3
 10
114.807106781187
 20
0.707106781186553
 11
129.692893218813
 21
0.707106781186553
  0
LINE
  5
20D
100
AcDbEntity
  8
0
100
AcDbLine
  6
BYLAYER
 62
3
 10
114.807106781187
 20
6.70710678118655
 11
129.692893218813
 21
6.70710678118655
  0
LINE
  5
20E
100
AcDbEntity
  8
0
100
AcDbLine
  6
BYLAYER
 62
3
 10
114.807106781187
 20
12.7071067811866
 11
129.692893218813
 21
12.7071067811866
  0
LINE
  5
20F
100
AcDbEntity
  8
0
100
AcDbLine
  6
BYLAYER
 62
3
 10
114.807106781187
 20
18.7071067811866
 11
129.692893218813
 21
18.7071067811866
  0
LINE
  5
210
100
AcDbEntity
  8
0
100
AcDbLine
  6
BYLAYER
 62
3
 10
163.707106781186
 20
0.707106781186553
 11
178.592893218813
 21
0.707106781186553
  0
LINE
  5
211
100
AcDbEntity
  8
0
100
AcDbLine
  6
BYLAYER
 62
3
 10
163.707106781186
 20
6.70710678118655
 11
178.592893218813
 21
6.70710678118655
  0
LINE
  5
212
100
AcDbEntity
  8
0
100
AcDbLine
  6
BYLAYER
 62
3
 10
163.707106781186
 20
12.7071067811866
 11
178.592893218813
 21
12.7071067811866
  0
LINE
  5
213
100
AcDbEntity
  8
0
100
AcDbLine
  6
BYLAYER
 62
3
 10
163.707106781186
 20
18.7071067811866
 11
178.592893218813
 21
18.7071067811866
  0
LINE
  5
214
100
AcDbEntity
  8
0
100
AcDbLine
  6
BYLAYER
 62
3
 10
147.407106781187
 20
0.707106781186553
 11
162.292893218814
 21
0.707106781186553
  0
LINE
  5
215
100
AcDbEntity
  8
0
100
AcDbLine
  6
BYLAYER
 62
3
 10
147.407106781187
 20
6.70710678118655
 11
162.292893218814
 21
6.70710678118655
  0
LINE
  5
216
100
AcDbEntity
  8
0
100
AcDbLine
  6
BYLAYER
 62
3
 10
147.407106781187
 20
12.7071067811866
 11
162.292893218814
 21
12.7071067811866
  0
LINE
  5
217
100
AcDbEntity
  8
0
100
AcDbLine
  6
BYLAYER
 62
3
 10
147.407106781187
 20
18.7071067811866
 11
162.292893218814
 21
18.7071067811866
  0
LINE
  5
218
100
AcDbEntity
  8
0
100
AcDbLine
  6
BYLAYER
 62
3
 10
180.007106781186
 20
0.707106781186553
 11
194.892893218813
 21
0.707106781186553
  0
LINE
  5
219
100
AcDbEntity
  8
0
100
AcDbLine
  6
BYLAYER
 62
3
 10
180.007106781186
 20
6.70710678118655
 11
194.892893218813
 21
6.70710678118655
  0
LINE
  5
21A
100
AcDbEntity
  8
0
100
AcDbLine
  6
BYLAYER
 62
3
 10
180.007106781186
 20
12.7071067811866
 11
194.892893218813
 21
12.7071067811866
  0
LINE
  5
21B
100
AcDbEntity
  8
0
100
AcDbLine
  6
BYLAYER
 62
3
 10
180.007106781186
 20
18.7071067811866
 11
194.892893218813
 21
18.7071067811866
  0
LINE
  5
21C
100
AcDbEntity
  8
0
100
AcDbLine
  6
BYLAYER
 62
3
 10
131.107106781186
 20
24.7071067811866
 11
145.992893218813
 21
24.7071067811866
  0
LINE
  5
21D
100
AcDbEntity
  8
0
100
AcDbLine
  6
BYLAYER
 62
3
 10
131.107106781186
 20
30.7071067811865
 11
145.992893218813
 21
30.7071067811865
  0
LINE
  5
21E
100
AcDbEntity
  8
0
100
AcDbLine
  6
BYLAYER
 62
3
 10
131.107106781186
 20
36.7071067811866
 11
145.992893218813
 21
36.7071067811866
  0
LINE
  5
21F
100
AcDbEntity
  8
0
100
AcDbLine
  6
BYLAYER
 62
3
 10
98.5071067811866
 20
24.7071067811866
 11
113.392893218813
 21
24.7071067811866
  0
LINE
  5
220
100
AcDbEntity
  8
0
100
AcDbLine
  6
BYLAYER
 62
3
 10
98.5071067811866
 20
30.7071067811865
 11
113.392893218813
 21
30.7071067811865
  0
LINE
  5
221
100
AcDbEntity
  8
0
100
AcDbLine
  6
BYLAYER
 62
3
 10
98.5071067811866
 20
36.7071067811866
 11
113.392893218813
 21
36.7071067811866
  0
LINE
  5
222
100
AcDbEntity
  8
0
100
AcDbLine
  6
BYLAYER
 62
3
 10
82.2071067811865
 20
24.7071067811866
 11
97.0928932188135
 21
24.7071067811866
  0
LINE
  5
223
100
AcDbEntity
  8
0
100
AcDbLine
  6
BYLAYER
 62
3
 10
82.2071067811865
 20
30.7071067811865
 11
97.0928932188135
 21
30.7071067811865
  0
LINE
  5
224
100
AcDbEntity
  8
0
100
AcDbLine
  6
BYLAYER
 62
3
 10
82.2071067811865
 20
36.7071067811866
 11
97.0928932188135
 21
36.7071067811866
  0
TEXT
  5
225
100
AcDbEntity
  8
0
100
AcDbText
  6
BYLAYER
 10
89
 20
43.5
 40
3
  1
D
  7
Font_0
100
AcDbText
  0
TEXT
  5
226
100
AcDbEntity
  8
0
100
AcDbText
  6
BYLAYER
 10
105.3
 20
43.5
 40
3
  1
E
  7
Font_0
100
AcDbText
  0
LINE
  5
227
100
AcDbEntity
  8
0
100
AcDbLine
  6
BYLAYER
 62
3
 10
114.807106781187
 20
24.7071067811866
 11
129.692893218813
 21
24.7071067811866
  0
LINE
  5
228
100
AcDbEntity
  8
0
100
AcDbLine
  6
BYLAYER
 62
3
 10
114.807106781187
 20
30.7071067811865
 11
129.692893218813
 21
30.7071067811865
  0
LINE
  5
229
100
AcDbEntity
  8
0
100
AcDbLine
  6
BYLAYER
 62
3
 10
114.807106781187
 20
36.7071067811866
 11
129.692893218813
 21
36.7071067811866
  0
TEXT
  5
22A
100
AcDbEntity
  8
0
100
AcDbText
  6
BYLAYER
 10
121.8
 20
43.5
 40
3
  1
F
  7
Font_0
100
AcDbText
  0
TEXT
  5
22B
100
AcDbEntity
  8
0
100
AcDbText
  6
BYLAYER
 10
137.8
 20
43.5
 40
3
  1
G
  7
Font_0
100
AcDbText
  0
LINE
  5
22C
100
AcDbEntity
  8
0
100
AcDbLine
  6
BYLAYER
 62
3
 10
163.707106781186
 20
24.7071067811866
 11
178.592893218813
 21
24.7071067811866
  0
LINE
  5
22D
100
AcDbEntity
  8
0
100
AcDbLine
  6
BYLAYER
 62
3
 10
163.707106781186
 20
30.7071067811865
 11
178.592893218813
 21
30.7071067811865
  0
LINE
  5
22E
100
AcDbEntity
  8
0
100
AcDbLine
  6
BYLAYER
 62
3
 10
163.707106781186
 20
36.7071067811866
 11
178.592893218813
 21
36.7071067811866
  0
LINE
  5
22F
100
AcDbEntity
  8
0
100
AcDbLine
  6
BYLAYER
 62
3
 10
147.407106781187
 20
24.7071067811866
 11
162.292893218814
 21
24.7071067811866
  0
LINE
  5
230
100
AcDbEntity
  8
0
100
AcDbLine
  6
BYLAYER
 62
3
 10
147.407106781187
 20
30.7071067811865
 11
162.292893218814
 21
30.7071067811865
  0
LINE
  5
231
100
AcDbEntity
  8
0
100
AcDbLine
  6
BYLAYER
 62
3
 10
147.407106781187
 20
36.7071067811866
 11
162.292893218814
 21
36.7071067811866
  0
TEXT
  5
232
100
AcDbEntity
  8
0
100
AcDbText
  6
BYLAYER
 10
153.5
 20
43.5
 40
3
  1
H
  7
Font_0
100
AcDbText
  0
TEXT
  5
233
100
AcDbEntity
  8
0
100
AcDbText
  6
BYLAYER
 10
171.5
 20
43.5
 40
3
  1
I
  7
Font_0
100
AcDbText
  0
LINE
  5
234
100
AcDbEntity
  8
0
100
AcDbLine
  6
BYLAYER
 62
3
 10
180.007106781186
 20
24.7071067811866
 11
194.892893218813
 21
24.7071067811866
  0
LINE
  5
235
100
AcDbEntity
  8
0
100
AcDbLine
  6
BYLAYER
 62
3
 10
180.007106781186
 20
30.7071067811865
 11
194.892893218813
 21
30.7071067811865
  0
LINE
  5
236
100
AcDbEntity
  8
0
100
AcDbLine
  6
BYLAYER
 62
3
 10
180.007106781186
 20
36.7071067811866
 11
194.892893218813
 21
36.7071067811866
  0
TEXT
  5
237
100
AcDbEntity
  8
0
100
AcDbText
  6
BYLAYER
 10
186.6
 20
43.5
 40
3
  1
J
  7
Font_0
100
AcDbText
  0
TEXT
  5
238
100
AcDbEntity
  8
0
100
AcDbText
  6
BYLAYER
 10
202.5
 20
43.5
 40
3
  1
K
  7
Font_0
100
AcDbText
  0
LINE
  5
239
100
AcDbEntity
  8
0
100
AcDbLine
  6
BYLAYER
 10
244.5
 20
48
 11
244.5
 21
0
  0
LINE
  5
23A
100
AcDbEntity
  8
0
100
AcDbLine
  6
BYLAYER
 10
211.9
 20
48
 11
211.9
 21
0
  0
LINE
  5
23B
100
AcDbEntity
  8
0
100
AcDbLine
  6
BYLAYER
 10
228.2
 20
48
 11
228.2
 21
0
  0
LINE
  5
23C
100
AcDbEntity
  8
0
100
AcDbLine
  6
BYLAYER
 62
3
 10
228.907106781187
 20
0.707106781186553
 11
243.792893218814
 21
0.707106781186553
  0
LINE
  5
23D
100
AcDbEntity
  8
0
100
AcDbLine
  6
BYLAYER
 62
3
 10
228.907106781187
 20
6.70710678118655
 11
243.792893218814
 21
6.70710678118655
  0
LINE
  5
23E
100
AcDbEntity
  8
0
100
AcDbLine
  6
BYLAYER
 62
3
 10
228.907106781187
 20
12.7071067811866
 11
243.792893218814
 21
12.7071067811866
  0
LINE
  5
23F
100
AcDbEntity
  8
0
100
AcDbLine
  6
BYLAYER
 62
3
 10
228.907106781187
 20
18.7071067811866
 11
243.792893218814
 21
18.7071067811866
  0
LINE
  5
240
100
AcDbEntity
  8
0
100
AcDbLine
  6
BYLAYER
 62
3
 10
212.607106781186
 20
0.707106781186553
 11
227.492893218814
 21
0.707106781186553
  0
LINE
  5
241
100
AcDbEntity
  8
0
100
AcDbLine
  6
BYLAYER
 62
3
 10
212.607106781186
 20
6.70710678118655
 11
227.492893218814
 21
6.70710678118655
  0
LINE
  5
242
100
AcDbEntity
  8
0
100
AcDbLine
  6
BYLAYER
 62
3
 10
212.607106781186
 20
12.7071067811866
 11
227.492893218814
 21
12.7071067811866
  0
LINE
  5
243
100
AcDbEntity
  8
0
100
AcDbLine
  6
BYLAYER
 62
3
 10
212.607106781186
 20
18.7071067811866
 11
227.492893218814
 21
18.7071067811866
  0
LINE
  5
244
100
AcDbEntity
  8
0
100
AcDbLine
  6
BYLAYER
 62
3
 10
228.907106781187
 20
24.7071067811866
 11
243.792893218814
 21
24.7071067811866
  0
LINE
  5
245
100
AcDbEntity
  8
0
100
AcDbLine
  6
BYLAYER
 62
3
 10
228.907106781187
 20
30.7071067811865
 11
243.792893218814
 21
30.7071067811865
  0
LINE
  5
246
100
AcDbEntity
  8
0
100
AcDbLine
  6
BYLAYER
 62
3
 10
228.907106781187
 20
36.7071067811866
 11
243.792893218814
 21
36.7071067811866
  0
LINE
  5
247
100
AcDbEntity
  8
0
100
AcDbLine
  6
BYLAYER
 62
3
 10
212.607106781186
 20
24.7071067811866
 11
227.492893218814
 21
24.7071067811866
  0
LINE
  5
248
100
AcDbEntity
  8
0
100
AcDbLine
  6
BYLAYER
 62
3
 10
212.607106781186
 20
30.7071067811865
 11
227.492893218814
 21
30.7071067811865
  0
LINE
  5
249
100
AcDbEntity
  8
0
100
AcDbLine
  6
BYLAYER
 62
3
 10
212.607106781186
 20
36.7071067811866
 11
227.492893218814
 21
36.7071067811866
  0
TEXT
  5
24A
100
AcDbEntity
  8
0
100
AcDbText
  6
BYLAYER
 10
219
 20
43.5
 40
3
  1
L
  7
Font_0
100
AcDbText
  0
TEXT
  5
24B
100
AcDbEntity
  8
0
100
AcDbText
  6
BYLAYER
 10
233.270544856686
 20
43.5
 40
3
  1
ｫﾈ､�
  7
Font_0
100
AcDbText
  0
ENDBLK
  5
24C
100
AcDbEntity
  8
0
 67
     1
100
AcDbBlockEnd
  0
BLOCK
  5
24D
100
AcDbEntity
  8
0
100
AcDbBlockBegin
  2
BASE
 70
    0
 10
0
 20
0
 30
0.0
  3
BASE
  1

  0
LINE
  5
24E
100
AcDbEntity
  8
0
100
AcDbLine
  6
BYLAYER
 10
0
 20
36
 11
278.4
 21
36
  0
LINE
  5
24F
100
AcDbEntity
  8
0
100
AcDbLine
  6
BYLAYER
 10
0
 20
12
 11
278.4
 21
12
  0
LINE
  5
250
100
AcDbEntity
  8
0
100
AcDbLine
  6
BYLAYER
 10
0
 20
6
 11
278.4
 21
6
  0
LINE
  5
251
100
AcDbEntity
  8
0
100
AcDbLine
  6
BYLAYER
 10
0
 20
0
 11
278.4
 21
0
  0
LINE
  5
252
100
AcDbEntity
  8
0
100
AcDbLine
  6
BYLAYER
 10
278.4
 20
186
 11
0
 21
186
  0
LINE
  5
253
100
AcDbEntity
  8
0
100
AcDbLine
  6
BYLAYER
 10
96.85
 20
30
 11
278.4
 21
30
  0
LINE
  5
254
100
AcDbEntity
  8
0
100
AcDbLine
  6
BYLAYER
 10
96.85
 20
24
 11
278.4
 21
24
  0
LINE
  5
255
100
AcDbEntity
  8
0
100
AcDbLine
  6
BYLAYER
 10
96.85
 20
18
 11
278.4
 21
18
  0
LINE
  5
256
100
AcDbEntity
  8
0
100
AcDbLine
  6
BYLAYER
 10
0
 20
0
 11
0
 21
186
  0
TEXT
  5
257
100
AcDbEntity
  8
0
100
AcDbText
  6
BYLAYER
 10
22.1680110084321
 20
15.7553550725962
 40
2.8
  1
CAM YORK INDUSTRIAL CO.,LTD.
  7
Font_0
100
AcDbText
  0
TEXT
  5
258
100
AcDbEntity
  8
0
100
AcDbText
  6
BYLAYER
 10
22.0468952754036
 20
26
 40
7
  1
ｫﾘｷﾔ､uｷ~ｪﾑ･ｳｭｭ､ｽ･q
  7
Font_0
100
AcDbText
  0
TEXT
  5
259
100
AcDbEntity
  8
0
100
AcDbText
  6
BYLAYER
 10
63.8643398403977
 20
7.09411371042404
 40
2.8
  1
(04)3322629
  7
Font_0
100
AcDbText
  0
LINE
  5
25A
100
AcDbEntity
  8
0
100
AcDbLine
  6
BYLAYER
 10
10.1054905349494
 20
28.7603510666656
 11
15.2233703294355
 21
28.7603510666656
  0
CIRCLE
  5
25B
100
AcDbEntity
  8
0
100
AcDbCircle
  6
BYLAYER
 10
10.1054905349494
 20
24.350263158651
 40
9.36463111331499
  0
CIRCLE
  5
25C
100
AcDbEntity
  8
0
100
AcDbCircle
  6
BYLAYER
 10
10.1054905349494
 20
24.350263158651
 40
7.62237416200057
  0
ARC
  5
25D
100
AcDbEntity
  8
0
100
AcDbCircle
  6
BYLAYER
 10
10.1054905349494
 20
24.350263158651
 40
4.41008790801462
100
AcDbArc
 50
90
 51
0
  0
LINE
  5
25E
100
AcDbEntity
  8
0
100
AcDbLine
  6
BYLAYER
 10
13
 20
12
 11
13
 21
0
  0
TEXT
  5
25F
100
AcDbEntity
  8
0
100
AcDbText
  6
BYLAYER
 10
2.6
 20
7.3
 40
3
  1
TEL
  7
Font_0
100
AcDbText
  0
TEXT
  5
260
100
AcDbEntity
  8
0
100
AcDbText
  6
BYLAYER
 10
3.5
 20
1.5
 40
3
  1
ｳﾆｵ�
  7
Font_0
 72
1
 11
6.5
 21
3
100
AcDbText
 73
2
  0
ARC
  5
261
100
AcDbEntity
  8
0
100
AcDbCircle
  6
BYLAYER
 10
10.5745216067836
 20
32.8983997393573
 40
0.704372460813671
100
AcDbArc
 50
83.8529806316668
 51
239.250071636948
  0
ARC
  5
262
100
AcDbEntity
  8
0
100
AcDbCircle
  6
BYLAYER
 10
6.23761506796892
 20
31.9876821284788
 40
0.704372460813671
100
AcDbArc
 50
113.852980631667
 51
269.250071636948
  0
ARC
  5
263
100
AcDbEntity
  8
0
100
AcDbCircle
  6
BYLAYER
 10
2.46807156512152
 20
20.4823876916705
 40
0.704372460813671
100
AcDbArc
 50
203.852980631667
 51
359.250071636948
  0
ARC
  5
264
100
AcDbEntity
  8
0
100
AcDbCircle
  6
BYLAYER
 10
9.63645946311512
 20
15.8021265779447
 40
0.704372460813671
100
AcDbArc
 50
263.852980631667
 51
59.2500716369476
  0
ARC
  5
265
100
AcDbEntity
  8
0
100
AcDbCircle
  6
BYLAYER
 10
5.4252294212235
 20
17.1818752606574
 40
0.704372460813671
100
AcDbArc
 50
233.852980631667
 51
29.2500716369476
  0
ARC
  5
266
100
AcDbEntity
  8
0
100
AcDbCircle
  6
BYLAYER
 10
1.55735395424306
 20
24.8192942304852
 40
0.704372460813671
100
AcDbArc
 50
173.852980631667
 51
329.250071636948
  0
ARC
  5
267
100
AcDbEntity
  8
0
100
AcDbCircle
  6
BYLAYER
 10
2.93710263695578
 20
29.0305242723768
 40
0.704372460813671
100
AcDbArc
 50
143.852980631667
 51
299.250071636948
  0
TEXT
  5
268
100
AcDbEntity
  8
0
100
AcDbText
  6
BYLAYER
 10
7.49210581170385
 20
21.8477388856442
 40
5
  1
Y
  7
Font_0
100
AcDbText
  0
TEXT
  5
269
100
AcDbEntity
  8
0
100
AcDbText
  6
BYLAYER
 10
42.3478047909238
 20
7.2
 40
2.8
  1
~8
  7
Font_0
100
AcDbText
  0
TEXT
  5
26A
100
AcDbEntity
  8
0
100
AcDbText
  6
BYLAYER
 10
13.8764304985659
 20
7.2
 40
2.8
  1
(04)3322627
  7
Font_0
100
AcDbText
  0
TEXT
  5
26B
100
AcDbEntity
  8
0
100
AcDbText
  6
BYLAYER
 10
51
 20
7.2
 40
3
  1
FAX
  7
Font_0
100
AcDbText
  0
LINE
  5
26C
100
AcDbEntity
  8
0
100
AcDbLine
  6
BYLAYER
 10
48
 20
12
 11
48
 21
6
  0
LINE
  5
26D
100
AcDbEntity
  8
0
100
AcDbLine
  6
BYLAYER
 10
62
 20
12
 11
62
 21
6
  0
ARC
  5
26E
100
AcDbEntity
  8
0
100
AcDbCircle
  6
BYLAYER
 10
14.7857516486752
 20
31.5186510566446
 40
0.704372460813671
100
AcDbArc
 50
53.8529806316668
 51
209.250071636948
  0
ARC
  5
26F
100
AcDbEntity
  8
0
100
AcDbCircle
  6
BYLAYER
 10
17.273878432943
 20
19.6700020449251
 40
0.704372460813671
100
AcDbArc
 50
323.852980631667
 51
119.250071636948
  0
ARC
  5
270
100
AcDbEntity
  8
0
100
AcDbCircle
  6
BYLAYER
 10
13.9733660019298
 20
16.7128441888231
 40
0.704372460813671
100
AcDbArc
 50
293.852980631667
 51
89.2500716369476
  0
LINE
  5
271
100
AcDbEntity
  8
0
100
AcDbLine
  6
BYLAYER
 10
14.515578442964
 20
24.350263158651
 11
15.4411524483498
 21
24.350263158651
  0
ARC
  5
272
100
AcDbEntity
  8
0
100
AcDbCircle
  6
BYLAYER
 10
18.6536271156557
 20
23.8812320868167
 40
0.704372460813671
100
AcDbArc
 50
353.852980631667
 51
149.250071636948
  0
ARC
  5
273
100
AcDbEntity
  8
0
100
AcDbCircle
  6
BYLAYER
 10
17.7429095047772
 20
28.2181386256314
 40
0.704372460813671
100
AcDbArc
 50
23.8529806316668
 51
179.250071636948
  0
TEXT
  5
274
100
AcDbEntity
  8
0
100
AcDbText
  6
BYLAYER
 10
100.4
 20
7.4
 40
3
  1
ｫ~ ｦW
  7
Font_0
100
AcDbText
  0
LINE
  5
275
100
AcDbEntity
  8
0
100
AcDbLine
  6
BYLAYER
 10
144
 20
36
 11
144
 21
0
  0
LINE
  5
276
100
AcDbEntity
  8
0
100
AcDbLine
  6
BYLAYER
 10
114
 20
36
 11
114
 21
0
  0
LINE
  5
277
100
AcDbEntity
  8
0
100
AcDbLine
  6
BYLAYER
 10
97.15
 20
36
 11
97.15
 21
0
  0
LINE
  5
278
100
AcDbEntity
  8
0
100
AcDbLine
  6
BYLAYER
 10
96.85
 20
36
 11
96.85
 21
0
  0
TEXT
  5
279
100
AcDbEntity
  8
0
100
AcDbText
  6
BYLAYER
 10
100.4
 20
1.6
 40
3
  1
ｹﾏ ｸｹ
  7
Font_0
100
AcDbText
  0
TEXT
  5
27A
100
AcDbEntity
  8
0
100
AcDbText
  6
BYLAYER
 10
100.4
 20
31.6
 40
3
  1
･D ｺﾞ
  7
Font_0
100
AcDbText
  0
TEXT
  5
27B
100
AcDbEntity
  8
0
100
AcDbText
  6
BYLAYER
 10
100.4
 20
19.6
 40
3
  1
ﾃｸ ｹﾏ
  7
Font_0
100
AcDbText
  0
TEXT
  5
27C
100
AcDbEntity
  8
0
100
AcDbText
  6
BYLAYER
 10
100.4
 20
13.8
 40
3
  1
ｾ� ｺﾘ
  7
Font_0
100
AcDbText
  0
TEXT
  5
27D
100
AcDbEntity
  8
0
100
AcDbText
  6
BYLAYER
 10
100.4
 20
25.4
 40
3
  1
ｮﾖ ｹ�
  7
Font_0
100
AcDbText
  0
LINE
  5
27E
100
AcDbEntity
  8
0
100
AcDbLine
  6
BYLAYER
 10
195.15
 20
36
 11
195.15
 21
0
  0
LINE
  5
27F
100
AcDbEntity
  8
0
100
AcDbLine
  6
BYLAYER
 10
194.85
 20
36
 11
194.85
 21
0
  0
LINE
  5
280
100
AcDbEntity
  8
0
100
AcDbLine
  6
BYLAYER
 10
195.025
 20
36
 11
195.025
 21
0
  0
LINE
  5
281
100
AcDbEntity
  8
0
100
AcDbLine
  6
BYLAYER
 10
163
 20
36
 11
163
 21
0
  0
TEXT
  5
282
100
AcDbEntity
  8
0
100
AcDbText
  6
BYLAYER
 10
146.967830348543
 20
7.5
 40
3
  1
ｪ揵ｱｳBｲz
  7
Font_0
100
AcDbText
  0
TEXT
  5
283
100
AcDbEntity
  8
0
100
AcDbText
  6
BYLAYER
 10
146.967830348543
 20
1.5
 40
3
  1
ｻsｹﾏ､魘ﾁ
  7
Font_0
100
AcDbText
  0
TEXT
  5
284
100
AcDbEntity
  8
0
100
AcDbText
  6
BYLAYER
 10
148.5
 20
31.5
 40
3
  1
ｧ� ｽ�
  7
Font_0
100
AcDbText
  0
TEXT
  5
285
100
AcDbEntity
  8
0
100
AcDbText
  6
BYLAYER
 10
148.5
 20
19.5
 40
3
  1
ｼﾆ ｶq
  7
Font_0
100
AcDbText
  0
TEXT
  5
286
100
AcDbEntity
  8
0
100
AcDbText
  6
BYLAYER
 10
148.5
 20
13.5
 40
3
  1
ｳ� ｦ�
  7
Font_0
100
AcDbText
  0
TEXT
  5
287
100
AcDbEntity
  8
0
100
AcDbText
  6
BYLAYER
 10
148.5
 20
25.5
 40
3
  1
､� ｨﾒ
  7
Font_0
100
AcDbText
  0
TEXT
  5
288
100
AcDbEntity
  8
0
100
AcDbText
  6
BYLAYER
 10
200.830454348633
 20
31.5
 40
3
  1
､魘ﾁ
  7
Font_0
100
AcDbText
  0
LINE
  5
289
100
AcDbEntity
  8
0
100
AcDbLine
  6
BYLAYER
 10
278.4
 20
186
 11
278.4
 21
0
  0
LINE
  5
28A
100
AcDbEntity
  8
0
100
AcDbLine
  6
BYLAYER
 10
269.7178125
 20
135.285
 11
269.7178125
 21
151.27125
  0
LINE
  5
28B
100
AcDbEntity
  8
0
100
AcDbLine
  6
BYLAYER
 10
261.035625
 20
135.285
 11
261.035625
 21
151.27125
  0
LINE
  5
28C
100
AcDbEntity
  8
0
100
AcDbLine
  6
BYLAYER
 10
252.3534375
 20
135.285
 11
252.3534375
 21
151.27125
  0
LINE
  5
28D
100
AcDbEntity
  8
0
100
AcDbLine
  6
BYLAYER
 10
243.67125
 20
135.285
 11
243.67125
 21
180.4875
  0
LINE
  5
28E
100
AcDbEntity
  8
0
100
AcDbLine
  6
BYLAYER
 10
221.07
 20
135.285
 11
221.07
 21
180.4875
  0
LINE
  5
28F
100
AcDbEntity
  8
0
100
AcDbLine
  6
BYLAYER
 10
216.66
 20
135.285
 11
216.66
 21
186
  0
LINE
  5
290
100
AcDbEntity
  8
0
100
AcDbLine
  6
BYLAYER
 10
213
 20
36
 11
213
 21
0
  0
LINE
  5
291
100
AcDbEntity
  8
0
100
AcDbLine
  6
BYLAYER
 10
232
 20
36
 11
232
 21
0
  0
TEXT
  5
292
100
AcDbEntity
  8
0
100
AcDbText
  6
BYLAYER
 10
235
 20
31.5
 40
3
  1
ｧ�   ｧ�   ､ｺ   ｮe
  7
Font_0
100
AcDbText
  0
TEXT
  5
293
100
AcDbEntity
  8
0
100
AcDbText
  6
BYLAYER
 10
218.659856969007
 20
31.5
 40
3
  1
ｭtｳd､H
  7
Font_0
100
AcDbText
  0
LINE
  5
294
100
AcDbEntity
  8
0
100
AcDbLine
  6
BYLAYER
 10
278.4
 20
139.695
 11
221.07
 21
139.695
  0
LINE
  5
295
100
AcDbEntity
  8
0
100
AcDbLine
  6
BYLAYER
 10
278.4
 20
135.285
 11
216.66
 21
135.285
  0
TEXT
  5
296
100
AcDbEntity
  8
0
100
AcDbText
  6
BYLAYER
 10
246.15416478566
 20
128.207003496756
 40
2
  1
projection ｲﾄ､Tｨ､ｧ�ｼv
  7
Font_0
100
AcDbText
  0
LINE
  5
297
100
AcDbEntity
  8
0
100
AcDbLine
  6
BYLAYER
 10
278.4
 20
113.78625
 11
243.67125
 21
113.78625
  0
TEXT
  5
298
100
AcDbEntity
  8
0
100
AcDbText
  6
BYLAYER
 10
271.4339125
 20
144.733125
 40
1.5
  1
100･H､W
  7
Font_0
 72
1
 11
274.0589125
 21
145.483125
100
AcDbText
 73
2
  0
TEXT
  5
299
100
AcDbEntity
  8
0
100
AcDbText
  6
BYLAYER
 10
272.1839125
 20
136.74
 40
1.5
  1
±10'
  7
Font_0
 72
1
 11
274.0589125
 21
137.49
100
AcDbText
 73
2
  0
MTEXT
  5
29A
100
AcDbEntity
  8
0
100
AcDbMText
 10
232.37065
 20
145.483125
 40
2
 41
  0.0
  1
､ｽｺﾙ､ﾘ､o (ｪﾗ)\Pｧｨｦｨｨ､､ｧｵuﾃ荀@､�
 71
5
  7
Font_0
  0
TEXT
  5
29B
100
AcDbEntity
  8
0
100
AcDbText
  6
BYLAYER
 10
217.365
 20
147.778125
 40
3
  1
ｪｽｨ､ｫﾗ
  7
Font_1
 50
270
 11
218.865
 21
147.778125
100
AcDbText
 73
2
  0
TEXT
  5
29C
100
AcDbEntity
  8
0
100
AcDbText
  6
BYLAYER
 10
227.87065
 20
135.99
 40
3
  1
ｨ､ｫﾗｮt
  7
Font_0
 72
1
 11
232.37065
 21
137.49
100
AcDbText
 73
2
  0
LINE
  5
29D
100
AcDbEntity
  8
0
100
AcDbLine
  6
BYLAYER
 10
254.802068029839
 20
115.173423624616
 11
254.802068029839
 21
126.198423624616
  0
LINE
  5
29E
100
AcDbEntity
  8
0
100
AcDbLine
  6
BYLAYER
 10
243.67125
 20
113.78625
 11
243.67125
 21
135.285
  0
CIRCLE
  5
29F
100
AcDbEntity
  8
0
100
AcDbCircle
  6
BYLAYER
 10
254.802068029839
 20
120.685923624616
 40
4.41
  0
LINE
  5
2A0
100
AcDbEntity
  8
0
100
AcDbLine
  6
BYLAYER
 10
249.289568029839
 20
120.685923624616
 11
260.314568029839
 21
120.685923624616
  0
CIRCLE
  5
2A1
100
AcDbEntity
  8
0
100
AcDbCircle
  6
BYLAYER
 10
254.802068029839
 20
120.685923624616
 40
2.205
  0
LINE
  5
2A2
100
AcDbEntity
  8
0
100
AcDbLine
  6
BYLAYER
 10
263.194180551461
 20
120.685923624616
 11
274.770430551461
 21
120.685923624616
  0
LWPOLYLINE
  5
2A3
100
AcDbEntity
  8
0
100
AcDbPolyline
  6
BYLAYER
370
0
 90
     4
 70
     1
 10
264.296680551461
  20
118.480923624616
 10
273.667930551461
  20
116.275923624616
 10
273.667930551461
  20
125.095923624616
 10
264.296680551461
  20
122.890923624616
  0
TEXT
  5
2A4
100
AcDbEntity
  8
0
100
AcDbText
  6
BYLAYER
 10
245.828721587618
 20
131.605971951227
 40
2
  1
Third angle
  7
Font_0
100
AcDbText
  0
MTEXT
  5
2A5
100
AcDbEntity
  8
0
100
AcDbMText
 10
256.6945375
 20
145.483125
 40
1.5
 41
  0.0
  1
10･H､W\P50･H､U
 71
5
  7
Font_0
  0
TEXT
  5
2A6
100
AcDbEntity
  8
0
100
AcDbText
  6
BYLAYER
 10
246.13735
 20
136.74
 40
1.5
  1
±1°
  7
Font_0
 72
1
 11
248.01235
 21
137.49
100
AcDbText
 73
2
  0
TEXT
  5
2A7
100
AcDbEntity
  8
0
100
AcDbText
  6
BYLAYER
 10
254.8195375
 20
136.74
 40
1.5
  1
±30'
  7
Font_0
 72
1
 11
256.6945375
 21
137.49
100
AcDbText
 73
2
  0
TEXT
  5
2A8
100
AcDbEntity
  8
0
100
AcDbText
  6
BYLAYER
 10
245.76235
 20
144.733125
 40
1.5
  1
10･H､U
  7
Font_0
 72
1
 11
248.01235
 21
145.483125
100
AcDbText
 73
2
  0
TEXT
  5
2A9
100
AcDbEntity
  8
0
100
AcDbText
  6
BYLAYER
 10
263.501725
 20
136.74
 40
1.5
  1
±20'
  7
Font_0
 72
1
 11
265.376725
 21
137.49
100
AcDbText
 73
2
  0
MTEXT
  5
2AA
100
AcDbEntity
  8
0
100
AcDbMText
 10
265.376725
 20
145.483125
 40
1.5
 41
  0.0
  1
50･H､W\P100･H､U
 71
5
  7
Font_0
  0
LINE
  5
2AB
100
AcDbEntity
  8
0
100
AcDbLine
  6
BYLAYER
 10
221.07
 20
155.68125
 11
278.4
 21
155.68125
  0
LINE
  5
2AC
100
AcDbEntity
  8
0
100
AcDbLine
  6
BYLAYER
 10
221.07
 20
160.09125
 11
278.4
 21
160.09125
  0
LINE
  5
2AD
100
AcDbEntity
  8
0
100
AcDbLine
  6
BYLAYER
 10
221.07
 20
164.50125
 11
278.4
 21
164.50125
  0
LINE
  5
2AE
100
AcDbEntity
  8
0
100
AcDbLine
  6
BYLAYER
 10
221.07
 20
168.91125
 11
278.4
 21
168.91125
  0
LINE
  5
2AF
100
AcDbEntity
  8
0
100
AcDbLine
  6
BYLAYER
 10
221.07
 20
173.32125
 11
278.4
 21
173.32125
  0
LINE
  5
2B0
100
AcDbEntity
  8
0
100
AcDbLine
  6
BYLAYER
 10
216.66
 20
151.27125
 11
278.4
 21
151.27125
  0
LINE
  5
2B1
100
AcDbEntity
  8
0
100
AcDbLine
  6
BYLAYER
 10
216.66
 20
180.4875
 11
278.4
 21
180.4875
  0
TEXT
  5
2B2
100
AcDbEntity
  8
0
100
AcDbText
  6
BYLAYER
 10
269.1119
 20
175.154375
 40
3.5
  1
ｲﾊｯﾅ
  7
Font_0
 72
1
 11
272.6119
 21
176.904375
100
AcDbText
 73
2
  0
LINE
  5
2B3
100
AcDbEntity
  8
0
100
AcDbLine
  6
BYLAYER
 10
243.67125
 20
173.32125
 11
232.06971689676
 21
180.4875
  0
TEXT
  5
2B4
100
AcDbEntity
  8
0
100
AcDbText
  6
BYLAYER
 10
230.03
 20
181.49375
 40
3.5
  1
ｦｨ ｫ~ ､ｧ ｴｶ ｳq ､ｽ ｮt
  7
Font_0
 72
1
 11
247.53
 21
183.24375
100
AcDbText
 73
2
  0
TEXT
  5
2B5
100
AcDbEntity
  8
0
100
AcDbText
  6
BYLAYER
 10
228.24565
 20
170.36625
 40
1.5
  1
1･H､W~4･H､U
  7
Font_0
 72
1
 11
232.37065
 21
171.11625
100
AcDbText
 73
2
  0
TEXT
  5
2B6
100
AcDbEntity
  8
0
100
AcDbText
  6
BYLAYER
 10
227.49565
 20
161.54625
 40
1.5
  1
16･H､W~63･H､U
  7
Font_0
 72
1
 11
232.37065
 21
162.29625
100
AcDbText
 73
2
  0
TEXT
  5
2B7
100
AcDbEntity
  8
0
100
AcDbText
  6
BYLAYER
 10
227.12065
 20
157.13625
 40
1.5
  1
63･H､W~250･H､U
  7
Font_0
 72
1
 11
232.37065
 21
157.88625
100
AcDbText
 73
2
  0
TEXT
  5
2B8
100
AcDbEntity
  8
0
100
AcDbText
  6
BYLAYER
 10
226.37065
 20
152.72625
 40
1.5
  1
250･H､W~1000･H､U
  7
Font_0
 72
1
 11
232.37065
 21
153.47625
100
AcDbText
 73
2
  0
MTEXT
  5
2B9
100
AcDbEntity
  8
0
100
AcDbMText
 10
218.865
 20
168.879375
 40
3
 41
  0.0
  1
ｪﾗ
 71
4
  7
Font_1
 11
-1.83690953073357E-16
 21
-1
  0
TEXT
  5
2BA
100
AcDbEntity
  8
0
100
AcDbText
  6
BYLAYER
 10
227.87065
 20
165.95625
 40
1.5
  1
4･H､W~16･H､U
  7
Font_0
 72
1
 11
232.37065
 21
166.70625
100
AcDbText
 73
2
  0
TEXT
  5
2BB
100
AcDbEntity
  8
0
100
AcDbText
  6
BYLAYER
 10
221.354797302298
 20
174.015263609177
 40
1.7
  1
､ｽｺﾙ､ﾘ､oｹｺ､ﾀm/m
  7
Font_0
100
AcDbText
  0
TEXT
  5
2BC
100
AcDbEntity
  8
0
100
AcDbText
  6
BYLAYER
 10
237.865638127741
 20
177.454836298923
 40
1.7
  1
ｵ･ｯﾅ
  7
Font_0
100
AcDbText
  0
LINE
  5
2BD
100
AcDbEntity
  8
0
100
AcDbLine
  6
BYLAYER
 10
266.82375
 20
151.27125
 11
266.82375
 21
180.4875
  0
LINE
  5
2BE
100
AcDbEntity
  8
0
100
AcDbLine
  6
BYLAYER
 10
255.2475
 20
151.27125
 11
255.2475
 21
180.4875
  0
TEXT
  5
2BF
100
AcDbEntity
  8
0
100
AcDbText
  6
BYLAYER
 10
247.2094
 20
170.36625
 40
1.5
  1
±0.05
  7
Font_0
 72
1
 11
249.4594
 21
171.11625
100
AcDbText
 73
2
  0
TEXT
  5
2C0
100
AcDbEntity
  8
0
100
AcDbText
  6
BYLAYER
 10
258.78565
 20
170.36625
 40
1.5
  1
±0.10
  7
Font_0
 72
1
 11
261.03565
 21
171.11625
100
AcDbText
 73
2
  0
TEXT
  5
2C1
100
AcDbEntity
  8
0
100
AcDbText
  6
BYLAYER
 10
270.3619
 20
170.36625
 40
1.5
  1
±0.30
  7
Font_0
 72
1
 11
272.6119
 21
171.11625
100
AcDbText
 73
2
  0
TEXT
  5
2C2
100
AcDbEntity
  8
0
100
AcDbText
  6
BYLAYER
 10
258.78565
 20
165.95625
 40
1.5
  1
±0.20
  7
Font_0
 72
1
 11
261.03565
 21
166.70625
100
AcDbText
 73
2
  0
TEXT
  5
2C3
100
AcDbEntity
  8
0
100
AcDbText
  6
BYLAYER
 10
258.78565
 20
161.54625
 40
1.5
  1
±0.30
  7
Font_0
 72
1
 11
261.03565
 21
162.29625
100
AcDbText
 73
2
  0
TEXT
  5
2C4
100
AcDbEntity
  8
0
100
AcDbText
  6
BYLAYER
 10
258.78565
 20
157.13625
 40
1.5
  1
±0.50
  7
Font_0
 72
1
 11
261.03565
 21
157.88625
100
AcDbText
 73
2
  0
TEXT
  5
2C5
100
AcDbEntity
  8
0
100
AcDbText
  6
BYLAYER
 10
258.78565
 20
152.72625
 40
1.5
  1
±0.80
  7
Font_0
 72
1
 11
261.03565
 21
153.47625
100
AcDbText
 73
2
  0
TEXT
  5
2C6
100
AcDbEntity
  8
0
100
AcDbText
  6
BYLAYER
 10
247.2094
 20
157.13625
 40
1.5
  1
±0.20
  7
Font_0
 72
1
 11
249.4594
 21
157.88625
100
AcDbText
 73
2
  0
TEXT
  5
2C7
100
AcDbEntity
  8
0
100
AcDbText
  6
BYLAYER
 10
247.2094
 20
152.72625
 40
1.5
  1
±0.30
  7
Font_0
 72
1
 11
249.4594
 21
153.47625
100
AcDbText
 73
2
  0
TEXT
  5
2C8
100
AcDbEntity
  8
0
100
AcDbText
  6
BYLAYER
 10
247.2094
 20
165.95625
 40
1.5
  1
±0.07
  7
Font_0
 72
1
 11
249.4594
 21
166.70625
100
AcDbText
 73
2
  0
TEXT
  5
2C9
100
AcDbEntity
  8
0
100
AcDbText
  6
BYLAYER
 10
247.2094
 20
161.54625
 40
1.5
  1
±0.10
  7
Font_0
 72
1
 11
249.4594
 21
162.29625
100
AcDbText
 73
2
  0
TEXT
  5
2CA
100
AcDbEntity
  8
0
100
AcDbText
  6
BYLAYER
 10
270.3619
 20
152.72625
 40
1.5
  1
±2.00
  7
Font_0
 72
1
 11
272.6119
 21
153.47625
100
AcDbText
 73
2
  0
TEXT
  5
2CB
100
AcDbEntity
  8
0
100
AcDbText
  6
BYLAYER
 10
270.3619
 20
157.13625
 40
1.5
  1
±1.20
  7
Font_0
 72
1
 11
272.6119
 21
157.88625
100
AcDbText
 73
2
  0
TEXT
  5
2CC
100
AcDbEntity
  8
0
100
AcDbText
  6
BYLAYER
 10
270.3619
 20
161.54625
 40
1.5
  1
±0.70
  7
Font_0
 72
1
 11
272.6119
 21
162.29625
100
AcDbText
 73
2
  0
TEXT
  5
2CD
100
AcDbEntity
  8
0
100
AcDbText
  6
BYLAYER
 10
270.3619
 20
165.95625
 40
1.5
  1
±0.50
  7
Font_0
 72
1
 11
272.6119
 21
166.70625
100
AcDbText
 73
2
  0
TEXT
  5
2CE
100
AcDbEntity
  8
0
100
AcDbText
  6
BYLAYER
 10
257.5356
 20
175.154375
 40
3.5
  1
､､ｯﾅ
  7
Font_0
 72
1
 11
261.0356
 21
176.904375
100
AcDbText
 73
2
  0
TEXT
  5
2CF
100
AcDbEntity
  8
0
100
AcDbText
  6
BYLAYER
 10
245.9594
 20
175.154375
 40
3.5
  1
ｲﾓｯﾅ
  7
Font_0
 72
1
 11
249.4594
 21
176.904375
100
AcDbText
 73
2
  0
ENDBLK
  5
2D0
100
AcDbEntity
  8
0
 67
     1
100
AcDbBlockEnd
  0
BLOCK
  5
2D1
100
AcDbEntity
  8
0
100
AcDbBlockBegin
  2
LIST
 70
    0
 10
0
 20
0
 30
0.0
  3
LIST
  1

  0
LINE
  5
2D2
100
AcDbEntity
  8
TEXT
100
AcDbLine
  6
BYLAYER
 10
-2.84E-14
 20
48
 11
83.2499999999999
 21
48
  0
LINE
  5
2D3
100
AcDbEntity
  8
TEXT
100
AcDbLine
  6
BYLAYER
 10
-2.84E-14
 20
42
 11
83.2499999999999
 21
42
  0
LINE
  5
2D4
100
AcDbEntity
  8
TEXT
100
AcDbLine
  6
BYLAYER
 10
-2.84E-14
 20
36
 11
83.2499999999999
 21
36
  0
LINE
  5
2D5
100
AcDbEntity
  8
TEXT
100
AcDbLine
  6
BYLAYER
 10
-2.84E-14
 20
30
 11
83.2499999999999
 21
30
  0
LINE
  5
2D6
100
AcDbEntity
  8
TEXT
100
AcDbLine
  6
BYLAYER
 10
-2.84E-14
 20
24
 11
83.2499999999999
 21
24
  0
LINE
  5
2D7
100
AcDbEntity
  8
TEXT
100
AcDbLine
  6
BYLAYER
 10
-2.84E-14
 20
18
 11
83.2499999999999
 21
18
  0
LINE
  5
2D8
100
AcDbEntity
  8
TEXT
100
AcDbLine
  6
BYLAYER
 10
-2.84E-14
 20
12
 11
83.2499999999999
 21
12
  0
LINE
  5
2D9
100
AcDbEntity
  8
TEXT
100
AcDbLine
  6
BYLAYER
 10
-2.84E-14
 20
5.99999999999997
 11
83.2499999999999
 21
6
  0
TEXT
  5
2DA
100
AcDbEntity
  8
TEXT
100
AcDbText
  6
BYLAYER
 10
8.82499999999999
 20
18.7071067811865
 40
3.5
  1
C
  7
Font_0
 72
1
 11
9.69999999999999
 21
18.7071067811865
100
AcDbText
  0
LINE
  5
2DB
100
AcDbEntity
  8
TEXT
100
AcDbLine
  6
BYLAYER
 10
0
 20
48
 11
0
 21
0
  0
TEXT
  5
2DC
100
AcDbEntity
  8
TEXT
100
AcDbText
  6
BYLAYER
 10
8.82499999999999
 20
6.70710678118655
 40
3.5
  1
A
  7
Font_0
 72
1
 11
9.69999999999999
 21
6.70710678118655
100
AcDbText
  0
TEXT
  5
2DD
100
AcDbEntity
  8
TEXT
100
AcDbText
  6
BYLAYER
 10
6.49999999999997
 20
0.707106781186553
 40
3.5
  1
ｶｵｦｸ
  7
Font_0
 72
1
 11
9.99999999999997
 21
0.707106781186553
100
AcDbText
  0
TEXT
  5
2DE
100
AcDbEntity
  8
TEXT
100
AcDbText
  6
BYLAYER
 10
8.82499999999999
 20
12.7071067811866
 40
3.5
  1
B
  7
Font_0
 72
1
 11
9.69999999999999
 21
12.7071067811866
100
AcDbText
  0
TEXT
  5
2DF
100
AcDbEntity
  8
TEXT
100
AcDbText
  6
BYLAYER
 10
8.82499999999999
 20
42.7071067811866
 40
3.5
  1
G
  7
Font_0
 72
1
 11
9.69999999999999
 21
42.7071067811866
100
AcDbText
  0
TEXT
  5
2E0
100
AcDbEntity
  8
TEXT
100
AcDbText
  6
BYLAYER
 10
8.82499999999999
 20
30.7071067811865
 40
3.5
  1
E
  7
Font_0
 72
1
 11
9.69999999999999
 21
30.7071067811865
100
AcDbText
  0
TEXT
  5
2E1
100
AcDbEntity
  8
TEXT
100
AcDbText
  6
BYLAYER
 10
8.82499999999999
 20
24.7071067811866
 40
3.5
  1
D
  7
Font_0
 72
1
 11
9.69999999999999
 21
24.7071067811866
100
AcDbText
  0
TEXT
  5
2E2
100
AcDbEntity
  8
TEXT
100
AcDbText
  6
BYLAYER
 10
8.82499999999999
 20
36.7071067811866
 40
3.5
  1
F
  7
Font_0
 72
1
 11
9.69999999999999
 21
36.7071067811866
100
AcDbText
  0
TEXT
  5
2E3
100
AcDbEntity
  8
TEXT
100
AcDbText
  6
BYLAYER
 10
77.3935238436447
 20
18.7071067811866
 40
3.5
  1
1
  7
Font_0
 72
1
 11
78.2685238436447
 21
18.7071067811866
100
AcDbText
  0
TEXT
  5
2E4
100
AcDbEntity
  8
TEXT
100
AcDbText
  6
BYLAYER
 10
20.7
 20
18.7071067811866
 40
3.5
  1
A
  7
Font_0
100
AcDbText
  0
LINE
  5
2E5
100
AcDbEntity
  8
TEXT
100
AcDbLine
  6
BYLAYER
 10
73.8870476872896
 20
48
 11
73.8870476872896
 21
-1.42E-14
  0
LINE
  5
2E6
100
AcDbEntity
  8
TEXT
100
AcDbLine
  6
BYLAYER
 10
20
 20
48
 11
20
 21
0
  0
TEXT
  5
2E7
100
AcDbEntity
  8
TEXT
100
AcDbText
  6
BYLAYER
 10
75.0685238436447
 20
0.707106781186553
 40
3.5
  1
ｼﾆｶq
  7
Font_0
 72
1
 11
78.5685238436447
 21
0.707106781186553
100
AcDbText
  0
TEXT
  5
2E8
100
AcDbEntity
  8
TEXT
100
AcDbText
  6
BYLAYER
 10
37.4837220734968
 20
0.707106781186553
 40
3.5
  1
ｹﾏ       ｸｹ
  7
Font_0
 72
1
 11
47.1087220734968
 21
0.707106781186553
100
AcDbText
  0
TEXT
  5
2E9
100
AcDbEntity
  8
TEXT
100
AcDbText
  6
BYLAYER
 10
20.7
 20
6.70710678118656
 40
3.5
  1
A
  7
Font_0
100
AcDbText
  0
TEXT
  5
2EA
100
AcDbEntity
  8
TEXT
100
AcDbText
  6
BYLAYER
 10
20.7
 20
12.7071067811866
 40
3.5
  1
A
  7
Font_0
100
AcDbText
  0
TEXT
  5
2EB
100
AcDbEntity
  8
TEXT
100
AcDbText
  6
BYLAYER
 10
77.3935238436447
 20
6.70710678118656
 40
3.5
  1
1
  7
Font_0
 72
1
 11
78.2685238436447
 21
6.70710678118656
100
AcDbText
  0
TEXT
  5
2EC
100
AcDbEntity
  8
TEXT
100
AcDbText
  6
BYLAYER
 10
77.3935238436447
 20
12.7071067811866
 40
3.5
  1
1
  7
Font_0
 72
1
 11
78.2685238436447
 21
12.7071067811866
100
AcDbText
  0
TEXT
  5
2ED
100
AcDbEntity
  8
TEXT
100
AcDbText
  6
BYLAYER
 10
20.7
 20
42.7071067811866
 40
3.5
  1
A
  7
Font_0
100
AcDbText
  0
TEXT
  5
2EE
100
AcDbEntity
  8
TEXT
100
AcDbText
  6
BYLAYER
 10
20.7
 20
30.7071067811865
 40
3.5
  1
A
  7
Font_0
100
AcDbText
  0
TEXT
  5
2EF
100
AcDbEntity
  8
TEXT
100
AcDbText
  6
BYLAYER
 10
20.7
 20
24.7071067811866
 40
3.5
  1
A
  7
Font_0
100
AcDbText
  0
TEXT
  5
2F0
100
AcDbEntity
  8
TEXT
100
AcDbText
  6
BYLAYER
 10
20.7
 20
36.7071067811866
 40
3.5
  1
A
  7
Font_0
100
AcDbText
  0
TEXT
  5
2F1
100
AcDbEntity
  8
TEXT
100
AcDbText
  6
BYLAYER
 10
77.3935238436447
 20
42.7071067811866
 40
3.5
  1
1
  7
Font_0
 72
1
 11
78.2685238436447
 21
42.7071067811866
100
AcDbText
  0
TEXT
  5
2F2
100
AcDbEntity
  8
TEXT
100
AcDbText
  6
BYLAYER
 10
77.3935238436447
 20
30.7071067811865
 40
3.5
  1
1
  7
Font_0
 72
1
 11
78.2685238436447
 21
30.7071067811865
100
AcDbText
  0
TEXT
  5
2F3
100
AcDbEntity
  8
TEXT
100
AcDbText
  6
BYLAYER
 10
77.3935238436447
 20
24.7071067811866
 40
3.5
  1
1
  7
Font_0
 72
1
 11
78.2685238436447
 21
24.7071067811866
100
AcDbText
  0
TEXT
  5
2F4
100
AcDbEntity
  8
TEXT
100
AcDbText
  6
BYLAYER
 10
77.3935238436447
 20
36.7071067811866
 40
3.5
  1
1
  7
Font_0
 72
1
 11
78.2685238436447
 21
36.7071067811866
100
AcDbText
  0
ENDBLK
  5
2F5
100
AcDbEntity
  8
0
 67
     1
100
AcDbBlockEnd
  0
BLOCK
  5
2F6
100
AcDbEntity
  8
0
100
AcDbBlockBegin
  2
A4ｹﾏｮﾘ
 70
    0
 10
0
 20
0
 30
0.0
  3
A4ｹﾏｮﾘ
  1

  0
POINT
  5
2F7
100
AcDbEntity
  8
7475A
100
AcDbPoint
 10
289
 20
0
  0
LINE
  5
2F8
100
AcDbEntity
  8
0
100
AcDbLine
  6
BYLAYER
 10
0
 20
12
 11
278.4
 21
12
  0
LINE
  5
2F9
100
AcDbEntity
  8
0
100
AcDbLine
  6
BYLAYER
 10
0
 20
6
 11
278.4
 21
6
  0
LINE
  5
2FA
100
AcDbEntity
  8
0
100
AcDbLine
  6
BYLAYER
 10
96.85
 20
30
 11
278.4
 21
30
  0
LINE
  5
2FB
100
AcDbEntity
  8
0
100
AcDbLine
  6
BYLAYER
 10
96.85
 20
24
 11
278.4
 21
24
  0
LINE
  5
2FC
100
AcDbEntity
  8
0
100
AcDbLine
  6
BYLAYER
 10
96.85
 20
18
 11
278.4
 21
18
  0
TEXT
  5
2FD
100
AcDbEntity
  8
0
100
AcDbText
  6
BYLAYER
 10
22.1680110084321
 20
15.7553550725962
 40
2.8
  1
CAM YORK INDUSTRIAL CO.,LTD.
  7
Font_0
100
AcDbText
  0
TEXT
  5
2FE
100
AcDbEntity
  8
0
100
AcDbText
  6
BYLAYER
 10
22.0468952754036
 20
26
 40
7
  1
ｫﾘｷﾔ､uｷ~ｪﾑ･ｳｭｭ､ｽ･q
  7
Font_0
100
AcDbText
  0
TEXT
  5
2FF
100
AcDbEntity
  8
0
100
AcDbText
  6
BYLAYER
 10
63.8643398403977
 20
7.09411371042404
 40
2.8
  1
(04)3322629
  7
Font_0
100
AcDbText
  0
LINE
  5
300
100
AcDbEntity
  8
0
100
AcDbLine
  6
BYLAYER
 10
10.1054905349494
 20
28.7603510666656
 11
15.2233703294355
 21
28.7603510666656
  0
CIRCLE
  5
301
100
AcDbEntity
  8
0
100
AcDbCircle
  6
BYLAYER
 10
10.1054905349494
 20
24.350263158651
 40
9.36463111331499
  0
CIRCLE
  5
302
100
AcDbEntity
  8
0
100
AcDbCircle
  6
BYLAYER
 10
10.1054905349494
 20
24.350263158651
 40
7.62237416200057
  0
ARC
  5
303
100
AcDbEntity
  8
0
100
AcDbCircle
  6
BYLAYER
 10
10.1054905349494
 20
24.350263158651
 40
4.41008790801462
100
AcDbArc
 50
90
 51
0
  0
LINE
  5
304
100
AcDbEntity
  8
0
100
AcDbLine
  6
BYLAYER
 10
13
 20
12
 11
13
 21
0
  0
TEXT
  5
305
100
AcDbEntity
  8
0
100
AcDbText
  6
BYLAYER
 10
2.6
 20
7.3
 40
3
  1
TEL
  7
Font_0
100
AcDbText
  0
TEXT
  5
306
100
AcDbEntity
  8
0
100
AcDbText
  6
BYLAYER
 10
3.5
 20
1.5
 40
3
  1
ｳﾆｵ�
  7
Font_0
 72
1
 11
6.5
 21
3
100
AcDbText
 73
2
  0
ARC
  5
307
100
AcDbEntity
  8
0
100
AcDbCircle
  6
BYLAYER
 10
10.5745216067836
 20
32.8983997393573
 40
0.704372460813671
100
AcDbArc
 50
83.8529806316668
 51
239.250071636948
  0
ARC
  5
308
100
AcDbEntity
  8
0
100
AcDbCircle
  6
BYLAYER
 10
6.23761506796892
 20
31.9876821284788
 40
0.704372460813671
100
AcDbArc
 50
113.852980631667
 51
269.250071636948
  0
ARC
  5
309
100
AcDbEntity
  8
0
100
AcDbCircle
  6
BYLAYER
 10
2.46807156512152
 20
20.4823876916705
 40
0.704372460813671
100
AcDbArc
 50
203.852980631667
 51
359.250071636948
  0
ARC
  5
30A
100
AcDbEntity
  8
0
100
AcDbCircle
  6
BYLAYER
 10
9.63645946311512
 20
15.8021265779447
 40
0.704372460813671
100
AcDbArc
 50
263.852980631667
 51
59.2500716369476
  0
ARC
  5
30B
100
AcDbEntity
  8
0
100
AcDbCircle
  6
BYLAYER
 10
5.4252294212235
 20
17.1818752606574
 40
0.704372460813671
100
AcDbArc
 50
233.852980631667
 51
29.2500716369476
  0
ARC
  5
30C
100
AcDbEntity
  8
0
100
AcDbCircle
  6
BYLAYER
 10
1.55735395424306
 20
24.8192942304852
 40
0.704372460813671
100
AcDbArc
 50
173.852980631667
 51
329.250071636948
  0
ARC
  5
30D
100
AcDbEntity
  8
0
100
AcDbCircle
  6
BYLAYER
 10
2.93710263695578
 20
29.0305242723768
 40
0.704372460813671
100
AcDbArc
 50
143.852980631667
 51
299.250071636948
  0
TEXT
  5
30E
100
AcDbEntity
  8
0
100
AcDbText
  6
BYLAYER
 10
7.49210581170385
 20
21.8477388856442
 40
5
  1
Y
  7
Font_0
100
AcDbText
  0
TEXT
  5
30F
100
AcDbEntity
  8
0
100
AcDbText
  6
BYLAYER
 10
42.3478047909238
 20
7.2
 40
2.8
  1
~8
  7
Font_0
100
AcDbText
  0
TEXT
  5
310
100
AcDbEntity
  8
0
100
AcDbText
  6
BYLAYER
 10
13.8764304985659
 20
7.2
 40
2.8
  1
(04)3322627
  7
Font_0
100
AcDbText
  0
TEXT
  5
311
100
AcDbEntity
  8
0
100
AcDbText
  6
BYLAYER
 10
51
 20
7.2
 40
3
  1
FAX
  7
Font_0
100
AcDbText
  0
LINE
  5
312
100
AcDbEntity
  8
0
100
AcDbLine
  6
BYLAYER
 10
48
 20
12
 11
48
 21
6
  0
LINE
  5
313
100
AcDbEntity
  8
0
100
AcDbLine
  6
BYLAYER
 10
62
 20
12
 11
62
 21
6
  0
ARC
  5
314
100
AcDbEntity
  8
0
100
AcDbCircle
  6
BYLAYER
 10
14.7857516486752
 20
31.5186510566446
 40
0.704372460813671
100
AcDbArc
 50
53.8529806316668
 51
209.250071636948
  0
ARC
  5
315
100
AcDbEntity
  8
0
100
AcDbCircle
  6
BYLAYER
 10
17.273878432943
 20
19.6700020449251
 40
0.704372460813671
100
AcDbArc
 50
323.852980631667
 51
119.250071636948
  0
ARC
  5
316
100
AcDbEntity
  8
0
100
AcDbCircle
  6
BYLAYER
 10
13.9733660019298
 20
16.7128441888231
 40
0.704372460813671
100
AcDbArc
 50
293.852980631667
 51
89.2500716369476
  0
LINE
  5
317
100
AcDbEntity
  8
0
100
AcDbLine
  6
BYLAYER
 10
14.515578442964
 20
24.350263158651
 11
15.4411524483498
 21
24.350263158651
  0
ARC
  5
318
100
AcDbEntity
  8
0
100
AcDbCircle
  6
BYLAYER
 10
18.6536271156557
 20
23.8812320868167
 40
0.704372460813671
100
AcDbArc
 50
353.852980631667
 51
149.250071636948
  0
ARC
  5
319
100
AcDbEntity
  8
0
100
AcDbCircle
  6
BYLAYER
 10
17.7429095047772
 20
28.2181386256314
 40
0.704372460813671
100
AcDbArc
 50
23.8529806316668
 51
179.250071636948
  0
TEXT
  5
31A
100
AcDbEntity
  8
0
100
AcDbText
  6
BYLAYER
 10
100.4
 20
7.4
 40
3
  1
ｫ~ ｦW
  7
Font_0
100
AcDbText
  0
LINE
  5
31B
100
AcDbEntity
  8
0
100
AcDbLine
  6
BYLAYER
 10
144
 20
36
 11
144
 21
0
  0
LINE
  5
31C
100
AcDbEntity
  8
0
100
AcDbLine
  6
BYLAYER
 10
114
 20
36
 11
114
 21
0
  0
TEXT
  5
31D
100
AcDbEntity
  8
0
100
AcDbText
  6
BYLAYER
 10
100.4
 20
1.6
 40
3
  1
ｹﾏ ｸｹ
  7
Font_0
100
AcDbText
  0
TEXT
  5
31E
100
AcDbEntity
  8
0
100
AcDbText
  6
BYLAYER
 10
100.4
 20
31.6
 40
3
  1
･D ｺﾞ
  7
Font_0
100
AcDbText
  0
TEXT
  5
31F
100
AcDbEntity
  8
0
100
AcDbText
  6
BYLAYER
 10
100.4
 20
19.6
 40
3
  1
ﾃｸ ｹﾏ
  7
Font_0
100
AcDbText
  0
TEXT
  5
320
100
AcDbEntity
  8
0
100
AcDbText
  6
BYLAYER
 10
100.4
 20
13.8
 40
3
  1
ｾ� ｺﾘ
  7
Font_0
100
AcDbText
  0
TEXT
  5
321
100
AcDbEntity
  8
0
100
AcDbText
  6
BYLAYER
 10
100.4
 20
25.4
 40
3
  1
ｮﾖ ｹ�
  7
Font_0
100
AcDbText
  0
LINE
  5
322
100
AcDbEntity
  8
0
100
AcDbLine
  6
BYLAYER
 10
163
 20
36
 11
163
 21
0
  0
TEXT
  5
323
100
AcDbEntity
  8
0
100
AcDbText
  6
BYLAYER
 10
146.967830348543
 20
7.5
 40
3
  1
ｪ揵ｱｳBｲz
  7
Font_0
100
AcDbText
  0
TEXT
  5
324
100
AcDbEntity
  8
0
100
AcDbText
  6
BYLAYER
 10
146.967830348543
 20
1.5
 40
3
  1
ｻsｹﾏ､魘ﾁ
  7
Font_0
100
AcDbText
  0
TEXT
  5
325
100
AcDbEntity
  8
0
100
AcDbText
  6
BYLAYER
 10
148.5
 20
31.5
 40
3
  1
ｧ� ｽ�
  7
Font_0
100
AcDbText
  0
TEXT
  5
326
100
AcDbEntity
  8
0
100
AcDbText
  6
BYLAYER
 10
148.5
 20
19.5
 40
3
  1
ｼﾆ ｶq
  7
Font_0
100
AcDbText
  0
TEXT
  5
327
100
AcDbEntity
  8
0
100
AcDbText
  6
BYLAYER
 10
148.5
 20
13.5
 40
3
  1
ｳ� ｦ�
  7
Font_0
100
AcDbText
  0
TEXT
  5
328
100
AcDbEntity
  8
0
100
AcDbText
  6
BYLAYER
 10
148.5
 20
25.5
 40
3
  1
､� ｨﾒ
  7
Font_0
100
AcDbText
  0
TEXT
  5
329
100
AcDbEntity
  8
0
100
AcDbText
  6
BYLAYER
 10
200.830454348633
 20
31.5
 40
3
  1
､魘ﾁ
  7
Font_0
100
AcDbText
  0
LINE
  5
32A
100
AcDbEntity
  8
0
100
AcDbLine
  6
BYLAYER
 10
269.7178125
 20
135.285
 11
269.7178125
 21
151.27125
  0
LINE
  5
32B
100
AcDbEntity
  8
0
100
AcDbLine
  6
BYLAYER
 10
261.035625
 20
135.285
 11
261.035625
 21
151.27125
  0
LINE
  5
32C
100
AcDbEntity
  8
0
100
AcDbLine
  6
BYLAYER
 10
252.3534375
 20
135.285
 11
252.3534375
 21
151.27125
  0
LINE
  5
32D
100
AcDbEntity
  8
0
100
AcDbLine
  6
BYLAYER
 10
243.67125
 20
135.285
 11
243.67125
 21
180.4875
  0
LINE
  5
32E
100
AcDbEntity
  8
0
100
AcDbLine
  6
BYLAYER
 10
221.07
 20
135.285
 11
221.07
 21
180.4875
  0
LINE
  5
32F
100
AcDbEntity
  8
0
100
AcDbLine
  6
BYLAYER
 10
216.66
 20
135.285
 11
216.66
 21
186
  0
LINE
  5
330
100
AcDbEntity
  8
0
100
AcDbLine
  6
BYLAYER
 10
213
 20
36
 11
213
 21
0
  0
LINE
  5
331
100
AcDbEntity
  8
0
100
AcDbLine
  6
BYLAYER
 10
232
 20
36
 11
232
 21
0
  0
TEXT
  5
332
100
AcDbEntity
  8
0
100
AcDbText
  6
BYLAYER
 10
235
 20
31.5
 40
3
  1
ｧ�   ｧ�   ､ｺ   ｮe
  7
Font_0
100
AcDbText
  0
TEXT
  5
333
100
AcDbEntity
  8
0
100
AcDbText
  6
BYLAYER
 10
218.659856969007
 20
31.5
 40
3
  1
ｭtｳd､H
  7
Font_0
100
AcDbText
  0
LINE
  5
334
100
AcDbEntity
  8
0
100
AcDbLine
  6
BYLAYER
 10
278.4
 20
139.695
 11
221.07
 21
139.695
  0
LINE
  5
335
100
AcDbEntity
  8
0
100
AcDbLine
  6
BYLAYER
 10
278.4
 20
135.285
 11
216.66
 21
135.285
  0
TEXT
  5
336
100
AcDbEntity
  8
0
100
AcDbText
  6
BYLAYER
 10
246.15416478566
 20
128.207003496756
 40
2
  1
projection ｲﾄ､Tｨ､ｧ�ｼv
  7
Font_0
100
AcDbText
  0
LINE
  5
337
100
AcDbEntity
  8
0
100
AcDbLine
  6
BYLAYER
 10
278.4
 20
113.78625
 11
243.67125
 21
113.78625
  0
TEXT
  5
338
100
AcDbEntity
  8
0
100
AcDbText
  6
BYLAYER
 10
271.4339125
 20
144.733125
 40
1.5
  1
100･H､W
  7
Font_0
 72
1
 11
274.0589125
 21
145.483125
100
AcDbText
 73
2
  0
TEXT
  5
339
100
AcDbEntity
  8
0
100
AcDbText
  6
BYLAYER
 10
272.1839125
 20
136.74
 40
1.5
  1
±10'
  7
Font_0
 72
1
 11
274.0589125
 21
137.49
100
AcDbText
 73
2
  0
MTEXT
  5
33A
100
AcDbEntity
  8
0
100
AcDbMText
 10
232.37065
 20
145.483125
 40
2
 41
  0.0
  1
､ｽｺﾙ､ﾘ､o (ｪﾗ)\Pｧｨｦｨｨ､､ｧｵuﾃ荀@､�
 71
5
  7
Font_0
  0
TEXT
  5
33B
100
AcDbEntity
  8
0
100
AcDbText
  6
BYLAYER
 10
217.365
 20
147.778125
 40
3
  1
ｪｽｨ､ｫﾗ
  7
Font_1
 50
270
 11
218.865
 21
147.778125
100
AcDbText
 73
2
  0
TEXT
  5
33C
100
AcDbEntity
  8
0
100
AcDbText
  6
BYLAYER
 10
227.87065
 20
135.99
 40
3
  1
ｨ､ｫﾗｮt
  7
Font_0
 72
1
 11
232.37065
 21
137.49
100
AcDbText
 73
2
  0
LINE
  5
33D
100
AcDbEntity
  8
0
100
AcDbLine
  6
BYLAYER
 10
254.802068029839
 20
115.173423624616
 11
254.802068029839
 21
126.198423624616
  0
LINE
  5
33E
100
AcDbEntity
  8
0
100
AcDbLine
  6
BYLAYER
 10
243.67125
 20
113.78625
 11
243.67125
 21
135.285
  0
CIRCLE
  5
33F
100
AcDbEntity
  8
0
100
AcDbCircle
  6
BYLAYER
 10
254.802068029839
 20
120.685923624616
 40
4.41
  0
LINE
  5
340
100
AcDbEntity
  8
0
100
AcDbLine
  6
BYLAYER
 10
249.289568029839
 20
120.685923624616
 11
260.314568029839
 21
120.685923624616
  0
CIRCLE
  5
341
100
AcDbEntity
  8
0
100
AcDbCircle
  6
BYLAYER
 10
254.802068029839
 20
120.685923624616
 40
2.205
  0
LINE
  5
342
100
AcDbEntity
  8
0
100
AcDbLine
  6
BYLAYER
 10
263.194180551461
 20
120.685923624616
 11
274.770430551461
 21
120.685923624616
  0
LWPOLYLINE
  5
343
100
AcDbEntity
  8
0
100
AcDbPolyline
  6
BYLAYER
370
0
 90
     4
 70
     1
 10
264.296680551461
  20
118.480923624616
 10
273.667930551461
  20
116.275923624616
 10
273.667930551461
  20
125.095923624616
 10
264.296680551461
  20
122.890923624616
  0
TEXT
  5
344
100
AcDbEntity
  8
0
100
AcDbText
  6
BYLAYER
 10
245.828721587618
 20
131.605971951227
 40
2
  1
Third angle
  7
Font_0
100
AcDbText
  0
MTEXT
  5
345
100
AcDbEntity
  8
0
100
AcDbMText
 10
256.6945375
 20
145.483125
 40
1.5
 41
  0.0
  1
10･H､W\P50･H､U
 71
5
  7
Font_0
  0
TEXT
  5
346
100
AcDbEntity
  8
0
100
AcDbText
  6
BYLAYER
 10
246.13735
 20
136.74
 40
1.5
  1
±1°
  7
Font_0
 72
1
 11
248.01235
 21
137.49
100
AcDbText
 73
2
  0
TEXT
  5
347
100
AcDbEntity
  8
0
100
AcDbText
  6
BYLAYER
 10
254.8195375
 20
136.74
 40
1.5
  1
±30'
  7
Font_0
 72
1
 11
256.6945375
 21
137.49
100
AcDbText
 73
2
  0
TEXT
  5
348
100
AcDbEntity
  8
0
100
AcDbText
  6
BYLAYER
 10
245.76235
 20
144.733125
 40
1.5
  1
10･H､U
  7
Font_0
 72
1
 11
248.01235
 21
145.483125
100
AcDbText
 73
2
  0
TEXT
  5
349
100
AcDbEntity
  8
0
100
AcDbText
  6
BYLAYER
 10
263.501725
 20
136.74
 40
1.5
  1
±20'
  7
Font_0
 72
1
 11
265.376725
 21
137.49
100
AcDbText
 73
2
  0
MTEXT
  5
34A
100
AcDbEntity
  8
0
100
AcDbMText
 10
265.376725
 20
145.483125
 40
1.5
 41
  0.0
  1
50･H､W\P100･H､U
 71
5
  7
Font_0
  0
LINE
  5
34B
100
AcDbEntity
  8
0
100
AcDbLine
  6
BYLAYER
 10
221.07
 20
155.68125
 11
278.4
 21
155.68125
  0
LINE
  5
34C
100
AcDbEntity
  8
0
100
AcDbLine
  6
BYLAYER
 10
221.07
 20
160.09125
 11
278.4
 21
160.09125
  0
LINE
  5
34D
100
AcDbEntity
  8
0
100
AcDbLine
  6
BYLAYER
 10
221.07
 20
164.50125
 11
278.4
 21
164.50125
  0
LINE
  5
34E
100
AcDbEntity
  8
0
100
AcDbLine
  6
BYLAYER
 10
221.07
 20
168.91125
 11
278.4
 21
168.91125
  0
LINE
  5
34F
100
AcDbEntity
  8
0
100
AcDbLine
  6
BYLAYER
 10
221.07
 20
173.32125
 11
278.4
 21
173.32125
  0
LINE
  5
350
100
AcDbEntity
  8
0
100
AcDbLine
  6
BYLAYER
 10
216.66
 20
151.27125
 11
278.4
 21
151.27125
  0
LINE
  5
351
100
AcDbEntity
  8
0
100
AcDbLine
  6
BYLAYER
 10
216.66
 20
180.4875
 11
278.4
 21
180.4875
  0
TEXT
  5
352
100
AcDbEntity
  8
0
100
AcDbText
  6
BYLAYER
 10
269.1119
 20
175.154375
 40
3.5
  1
ｲﾊｯﾅ
  7
Font_0
 72
1
 11
272.6119
 21
176.904375
100
AcDbText
 73
2
  0
LINE
  5
353
100
AcDbEntity
  8
0
100
AcDbLine
  6
BYLAYER
 10
243.67125
 20
173.32125
 11
232.06971689676
 21
180.4875
  0
TEXT
  5
354
100
AcDbEntity
  8
0
100
AcDbText
  6
BYLAYER
 10
230.03
 20
181.49375
 40
3.5
  1
ｦｨ ｫ~ ､ｧ ｴｶ ｳq ､ｽ ｮt
  7
Font_0
 72
1
 11
247.53
 21
183.24375
100
AcDbText
 73
2
  0
TEXT
  5
355
100
AcDbEntity
  8
0
100
AcDbText
  6
BYLAYER
 10
228.24565
 20
170.36625
 40
1.5
  1
1･H､W~4･H､U
  7
Font_0
 72
1
 11
232.37065
 21
171.11625
100
AcDbText
 73
2
  0
TEXT
  5
356
100
AcDbEntity
  8
0
100
AcDbText
  6
BYLAYER
 10
227.49565
 20
161.54625
 40
1.5
  1
16･H､W~63･H､U
  7
Font_0
 72
1
 11
232.37065
 21
162.29625
100
AcDbText
 73
2
  0
TEXT
  5
357
100
AcDbEntity
  8
0
100
AcDbText
  6
BYLAYER
 10
227.12065
 20
157.13625
 40
1.5
  1
63･H､W~250･H､U
  7
Font_0
 72
1
 11
232.37065
 21
157.88625
100
AcDbText
 73
2
  0
TEXT
  5
358
100
AcDbEntity
  8
0
100
AcDbText
  6
BYLAYER
 10
226.37065
 20
152.72625
 40
1.5
  1
250･H､W~1000･H､U
  7
Font_0
 72
1
 11
232.37065
 21
153.47625
100
AcDbText
 73
2
  0
MTEXT
  5
359
100
AcDbEntity
  8
0
100
AcDbMText
 10
218.865
 20
168.879375
 40
3
 41
  0.0
  1
ｪﾗ
 71
4
  7
Font_1
 11
-1.83690953073357E-16
 21
-1
  0
TEXT
  5
35A
100
AcDbEntity
  8
0
100
AcDbText
  6
BYLAYER
 10
227.87065
 20
165.95625
 40
1.5
  1
4･H､W~16･H､U
  7
Font_0
 72
1
 11
232.37065
 21
166.70625
100
AcDbText
 73
2
  0
TEXT
  5
35B
100
AcDbEntity
  8
0
100
AcDbText
  6
BYLAYER
 10
221.354797302298
 20
174.015263609177
 40
1.7
  1
､ｽｺﾙ､ﾘ､oｹｺ､ﾀm/m
  7
Font_0
100
AcDbText
  0
TEXT
  5
35C
100
AcDbEntity
  8
0
100
AcDbText
  6
BYLAYER
 10
237.865638127741
 20
177.454836298923
 40
1.7
  1
ｵ･ｯﾅ
  7
Font_0
100
AcDbText
  0
LINE
  5
35D
100
AcDbEntity
  8
0
100
AcDbLine
  6
BYLAYER
 10
266.82375
 20
151.27125
 11
266.82375
 21
180.4875
  0
LINE
  5
35E
100
AcDbEntity
  8
0
100
AcDbLine
  6
BYLAYER
 10
255.2475
 20
151.27125
 11
255.2475
 21
180.4875
  0
TEXT
  5
35F
100
AcDbEntity
  8
0
100
AcDbText
  6
BYLAYER
 10
247.2094
 20
170.36625
 40
1.5
  1
±0.05
  7
Font_0
 72
1
 11
249.4594
 21
171.11625
100
AcDbText
 73
2
  0
TEXT
  5
360
100
AcDbEntity
  8
0
100
AcDbText
  6
BYLAYER
 10
258.78565
 20
170.36625
 40
1.5
  1
±0.10
  7
Font_0
 72
1
 11
261.03565
 21
171.11625
100
AcDbText
 73
2
  0
TEXT
  5
361
100
AcDbEntity
  8
0
100
AcDbText
  6
BYLAYER
 10
270.3619
 20
170.36625
 40
1.5
  1
±0.30
  7
Font_0
 72
1
 11
272.6119
 21
171.11625
100
AcDbText
 73
2
  0
TEXT
  5
362
100
AcDbEntity
  8
0
100
AcDbText
  6
BYLAYER
 10
258.78565
 20
165.95625
 40
1.5
  1
±0.20
  7
Font_0
 72
1
 11
261.03565
 21
166.70625
100
AcDbText
 73
2
  0
TEXT
  5
363
100
AcDbEntity
  8
0
100
AcDbText
  6
BYLAYER
 10
258.78565
 20
161.54625
 40
1.5
  1
±0.30
  7
Font_0
 72
1
 11
261.03565
 21
162.29625
100
AcDbText
 73
2
  0
TEXT
  5
364
100
AcDbEntity
  8
0
100
AcDbText
  6
BYLAYER
 10
258.78565
 20
157.13625
 40
1.5
  1
±0.50
  7
Font_0
 72
1
 11
261.03565
 21
157.88625
100
AcDbText
 73
2
  0
TEXT
  5
365
100
AcDbEntity
  8
0
100
AcDbText
  6
BYLAYER
 10
258.78565
 20
152.72625
 40
1.5
  1
±0.80
  7
Font_0
 72
1
 11
261.03565
 21
153.47625
100
AcDbText
 73
2
  0
TEXT
  5
366
100
AcDbEntity
  8
0
100
AcDbText
  6
BYLAYER
 10
247.2094
 20
157.13625
 40
1.5
  1
±0.20
  7
Font_0
 72
1
 11
249.4594
 21
157.88625
100
AcDbText
 73
2
  0
TEXT
  5
367
100
AcDbEntity
  8
0
100
AcDbText
  6
BYLAYER
 10
247.2094
 20
152.72625
 40
1.5
  1
±0.30
  7
Font_0
 72
1
 11
249.4594
 21
153.47625
100
AcDbText
 73
2
  0
TEXT
  5
368
100
AcDbEntity
  8
0
100
AcDbText
  6
BYLAYER
 10
247.2094
 20
165.95625
 40
1.5
  1
±0.07
  7
Font_0
 72
1
 11
249.4594
 21
166.70625
100
AcDbText
 73
2
  0
TEXT
  5
369
100
AcDbEntity
  8
0
100
AcDbText
  6
BYLAYER
 10
247.2094
 20
161.54625
 40
1.5
  1
±0.10
  7
Font_0
 72
1
 11
249.4594
 21
162.29625
100
AcDbText
 73
2
  0
TEXT
  5
36A
100
AcDbEntity
  8
0
100
AcDbText
  6
BYLAYER
 10
270.3619
 20
152.72625
 40
1.5
  1
±2.00
  7
Font_0
 72
1
 11
272.6119
 21
153.47625
100
AcDbText
 73
2
  0
TEXT
  5
36B
100
AcDbEntity
  8
0
100
AcDbText
  6
BYLAYER
 10
270.3619
 20
157.13625
 40
1.5
  1
±1.20
  7
Font_0
 72
1
 11
272.6119
 21
157.88625
100
AcDbText
 73
2
  0
TEXT
  5
36C
100
AcDbEntity
  8
0
100
AcDbText
  6
BYLAYER
 10
270.3619
 20
161.54625
 40
1.5
  1
±0.70
  7
Font_0
 72
1
 11
272.6119
 21
162.29625
100
AcDbText
 73
2
  0
TEXT
  5
36D
100
AcDbEntity
  8
0
100
AcDbText
  6
BYLAYER
 10
270.3619
 20
165.95625
 40
1.5
  1
±0.50
  7
Font_0
 72
1
 11
272.6119
 21
166.70625
100
AcDbText
 73
2
  0
TEXT
  5
36E
100
AcDbEntity
  8
0
100
AcDbText
  6
BYLAYER
 10
257.5356
 20
175.154375
 40
3.5
  1
､､ｯﾅ
  7
Font_0
 72
1
 11
261.0356
 21
176.904375
100
AcDbText
 73
2
  0
TEXT
  5
36F
100
AcDbEntity
  8
0
100
AcDbText
  6
BYLAYER
 10
245.9594
 20
175.154375
 40
3.5
  1
ｲﾓｯﾅ
  7
Font_0
 72
1
 11
249.4594
 21
176.904375
100
AcDbText
 73
2
  0
LWPOLYLINE
  5
370
100
AcDbEntity
  8
0
100
AcDbPolyline
  6
BYLAYER
370
20
 90
     4
 70
     1
 10
0
  20
0
 10
0
  20
186
 10
278.4
  20
186
 10
278.4
  20
0
  0
LWPOLYLINE
  5
371
100
AcDbEntity
  8
0
100
AcDbPolyline
  6
BYLAYER
370
20
 90
     2
 10
0
  20
36
 10
278.4
  20
36
  0
LWPOLYLINE
  5
372
100
AcDbEntity
  8
0
100
AcDbPolyline
  6
BYLAYER
370
20
 90
     2
 10
195.15
  20
36
 10
195.15
  20
0
  0
LWPOLYLINE
  5
373
100
AcDbEntity
  8
0
100
AcDbPolyline
  6
BYLAYER
370
20
 90
     2
 10
96.85
  20
36
 10
96.85
  20
0
  0
ENDBLK
  5
374
100
AcDbEntity
  8
0
 67
     1
100
AcDbBlockEnd
  0
BLOCK
  5
375
100
AcDbEntity
  8
0
100
AcDbBlockBegin
  2
JAME
 70
    0
 10
0
 20
0
 30
0.0
  3
JAME
  1

  0
TEXT
  5
376
100
AcDbEntity
  8
0
100
AcDbText
  6
BYLAYER
 10
200.830454348633
 20
31.5
 40
3
  1
､魘ﾁ
  7
Font_0
100
AcDbText
  0
LINE
  5
377
100
AcDbEntity
  8
0
100
AcDbLine
  6
BYLAYER
 10
0
 20
12
 11
278.4
 21
12
  0
LINE
  5
378
100
AcDbEntity
  8
0
100
AcDbLine
  6
BYLAYER
 10
0
 20
6
 11
278.4
 21
6
  0
LINE
  5
379
100
AcDbEntity
  8
0
100
AcDbLine
  6
BYLAYER
 10
0
 20
0
 11
278.4
 21
0
  0
LINE
  5
37A
100
AcDbEntity
  8
0
100
AcDbLine
  6
BYLAYER
 10
96.85
 20
30
 11
278.4
 21
30
  0
LINE
  5
37B
100
AcDbEntity
  8
0
100
AcDbLine
  6
BYLAYER
 10
96.85
 20
24
 11
278.4
 21
24
  0
LINE
  5
37C
100
AcDbEntity
  8
0
100
AcDbLine
  6
BYLAYER
 10
96.85
 20
18
 11
278.4
 21
18
  0
LWPOLYLINE
  5
37D
100
AcDbEntity
  8
0
100
AcDbPolyline
  6
BYLAYER
370
0
 90
     2
 70
     1
 10
0
  20
36
 10
278.4
  20
36
  0
LWPOLYLINE
  5
37E
100
AcDbEntity
  8
0
100
AcDbPolyline
  6
BYLAYER
 90
     2
 70
     1
 10
278.4
  20
186
 10
0
  20
186
  0
LINE
  5
37F
100
AcDbEntity
  8
0
100
AcDbLine
  6
BYLAYER
 10
0
 20
0
 11
0
 21
186
  0
TEXT
  5
380
100
AcDbEntity
  8
0
100
AcDbText
  6
BYLAYER
 10
63.8643398403977
 20
7.09411371042404
 40
2.8
  1
(04)23322629
  7
Font_0
100
AcDbText
  0
TEXT
  5
381
100
AcDbEntity
  8
0
100
AcDbText
  6
BYLAYER
 10
22.1680110084321
 20
15.7553550725962
 40
2.8
  1
CAM YORK INDUSTRIAL CO.,LTD.
  7
Font_0
100
AcDbText
  0
TEXT
  5
382
100
AcDbEntity
  8
0
100
AcDbText
  6
BYLAYER
 10
22.0468952754036
 20
26
 40
7
  1
ｫﾘｷﾔ､uｷ~ｪﾑ･ｳｭｭ､ｽ･q
  7
Font_0
100
AcDbText
  0
ARC
  5
383
100
AcDbEntity
  8
0
100
AcDbCircle
  6
BYLAYER
 10
5.4252294212235
 20
17.1818752606574
 40
0.704372460813671
100
AcDbArc
 50
233.852980631667
 51
29.2500716369477
  0
TEXT
  5
384
100
AcDbEntity
  8
0
100
AcDbText
  6
BYLAYER
 10
3.5
 20
1.5
 40
3
  1
ｳﾆｵ�
  7
Font_0
 72
1
 11
6.5
 21
3
100
AcDbText
 73
2
  0
TEXT
  5
385
100
AcDbEntity
  8
0
100
AcDbText
  6
BYLAYER
 10
2.6
 20
7.3
 40
3
  1
TEL
  7
Font_0
100
AcDbText
  0
ARC
  5
386
100
AcDbEntity
  8
0
100
AcDbCircle
  6
BYLAYER
 10
10.1054905349494
 20
24.350263158651
 40
4.41008790801462
100
AcDbArc
 50
90
 51
0
  0
CIRCLE
  5
387
100
AcDbEntity
  8
0
100
AcDbCircle
  6
BYLAYER
 10
10.1054905349494
 20
24.350263158651
 40
7.62237416200057
  0
CIRCLE
  5
388
100
AcDbEntity
  8
0
100
AcDbCircle
  6
BYLAYER
 10
10.1054905349494
 20
24.350263158651
 40
9.36463111331499
  0
ARC
  5
389
100
AcDbEntity
  8
0
100
AcDbCircle
  6
BYLAYER
 10
6.23761506796892
 20
31.9876821284788
 40
0.704372460813671
100
AcDbArc
 50
113.852980631667
 51
269.250071636948
  0
ARC
  5
38A
100
AcDbEntity
  8
0
100
AcDbCircle
  6
BYLAYER
 10
2.46807156512152
 20
20.4823876916705
 40
0.704372460813671
100
AcDbArc
 50
203.852980631667
 51
359.250071636948
  0
ARC
  5
38B
100
AcDbEntity
  8
0
100
AcDbCircle
  6
BYLAYER
 10
1.55735395424306
 20
24.8192942304852
 40
0.704372460813671
100
AcDbArc
 50
173.852980631667
 51
329.250071636948
  0
ARC
  5
38C
100
AcDbEntity
  8
0
100
AcDbCircle
  6
BYLAYER
 10
2.93710263695578
 20
29.0305242723768
 40
0.704372460813671
100
AcDbArc
 50
143.852980631667
 51
299.250071636948
  0
LINE
  5
38D
100
AcDbEntity
  8
0
100
AcDbLine
  6
BYLAYER
 10
62
 20
12
 11
62
 21
6
  0
TEXT
  5
38E
100
AcDbEntity
  8
0
100
AcDbText
  6
BYLAYER
 10
51.8
 20
7.2
 40
3
  1
FAX
  7
Font_0
100
AcDbText
  0
LINE
  5
38F
100
AcDbEntity
  8
0
100
AcDbLine
  6
BYLAYER
 10
49.4
 20
12
 11
49.4
 21
6
  0
TEXT
  5
390
100
AcDbEntity
  8
0
100
AcDbText
  6
BYLAYER
 10
43.3478047909238
 20
7.2
 40
2.8
  1
~8
  7
Font_0
100
AcDbText
  0
LINE
  5
391
100
AcDbEntity
  8
0
100
AcDbLine
  6
BYLAYER
 10
11.8
 20
12
 11
11.8
 21
0
  0
TEXT
  5
392
100
AcDbEntity
  8
0
100
AcDbText
  6
BYLAYER
 10
12.8764304985659
 20
7.2
 40
2.8
  1
(04)23322627
  7
Font_0
100
AcDbText
  0
ARC
  5
393
100
AcDbEntity
  8
0
100
AcDbCircle
  6
BYLAYER
 10
14.7857516486752
 20
31.5186510566446
 40
0.704372460813671
100
AcDbArc
 50
53.8529806316668
 51
209.250071636948
  0
ARC
  5
394
100
AcDbEntity
  8
0
100
AcDbCircle
  6
BYLAYER
 10
10.5745216067836
 20
32.8983997393573
 40
0.704372460813671
100
AcDbArc
 50
83.8529806316668
 51
239.250071636948
  0
ARC
  5
395
100
AcDbEntity
  8
0
100
AcDbCircle
  6
BYLAYER
 10
13.9733660019298
 20
16.7128441888231
 40
0.704372460813671
100
AcDbArc
 50
293.852980631667
 51
89.2500716369476
  0
ARC
  5
396
100
AcDbEntity
  8
0
100
AcDbCircle
  6
BYLAYER
 10
9.63645946311512
 20
15.8021265779447
 40
0.704372460813671
100
AcDbArc
 50
263.852980631667
 51
59.2500716369476
  0
ARC
  5
397
100
AcDbEntity
  8
0
100
AcDbCircle
  6
BYLAYER
 10
17.273878432943
 20
19.6700020449251
 40
0.704372460813671
100
AcDbArc
 50
323.852980631667
 51
119.250071636948
  0
LINE
  5
398
100
AcDbEntity
  8
0
100
AcDbLine
  6
BYLAYER
 10
14.515578442964
 20
24.350263158651
 11
15.4411524483498
 21
24.350263158651
  0
LINE
  5
399
100
AcDbEntity
  8
0
100
AcDbLine
  6
BYLAYER
 10
10.1054905349494
 20
28.7603510666656
 11
15.2233703294355
 21
28.7603510666656
  0
TEXT
  5
39A
100
AcDbEntity
  8
0
100
AcDbText
  6
BYLAYER
 10
7.49210581170385
 20
21.8477388856442
 40
5
  1
Y
  7
Font_0
100
AcDbText
  0
ARC
  5
39B
100
AcDbEntity
  8
0
100
AcDbCircle
  6
BYLAYER
 10
18.6536271156557
 20
23.8812320868167
 40
0.704372460813671
100
AcDbArc
 50
353.852980631667
 51
149.250071636947
  0
ARC
  5
39C
100
AcDbEntity
  8
0
100
AcDbCircle
  6
BYLAYER
 10
17.7429095047772
 20
28.2181386256314
 40
0.704372460813671
100
AcDbArc
 50
23.8529806316668
 51
179.250071636948
  0
LINE
  5
39D
100
AcDbEntity
  8
0
100
AcDbLine
  6
BYLAYER
 10
114
 20
36
 11
114
 21
0
  0
TEXT
  5
39E
100
AcDbEntity
  8
0
100
AcDbText
  6
BYLAYER
 10
100.4
 20
7.4
 40
3
  1
ｫ~ ｦW
  7
Font_0
100
AcDbText
  0
LINE
  5
39F
100
AcDbEntity
  8
0
100
AcDbLine
  6
BYLAYER
 10
97.15
 20
36
 11
97.15
 21
0
  0
LINE
  5
3A0
100
AcDbEntity
  8
0
100
AcDbLine
  6
BYLAYER
 10
96.85
 20
36
 11
96.85
 21
0
  0
LWPOLYLINE
  5
3A1
100
AcDbEntity
  8
0
100
AcDbPolyline
  6
BYLAYER
370
0
 90
     4
 10
96.85
  20
36
 10
96.85
  20
0
 10
97.15
  20
0
 10
97.15
  20
36
  0
TEXT
  5
3A2
100
AcDbEntity
  8
0
100
AcDbText
  6
BYLAYER
 10
100.4
 20
1.6
 40
3
  1
ｹﾏ ｸｹ
  7
Font_0
100
AcDbText
  0
TEXT
  5
3A3
100
AcDbEntity
  8
0
100
AcDbText
  6
BYLAYER
 10
100.4
 20
31.6
 40
3
  1
･D ｺﾞ
  7
Font_0
100
AcDbText
  0
TEXT
  5
3A4
100
AcDbEntity
  8
0
100
AcDbText
  6
BYLAYER
 10
100.4
 20
19.6
 40
3
  1
ﾃｸ ｹﾏ
  7
Font_0
100
AcDbText
  0
TEXT
  5
3A5
100
AcDbEntity
  8
0
100
AcDbText
  6
BYLAYER
 10
100.4
 20
25.4
 40
3
  1
ｮﾖ ｹ�
  7
Font_0
100
AcDbText
  0
TEXT
  5
3A6
100
AcDbEntity
  8
0
100
AcDbText
  6
BYLAYER
 10
100.316862435203
 20
13.8
 40
3
  1
ｾ� ｺﾘ
  7
Font_0
100
AcDbText
  0
LINE
  5
3A7
100
AcDbEntity
  8
0
100
AcDbLine
  6
BYLAYER
 10
195.15
 20
36
 11
195.15
 21
0
  0
LINE
  5
3A8
100
AcDbEntity
  8
0
100
AcDbLine
  6
BYLAYER
 10
194.85
 20
36
 11
194.85
 21
0
  0
LINE
  5
3A9
100
AcDbEntity
  8
0
100
AcDbLine
  6
BYLAYER
 10
195.025
 20
36
 11
195.025
 21
0
  0
TEXT
  5
3AA
100
AcDbEntity
  8
0
100
AcDbText
  6
BYLAYER
 10
146.967830348543
 20
7.5
 40
3
  1
ｻsｹﾏ､魘ﾁ
  7
Font_0
100
AcDbText
  0
LINE
  5
3AB
100
AcDbEntity
  8
0
100
AcDbLine
  6
BYLAYER
 10
163
 20
36
 11
163
 21
0
  0
LINE
  5
3AC
100
AcDbEntity
  8
0
100
AcDbLine
  6
BYLAYER
 10
144
 20
36
 11
144
 21
0
  0
TEXT
  5
3AD
100
AcDbEntity
  8
0
100
AcDbText
  6
BYLAYER
 10
147.076922819997
 20
1.5
 40
3
  1
ｹqｸ｣ｽsｸｹ
  7
Font_0
100
AcDbText
  0
TEXT
  5
3AE
100
AcDbEntity
  8
0
100
AcDbText
  6
BYLAYER
 10
148.5
 20
31.5
 40
3
  1
ｧ� ｽ�
  7
Font_0
100
AcDbText
  0
TEXT
  5
3AF
100
AcDbEntity
  8
0
100
AcDbText
  6
BYLAYER
 10
148.5
 20
25.5
 40
3
  1
ｼﾆ ｶq
  7
Font_0
100
AcDbText
  0
TEXT
  5
3B0
100
AcDbEntity
  8
0
100
AcDbText
  6
BYLAYER
 10
148.5
 20
19.5
 40
3
  1
ｳ� ｦ�
  7
Font_0
100
AcDbText
  0
TEXT
  5
3B1
100
AcDbEntity
  8
0
100
AcDbText
  6
BYLAYER
 10
146.967830348543
 20
13.5
 40
3
  1
ｪ揵ｱｳBｲz
  7
Font_0
100
AcDbText
  0
LINE
  5
3B2
100
AcDbEntity
  8
0
100
AcDbLine
  6
BYLAYER
 10
278.4
 20
186
 11
278.4
 21
0
  0
TEXT
  5
3B3
100
AcDbEntity
  8
0
100
AcDbText
  6
BYLAYER
 10
235
 20
31.5
 40
3
  1
ｧ�   ｧ�   ､ｺ   ｮe
  7
Font_0
100
AcDbText
  0
LINE
  5
3B4
100
AcDbEntity
  8
0
100
AcDbLine
  6
BYLAYER
 10
232
 20
36
 11
232
 21
0
  0
LINE
  5
3B5
100
AcDbEntity
  8
0
100
AcDbLine
  6
BYLAYER
 10
213
 20
36
 11
213
 21
0
  0
TEXT
  5
3B6
100
AcDbEntity
  8
0
100
AcDbText
  6
BYLAYER
 10
218.659856969007
 20
31.5
 40
3
  1
ｭtｳd､H
  7
Font_0
100
AcDbText
  0
ENDBLK
  5
3B7
100
AcDbEntity
  8
0
 67
     1
100
AcDbBlockEnd
  0
BLOCK
  5
3B8
100
AcDbEntity
  8
0
100
AcDbBlockBegin
  2
GENAXEH
 70
    0
 10
0
 20
0
 30
0.0
  3
GENAXEH
  1

  0
LINE
  5
3B9
100
AcDbEntity
  8
0
100
AcDbLine
  6
BYLAYER
 10
-1
 20
0
 11
1
 21
0
  0
ENDBLK
  5
3BA
100
AcDbEntity
  8
0
 67
     1
100
AcDbBlockEnd
  0
BLOCK
  5
3BB
100
AcDbEntity
  8
0
100
AcDbBlockBegin
  2
A$C36D836D4
 70
    0
 10
0
 20
0
 30
0.0
  3
A$C36D836D4
  1

  0
LINE
  5
3BC
100
AcDbEntity
  8
BASE
100
AcDbLine
  6
BYLAYER
 10
-156.592114756201
 20
-85.2890618578437
 11
-73.3421147562014
 21
-85.2890618578437
  0
LINE
  5
3BD
100
AcDbEntity
  8
BASE
100
AcDbLine
  6
BYLAYER
 10
-156.592114756201
 20
-91.2890618578437
 11
-73.3421147562014
 21
-91.2890618578437
  0
LINE
  5
3BE
100
AcDbEntity
  8
BASE
100
AcDbLine
  6
BYLAYER
 10
-156.592114756201
 20
-97.2890618578437
 11
-73.3421147562014
 21
-97.2890618578437
  0
LINE
  5
3BF
100
AcDbEntity
  8
BASE
100
AcDbLine
  6
BYLAYER
 10
-156.592114756201
 20
-103.289061857844
 11
-73.3421147562014
 21
-103.289061857844
  0
LINE
  5
3C0
100
AcDbEntity
  8
BASE
100
AcDbLine
  6
BYLAYER
 10
-156.592114756201
 20
-109.289061857844
 11
-73.3421147562014
 21
-109.289061857844
  0
LINE
  5
3C1
100
AcDbEntity
  8
BASE
100
AcDbLine
  6
BYLAYER
 10
-156.592114756201
 20
-115.289061857844
 11
-73.3421147562014
 21
-115.289061857844
  0
LINE
  5
3C2
100
AcDbEntity
  8
BASE
100
AcDbLine
  6
BYLAYER
 10
-156.592114756201
 20
-121.289061857844
 11
-73.3421147562014
 21
-121.289061857844
  0
LINE
  5
3C3
100
AcDbEntity
  8
BASE
100
AcDbLine
  6
BYLAYER
 10
-156.592114756201
 20
-127.289061857844
 11
-73.3421147562014
 21
-127.289061857844
  0
LINE
  5
3C4
100
AcDbEntity
  8
BASE
100
AcDbLine
  6
BYLAYER
 10
-146.592114756201
 20
-85.2890618578437
 11
-146.592114756201
 21
-133.289061857844
  0
LINE
  5
3C5
100
AcDbEntity
  8
BASE
100
AcDbLine
  6
BYLAYER
 10
-156.592114756201
 20
-85.2890618578437
 11
-156.592114756201
 21
-133.289061857844
  0
LINE
  5
3C6
100
AcDbEntity
  8
BASE
100
AcDbLine
  6
BYLAYER
 10
-136.592114756201
 20
-85.2890618578437
 11
-136.592114756201
 21
-133.289061857844
  0
TEXT
  5
3C7
100
AcDbEntity
  8
BASE
100
AcDbText
  6
BYLAYER
 10
-152.287315422519
 20
-120.581955076657
 40
3.5
  1
B
  7
Font_0
 72
1
 11
-151.412315422519
 21
-120.581955076657
100
AcDbText
  0
TEXT
  5
3C8
100
AcDbEntity
  8
BASE
100
AcDbText
  6
BYLAYER
 10
-154.338363967876
 20
-132.581955076657
 40
3.5
  1
ｶｵｦｸ
  7
Font_0
 72
1
 11
-150.838363967876
 21
-132.581955076657
100
AcDbText
  0
TEXT
  5
3C9
100
AcDbEntity
  8
BASE
100
AcDbText
  6
BYLAYER
 10
-151.961433062886
 20
-126.581955076657
 40
3.5
  1
A
  7
Font_0
 72
1
 11
-151.086433062886
 21
-126.581955076657
100
AcDbText
  0
TEXT
  5
3CA
100
AcDbEntity
  8
0
100
AcDbText
  6
BYLAYER
 10
-125.857609278239
 20
-132.019757538773
 40
3.5
  1
ｹﾏ
  7
Font_0
 11
-125.857609278239
 21
-128.519757538773
100
AcDbText
 73
3
  0
TEXT
  5
3CB
100
AcDbEntity
  8
0
100
AcDbText
  6
BYLAYER
 10
-112.160031551964
 20
-132.156603581708
 40
3.5
  1
ｸｹ
  7
Font_0
 11
-112.160031551964
 21
-128.656603581708
100
AcDbText
 73
3
  0
TEXT
  5
3CC
100
AcDbEntity
  8
BASE
100
AcDbText
  6
BYLAYER
 10
-152.150339695197
 20
-114.581955076657
 40
3.5
  1
C
  7
Font_0
 72
1
 11
-151.275339695197
 21
-114.581955076657
100
AcDbText
  0
LINE
  5
3CD
100
AcDbEntity
  8
BASE
100
AcDbLine
  6
BYLAYER
 10
-92.7050670689118
 20
-85.2890618578437
 11
-92.7050670689118
 21
-133.289061857844
  0
LINE
  5
3CE
100
AcDbEntity
  8
BASE
100
AcDbLine
  6
BYLAYER
 10
-82.7050670689118
 20
-85.2890618578437
 11
-82.7050670689118
 21
-133.289061857844
  0
TEXT
  5
3CF
100
AcDbEntity
  8
0
100
AcDbText
  6
BYLAYER
 10
-91.2050670689118
 20
-132.72329119719
 40
3.5
  1
ｪｩ･ｻ
  7
Font_0
 72
1
 11
-87.7050670689118
 21
-130.97329119719
100
AcDbText
 73
2
  0
TEXT
  5
3D0
100
AcDbEntity
  8
BASE
100
AcDbText
  6
BYLAYER
 10
-81.5235909125566
 20
-132.581955076657
 40
3.5
  1
ｼﾆｶq
  7
Font_0
 72
1
 11
-78.0235909125566
 21
-132.581955076657
100
AcDbText
  0
TEXT
  5
3D1
100
AcDbEntity
  8
BASE
100
AcDbText
  6
BYLAYER
 10
-79.1985909125566
 20
-126.581955076657
 40
3.5
  1
1
  7
Font_0
 72
1
 11
-78.3235909125566
 21
-126.581955076657
100
AcDbText
  0
TEXT
  5
3D2
100
AcDbEntity
  8
BASE
100
AcDbText
  6
BYLAYER
 10
-79.1985909125566
 20
-120.581955076657
 40
3.5
  1
1
  7
Font_0
 72
1
 11
-78.3235909125566
 21
-120.581955076657
100
AcDbText
  0
TEXT
  5
3D3
100
AcDbEntity
  8
BASE
100
AcDbText
  6
BYLAYER
 10
-79.1985909125566
 20
-114.581955076657
 40
3.5
  1
1
  7
Font_0
 72
1
 11
-78.3235909125566
 21
-114.581955076657
100
AcDbText
  0
ENDBLK
  5
3D4
100
AcDbEntity
  8
0
 67
     1
100
AcDbBlockEnd
  0
BLOCK
  5
3D5
100
AcDbEntity
  8
0
100
AcDbBlockBegin
  2
A$C520435C5
 70
    0
 10
0
 20
0
 30
0.0
  3
A$C520435C5
  1

  0
LINE
  5
3D6
100
AcDbEntity
  8
CEN
100
AcDbLine
  6
BYLAYER
 10
42.4999999576461
 20
37.5000000875314
 11
42.4999999576461
 21
8.75313617E-8
  0
CIRCLE
  5
3D7
100
AcDbEntity
  8
BASE
100
AcDbCircle
  6
BYLAYER
 10
42.4999999576461
 20
42.5000000875313
 40
31.25
  0
CIRCLE
  5
3D8
100
AcDbEntity
  8
BASE
100
AcDbCircle
  6
BYLAYER
 10
42.4999999576461
 20
42.5000000875313
 40
8
  0
CIRCLE
  5
3D9
100
AcDbEntity
  8
BASE
100
AcDbCircle
  6
BYLAYER
 10
42.4999999576461
 20
42.5000000875313
 40
25.5
  0
CIRCLE
  5
3DA
100
AcDbEntity
  8
BASE
100
AcDbCircle
  6
BYLAYER
 10
42.4999999576461
 20
42.5000000875313
 40
28.5
  0
CIRCLE
  5
3DB
100
AcDbEntity
  8
BASE
100
AcDbCircle
  6
BYLAYER
 10
42.4999999576461
 20
42.5000000875313
 40
16.25
  0
CIRCLE
  5
3DC
100
AcDbEntity
  8
BASE
100
AcDbCircle
  6
BYLAYER
 10
42.4999999576461
 20
42.5000000875313
 40
14
  0
LINE
  5
3DD
100
AcDbEntity
  8
CEN
100
AcDbLine
  6
BYLAYER
 10
47.4999999576461
 20
42.5000000875313
 11
84.9999999576461
 21
42.5000000875313
  0
LINE
  5
3DE
100
AcDbEntity
  8
CEN
100
AcDbLine
  6
BYLAYER
 10
42.4999999576461
 20
47.5000000875313
 11
42.4999999576461
 21
85.0000000875314
  0
LINE
  5
3DF
100
AcDbEntity
  8
CEN
100
AcDbLine
  6
BYLAYER
 10
37.4999999576461
 20
42.5000000875313
 11
-4.23538893E-8
 21
42.5000000875313
  0
LINE
  5
3E0
100
AcDbEntity
  8
HIDDEN
100
AcDbLine
  6
BYLAYER
 10
40.4999999576461
 20
50.2459667799462
 11
40.4999999576461
 21
44.7360680650312
  0
LINE
  5
3E1
100
AcDbEntity
  8
HIDDEN
100
AcDbLine
  6
BYLAYER
 10
44.4999999576461
 20
50.2459667799462
 11
44.4999999576461
 21
44.7360680650312
  0
LINE
  5
3E2
100
AcDbEntity
  8
HIDDEN
100
AcDbLine
  6
BYLAYER
 10
41.2999999576461
 20
50.4094880608454
 11
41.2999999576461
 21
45.2495455045049
  0
LINE
  5
3E3
100
AcDbEntity
  8
HIDDEN
100
AcDbLine
  6
BYLAYER
 10
43.6999999576461
 20
50.4094880608454
 11
43.6999999576461
 21
45.2495455045049
  0
LINE
  5
3E4
100
AcDbEntity
  8
CEN
100
AcDbLine
  6
BYLAYER
 10
42.4999999576461
 20
40.0000000875313
 11
42.4999999576461
 21
45.0000000875313
  0
CIRCLE
  5
3E5
100
AcDbEntity
  8
BASE
100
AcDbCircle
  6
BYLAYER
 10
42.4999999576461
 20
42.5000000875313
 40
3
  0
LINE
  5
3E6
100
AcDbEntity
  8
CEN
100
AcDbLine
  6
BYLAYER
 10
39.9999999576461
 20
42.5000000875313
 11
44.9999999576461
 21
42.5000000875313
  0
ENDBLK
  5
3E7
100
AcDbEntity
  8
0
 67
     1
100
AcDbBlockEnd
  0
BLOCK
  5
3E8
100
AcDbEntity
  8
0
100
AcDbBlockBegin
  2
A$C60F9129D
 70
    0
 10
0
 20
0
 30
0.0
  3
A$C60F9129D
  1

  0
LINE
  5
3E9
100
AcDbEntity
  8
BASE
100
AcDbLine
  6
BYLAYER
 10
56.8497610654588
 20
24.5009881171584
 11
72.8497610654588
 21
24.5009881171584
  0
LINE
  5
3EA
100
AcDbEntity
  8
BASE
100
AcDbLine
  6
BYLAYER
 10
56.8497610654588
 20
31.5009881171584
 11
72.8497610654588
 21
31.5009881171584
  0
LINE
  5
3EB
100
AcDbEntity
  8
BASE
100
AcDbLine
  6
BYLAYER
 10
56.8497610654588
 20
6.50098811715838
 11
72.8497610654588
 21
6.50098811715838
  0
LINE
  5
3EC
100
AcDbEntity
  8
HIDDEN
100
AcDbLine
  6
BYLAYER
 10
56.8497610654588
 20
13.5009881171584
 11
72.8497610654588
 21
13.5009881171584
  0
LINE
  5
3ED
100
AcDbEntity
  8
DIM
100
AcDbLine
  6
BYLAYER
 62
0
370
  -2
 10
52.3497610654587
 20
10.5745178828921
 11
52.3497610654587
 21
4.15013925290424
  0
LINE
  5
3EE
100
AcDbEntity
  8
DIM
100
AcDbLine
  6
BYLAYER
 62
0
370
  -2
 10
56.3497610654587
 20
9.93848811715834
 11
56.3497610654587
 21
4.15013925290424
  0
LINE
  5
3EF
100
AcDbEntity
  8
DIM
100
AcDbLine
  6
BYLAYER
 62
0
370
  -2
 10
52.5297610654587
 20
4.33013925290423
 11
56.1697610654587
 21
4.33013925290423
  0
LINE
  5
3F0
100
AcDbEntity
  8
DIM
100
AcDbLine
  6
BYLAYER
 62
0
370
  -2
 10
56.3497610654587
 20
4.33013925290423
 11
88.2797610654587
 21
4.33013925290423
  0
SOLID
  5
3F1
100
AcDbEntity
  8
DIM
100
AcDbTrace
 10
52.3497610654587
 20
4.33013925290423
 30
0.0
 11
52.5297610654587
 21
4.30013925290423
 31
0.0
 12
52.5297610654587
 22
4.36013925290423
 32
0.0
 13
52.5297610654587
 23
4.36013925290423
 33
0.0
  0
SOLID
  5
3F2
100
AcDbEntity
  8
DIM
100
AcDbTrace
 10
56.1697610654587
 20
4.36013925290423
 30
0.0
 11
56.1697610654587
 21
4.30013925290423
 31
0.0
 12
56.3497610654587
 22
4.33013925290423
 32
0.0
 13
56.3497610654587
 23
4.33013925290423
 33
0.0
  0
TEXT
  5
3F3
100
AcDbEntity
  8
DIM
 62
0
100
AcDbText
  6
BYLAYER
 62
0
 10
88.8497610654587
 20
4.24013925290423
 40
0.18
  1
4.0000
  7
Font_0
 72
1
 11
89.1197610654587
 21
4.33013925290423
100
AcDbText
 73
2
  0
LINE
  5
3F4
100
AcDbEntity
  8
DIM
100
AcDbLine
  6
BYLAYER
 62
0
370
  -2
 10
52.3497610654587
 20
10.4384881171583
 11
52.3497610654587
 21
4.76934530979634E-7
  0
LINE
  5
3F5
100
AcDbEntity
  8
DIM
100
AcDbLine
  6
BYLAYER
 62
0
370
  -2
 10
73.3497610654587
 20
6.93848811715834
 11
73.3497610654587
 21
4.76934530979634E-7
  0
LINE
  5
3F6
100
AcDbEntity
  8
DIM
100
AcDbLine
  6
BYLAYER
 62
0
370
  -2
 10
52.5297610654587
 20
0.180000476934524
 11
62.3097610654587
 21
0.180000476934524
  0
LINE
  5
3F7
100
AcDbEntity
  8
DIM
100
AcDbLine
  6
BYLAYER
 62
0
370
  -2
 10
73.1697610654587
 20
0.180000476934524
 11
63.3897610654587
 21
0.180000476934524
  0
SOLID
  5
3F8
100
AcDbEntity
  8
DIM
100
AcDbTrace
 10
52.3497610654587
 20
0.180000476934524
 30
0.0
 11
52.5297610654587
 21
0.150000476934522
 31
0.0
 12
52.5297610654587
 22
0.210000476934525
 32
0.0
 13
52.5297610654587
 23
0.210000476934525
 33
0.0
  0
SOLID
  5
3F9
100
AcDbEntity
  8
DIM
100
AcDbTrace
 10
73.1697610654587
 20
0.210000476934525
 30
0.0
 11
73.1697610654587
 21
0.150000476934522
 31
0.0
 12
73.3497610654587
 22
0.180000476934524
 32
0.0
 13
73.3497610654587
 23
0.180000476934524
 33
0.0
  0
TEXT
  5
3FA
100
AcDbEntity
  8
DIM
 62
0
100
AcDbText
  6
BYLAYER
 62
0
 10
62.5347610654587
 20
0.0900004769345236
 40
0.18
  1
21.0000
  7
Font_0
 72
1
 11
62.8497610654587
 21
0.180000476934524
100
AcDbText
 73
2
  0
LINE
  5
3FB
100
AcDbEntity
  8
DIM
100
AcDbLine
  6
BYLAYER
 62
0
370
  -2
 10
65.3497610654587
 20
31.5634881171583
 11
65.3497610654587
 21
35.4088867475892
  0
LINE
  5
3FC
100
AcDbEntity
  8
DIM
100
AcDbLine
  6
BYLAYER
 62
0
370
  -2
 10
73.3497610654587
 20
31.0634881171583
 11
73.3497610654587
 21
35.4088867475892
  0
LINE
  5
3FD
100
AcDbEntity
  8
DIM
100
AcDbLine
  6
BYLAYER
 62
0
370
  -2
 10
65.5297610654587
 20
35.2288867475892
 11
68.8697610654587
 21
35.2288867475892
  0
LINE
  5
3FE
100
AcDbEntity
  8
DIM
100
AcDbLine
  6
BYLAYER
 62
0
370
  -2
 10
73.1697610654587
 20
35.2288867475892
 11
69.8297610654587
 21
35.2288867475892
  0
SOLID
  5
3FF
100
AcDbEntity
  8
DIM
100
AcDbTrace
 10
65.3497610654587
 20
35.2288867475892
 30
0.0
 11
65.5297610654587
 21
35.1988867475892
 31
0.0
 12
65.5297610654587
 22
35.2588867475892
 32
0.0
 13
65.5297610654587
 23
35.2588867475892
 33
0.0
  0
SOLID
  5
400
100
AcDbEntity
  8
DIM
100
AcDbTrace
 10
73.1697610654587
 20
35.2588867475892
 30
0.0
 11
73.1697610654587
 21
35.1988867475892
 31
0.0
 12
73.3497610654587
 22
35.2288867475892
 32
0.0
 13
73.3497610654587
 23
35.2288867475892
 33
0.0
  0
TEXT
  5
401
100
AcDbEntity
  8
DIM
 62
0
100
AcDbText
  6
BYLAYER
 62
0
 10
69.0797610654587
 20
35.1388867475892
 40
0.18
  1
8.0000
  7
Font_0
 72
1
 11
69.3497610654587
 21
35.2288867475892
100
AcDbText
 73
2
  0
LINE
  5
402
100
AcDbEntity
  8
BASE
100
AcDbLine
  6
BYLAYER
 10
52.3497610654588
 20
27.2289285856908
 11
52.3497610654588
 21
10.773047648626
  0
LINE
  5
403
100
AcDbEntity
  8
DIM
100
AcDbLine
  6
BYLAYER
 62
0
370
  -2
 10
54.2872610654587
 20
26.5009881171583
 11
48.3699477433158
 21
26.5009881171583
  0
LINE
  5
404
100
AcDbEntity
  8
DIM
100
AcDbLine
  6
BYLAYER
 62
0
370
  -2
 10
54.2872610654587
 20
11.5009881171583
 11
48.3699477433158
 21
11.5009881171583
  0
LINE
  5
405
100
AcDbEntity
  8
DIM
100
AcDbLine
  6
BYLAYER
 62
0
370
  -2
 10
48.5499477433158
 20
26.3209881171583
 11
48.5499477433158
 21
19.1809881171583
  0
LINE
  5
406
100
AcDbEntity
  8
DIM
100
AcDbLine
  6
BYLAYER
 62
0
370
  -2
 10
48.5499477433158
 20
11.6809881171583
 11
48.5499477433158
 21
18.8209881171583
  0
SOLID
  5
407
100
AcDbEntity
  8
DIM
100
AcDbTrace
 10
48.5199477433158
 20
26.3209881171583
 30
0.0
 11
48.5799477433158
 21
26.3209881171583
 31
0.0
 12
48.5499477433158
 22
26.5009881171583
 32
0.0
 13
48.5499477433158
 23
26.5009881171583
 33
0.0
  0
SOLID
  5
408
100
AcDbEntity
  8
DIM
100
AcDbTrace
 10
48.5499477433158
 20
11.5009881171583
 30
0.0
 11
48.5799477433158
 21
11.6809881171583
 31
0.0
 12
48.5199477433158
 22
11.6809881171583
 32
0.0
 13
48.5199477433158
 23
11.6809881171583
 33
0.0
  0
TEXT
  5
409
100
AcDbEntity
  8
DIM
 62
0
100
AcDbText
  6
BYLAYER
 62
0
 10
48.3699477433157
 20
18.9109881171583
 40
0.18
  1
Φ15
  7
Font_0
 72
1
 11
48.5499477433157
 21
19.0009881171583
100
AcDbText
 73
2
  0
LINE
  5
40A
100
AcDbEntity
  8
CEN
100
AcDbLine
  6
BYLAYER
 10
14.9999989478504
 20
34.0009881171584
 11
14.9999989478504
 21
4.00098811715838
  0
LINE
  5
40B
100
AcDbEntity
  8
DIM
100
AcDbLine
  6
BYLAYER
 62
0
370
  -2
 10
52.7872610654587
 20
28.0009881171583
 11
44.3126344211728
 21
28.0009881171583
  0
LINE
  5
40C
100
AcDbEntity
  8
DIM
100
AcDbLine
  6
BYLAYER
 62
0
370
  -2
 10
52.7872610654587
 20
10.0009881171583
 11
44.3126344211728
 21
10.0009881171583
  0
LINE
  5
40D
100
AcDbEntity
  8
DIM
100
AcDbLine
  6
BYLAYER
 62
0
370
  -2
 10
44.4926344211728
 20
27.8209881171583
 11
44.4926344211728
 21
19.1809881171583
  0
LINE
  5
40E
100
AcDbEntity
  8
DIM
100
AcDbLine
  6
BYLAYER
 62
0
370
  -2
 10
44.4926344211728
 20
10.1809881171583
 11
44.4926344211728
 21
18.8209881171583
  0
SOLID
  5
40F
100
AcDbEntity
  8
DIM
100
AcDbTrace
 10
44.4626344211728
 20
27.8209881171583
 30
0.0
 11
44.5226344211728
 21
27.8209881171583
 31
0.0
 12
44.4926344211728
 22
28.0009881171583
 32
0.0
 13
44.4926344211728
 23
28.0009881171583
 33
0.0
  0
SOLID
  5
410
100
AcDbEntity
  8
DIM
100
AcDbTrace
 10
44.4926344211728
 20
10.0009881171583
 30
0.0
 11
44.5226344211728
 21
10.1809881171583
 31
0.0
 12
44.4626344211728
 22
10.1809881171583
 32
0.0
 13
44.4626344211728
 23
10.1809881171583
 33
0.0
  0
TEXT
  5
411
100
AcDbEntity
  8
DIM
 62
0
100
AcDbText
  6
BYLAYER
 62
0
 10
44.3126344211728
 20
18.9109881171583
 40
0.18
  1
Φ18
  7
Font_0
 72
1
 11
44.4926344211728
 21
19.0009881171583
100
AcDbText
 73
2
  0
LINE
  5
412
100
AcDbEntity
  8
DIM
100
AcDbLine
  6
BYLAYER
 62
0
370
  -2
 10
18.304178717982
 20
14.0432567041127
 11
18.124178717982
 21
14.0432567041127
  0
LINE
  5
413
100
AcDbEntity
  8
DIM
100
AcDbLine
  6
BYLAYER
 62
0
370
  -2
 10
18.124178717982
 20
14.0432567041127
 11
18.028214151664
 21
14.1955419693598
  0
TEXT
  5
414
100
AcDbEntity
  8
DIM
 62
0
100
AcDbText
  6
BYLAYER
 62
0
 10
18.859178717982
 20
13.9532567041127
 40
0.18
  1
φ11.0000
  7
Font_0
 72
1
 11
19.264178717982
 21
14.0432567041127
100
AcDbText
 73
2
  0
SOLID
  5
415
100
AcDbEntity
  8
DIM
100
AcDbTrace
 10
17.9322495853459
 20
14.347827234607
 30
0.0
 11
18.0028332741228
 21
14.1795478749735
 31
0.0
 12
18.0535950292052
 22
14.2115360637462
 32
0.0
 13
18.0535950292052
 23
14.2115360637462
 33
0.0
  0
LINE
  5
416
100
AcDbEntity
  8
DIM
100
AcDbLine
  6
BYLAYER
 62
0
370
  -2
 10
14.9099989478502
 20
19.0009881171583
 11
15.0899989478502
 21
19.0009881171583
  0
LINE
  5
417
100
AcDbEntity
  8
DIM
100
AcDbLine
  6
BYLAYER
 62
0
370
  -2
 10
14.9999989478503
 20
18.9109881171583
 11
14.9999989478502
 21
19.0909881171583
  0
CIRCLE
  5
418
100
AcDbEntity
  8
BASE
100
AcDbCircle
  6
BYLAYER
 10
14.9999989478504
 20
19.0009881171584
 40
12.5
  0
CIRCLE
  5
419
100
AcDbEntity
  8
BASE
100
AcDbCircle
  6
BYLAYER
 10
14.9999989478504
 20
19.0009881171584
 40
9
  0
CIRCLE
  5
41A
100
AcDbEntity
  8
BASE
100
AcDbCircle
  6
BYLAYER
 10
14.9999989478504
 20
19.0009881171584
 40
5.5
  0
CIRCLE
  5
41B
100
AcDbEntity
  8
BASE
100
AcDbCircle
  6
BYLAYER
 10
14.9999989478504
 20
19.0009881171584
 40
7.5
  0
LINE
  5
41C
100
AcDbEntity
  8
DIM
100
AcDbLine
  6
BYLAYER
 62
0
370
  -2
 10
9.605148122294
 20
30.756196786816
 11
9.78514812229399
 21
30.756196786816
  0
LINE
  5
41D
100
AcDbEntity
  8
DIM
100
AcDbLine
  6
BYLAYER
 62
0
370
  -2
 10
9.78514812229399
 20
30.756196786816
 11
9.85813981347599
 21
30.5916604290758
  0
TEXT
  5
41E
100
AcDbEntity
  8
DIM
 62
0
100
AcDbText
  6
BYLAYER
 62
0
 10
8.54014812229399
 20
30.6661967868159
 40
0.18
  1
φ25.0000
  7
Font_0
 72
1
 11
8.94514812229399
 21
30.7561967868159
100
AcDbText
 73
2
  0
SOLID
  5
41F
100
AcDbEntity
  8
DIM
100
AcDbTrace
 10
9.885562539766
 20
30.6038257109395
 30
0.0
 11
9.83071708718599
 21
30.5794951472122
 31
0.0
 12
9.931131504658
 22
30.4271240713357
 32
0.0
 13
9.931131504658
 23
30.4271240713357
 33
0.0
  0
LINE
  5
420
100
AcDbEntity
  8
DIM
100
AcDbLine
  6
BYLAYER
 62
0
370
  -2
 10
14.9099989478503
 20
19.0009881171583
 11
15.0899989478503
 21
19.0009881171583
  0
LINE
  5
421
100
AcDbEntity
  8
DIM
100
AcDbLine
  6
BYLAYER
 62
0
370
  -2
 10
14.9999989478504
 20
18.9109881171583
 11
14.9999989478504
 21
19.0909881171583
  0
LINE
  5
422
100
AcDbEntity
  8
BASE
100
AcDbLine
  6
BYLAYER
 10
56.3497610654588
 20
7.00098811715838
 11
56.3497610654588
 21
10.0009881171584
  0
LINE
  5
423
100
AcDbEntity
  8
BASE
100
AcDbLine
  6
BYLAYER
 10
56.3497610654588
 20
7.00098811715838
 11
56.8497610654588
 21
6.50098811715838
  0
LINE
  5
424
100
AcDbEntity
  8
HIDDEN
100
AcDbLine
  6
BYLAYER
 10
56.3497610654588
 20
11.5009881171584
 11
56.3497610654588
 21
13.0009881171584
  0
LINE
  5
425
100
AcDbEntity
  8
HIDDEN
100
AcDbLine
  6
BYLAYER
 10
56.3497610654588
 20
13.0009881171584
 11
56.8497610654588
 21
13.5009881171584
  0
LINE
  5
426
100
AcDbEntity
  8
BASE
100
AcDbLine
  6
BYLAYER
 10
52.3497610654588
 20
10.5009881171584
 11
52.3497610654588
 21
10.773047648626
  0
LINE
  5
427
100
AcDbEntity
  8
BASE
100
AcDbLine
  6
BYLAYER
 10
52.8497610654588
 20
10.0009881171584
 11
52.3497610654588
 21
10.5009881171584
  0
LINE
  5
428
100
AcDbEntity
  8
HIDDEN
100
AcDbLine
  6
BYLAYER
 10
54.3497610654588
 20
11.5009881171584
 11
52.3497610654588
 21
10.773047648626
  0
LINE
  5
429
100
AcDbEntity
  8
BASE
100
AcDbLine
  6
BYLAYER
 10
52.8497610654588
 20
10.0009881171584
 11
56.3497610654588
 21
10.0009881171584
  0
LINE
  5
42A
100
AcDbEntity
  8
HIDDEN
100
AcDbLine
  6
BYLAYER
 10
54.3497610654587
 20
11.5009881171584
 11
56.3497610654588
 21
11.5009881171584
  0
TEXT
  5
42B
100
AcDbEntity
  8
DIM
100
AcDbText
  6
BYLAYER
 10
39.4059876884986
 20
36.6122833856465
 40
2
  1
M6x1.0x10L､ｺ､ｻｨ､ﾁｳｵｷ
  7
Font_0
 72
2
 11
59.4059876884986
 21
36.6122833856465
100
AcDbText
  0
LINE
  5
42C
100
AcDbEntity
  8
CEN
100
AcDbLine
  6
BYLAYER
 10
-1.0521496279E-6
 20
19.0009881171584
 11
29.9999989478504
 21
19.0009881171584
  0
LINE
  5
42D
100
AcDbEntity
  8
HIDDEN
100
AcDbLine
  6
BYLAYER
 10
14.9999989478504
 20
24.5009881171584
 11
14.9999989478504
 21
31.5009881171584
  0
LINE
  5
42E
100
AcDbEntity
  8
HIDDEN
100
AcDbLine
  6
BYLAYER
 10
12.7999989478504
 20
24.0418213816098
 11
12.7999989478504
 21
31.3058651990313
  0
LINE
  5
42F
100
AcDbEntity
  8
HIDDEN
100
AcDbLine
  6
BYLAYER
 10
11.9999989478504
 20
23.6107603458048
 11
11.9999989478504
 21
31.13564921667
  0
LINE
  5
430
100
AcDbEntity
  8
HIDDEN
100
AcDbLine
  6
BYLAYER
 10
17.1999989478504
 20
24.0418213816098
 11
17.1999989478504
 21
31.3058651990313
  0
LINE
  5
431
100
AcDbEntity
  8
HIDDEN
100
AcDbLine
  6
BYLAYER
 10
17.9999989478504
 20
23.6107603458048
 11
17.9999989478504
 21
31.13564921667
  0
LINE
  5
432
100
AcDbEntity
  8
CEN
100
AcDbLine
  6
BYLAYER
 10
65.3497610654588
 20
31.5009881171584
 11
65.3497610654588
 21
24.5009881171584
  0
LINE
  5
433
100
AcDbEntity
  8
BASE
100
AcDbLine
  6
BYLAYER
 10
62.3497610654588
 20
31.5009881171584
 11
62.3497610654588
 21
24.5009881171584
  0
LINE
  5
434
100
AcDbEntity
  8
BASE
100
AcDbLine
  6
BYLAYER
 10
68.3497610654588
 20
31.5009881171584
 11
68.3497610654588
 21
24.5009881171584
  0
LINE
  5
435
100
AcDbEntity
  8
BASE
100
AcDbLine
  6
BYLAYER
 10
56.8497610654588
 20
24.5009881171584
 11
56.3497610654588
 21
25.0009881171584
  0
LINE
  5
436
100
AcDbEntity
  8
DIM
100
AcDbLine
  6
BYLAYER
 62
0
370
  -2
 10
52.3497610654587
 20
27.1664285856907
 11
52.3497610654587
 21
23.0349796425414
  0
LINE
  5
437
100
AcDbEntity
  8
DIM
100
AcDbLine
  6
BYLAYER
 62
0
370
  -2
 10
56.3497610654587
 20
26.4384881171583
 11
56.3497610654587
 21
23.0349796425414
  0
LINE
  5
438
100
AcDbEntity
  8
DIM
100
AcDbLine
  6
BYLAYER
 62
0
370
  -2
 10
52.5297610654587
 20
23.2149796425414
 11
53.8697610654587
 21
23.2149796425414
  0
LINE
  5
439
100
AcDbEntity
  8
DIM
100
AcDbLine
  6
BYLAYER
 62
0
370
  -2
 10
56.1697610654587
 20
23.2149796425414
 11
54.8297610654587
 21
23.2149796425414
  0
SOLID
  5
43A
100
AcDbEntity
  8
DIM
100
AcDbTrace
 10
52.3497610654587
 20
23.2149796425414
 30
0.0
 11
52.5297610654587
 21
23.1849796425414
 31
0.0
 12
52.5297610654587
 22
23.2449796425414
 32
0.0
 13
52.5297610654587
 23
23.2449796425414
 33
0.0
  0
SOLID
  5
43B
100
AcDbEntity
  8
DIM
100
AcDbTrace
 10
56.1697610654587
 20
23.2449796425414
 30
0.0
 11
56.1697610654587
 21
23.1849796425414
 31
0.0
 12
56.3497610654587
 22
23.2149796425414
 32
0.0
 13
56.3497610654587
 23
23.2149796425414
 33
0.0
  0
TEXT
  5
43C
100
AcDbEntity
  8
DIM
 62
0
100
AcDbText
  6
BYLAYER
 62
0
 10
54.0797610654587
 20
23.1249796425414
 40
0.18
  1
4.0000
  7
Font_0
 72
1
 11
54.3497610654587
 21
23.2149796425414
100
AcDbText
 73
2
  0
LINE
  5
43D
100
AcDbEntity
  8
BASE
100
AcDbLine
  6
BYLAYER
 10
56.3497610654588
 20
31.0009881171584
 11
56.3497610654588
 21
28.0009881171584
  0
LINE
  5
43E
100
AcDbEntity
  8
BASE
100
AcDbLine
  6
BYLAYER
 10
56.3497610654588
 20
31.0009881171584
 11
56.8497610654588
 21
31.5009881171584
  0
LINE
  5
43F
100
AcDbEntity
  8
BASE
100
AcDbLine
  6
BYLAYER
 10
52.3497610654588
 20
27.5009881171584
 11
52.3497610654588
 21
27.2289285856908
  0
LINE
  5
440
100
AcDbEntity
  8
BASE
100
AcDbLine
  6
BYLAYER
 10
52.8497610654588
 20
28.0009881171584
 11
52.3497610654588
 21
27.5009881171584
  0
LINE
  5
441
100
AcDbEntity
  8
BASE
100
AcDbLine
  6
BYLAYER
 10
52.8497610654588
 20
28.0009881171584
 11
56.3497610654588
 21
28.0009881171584
  0
LINE
  5
442
100
AcDbEntity
  8
BASE
100
AcDbLine
  6
BYLAYER
 10
56.3497610654588
 20
26.5009881171584
 11
56.3497610654588
 21
25.0009881171584
  0
LINE
  5
443
100
AcDbEntity
  8
BASE
100
AcDbLine
  6
BYLAYER
 10
54.3497610654587
 20
26.5009881171584
 11
56.3497610654588
 21
26.5009881171584
  0
LINE
  5
444
100
AcDbEntity
  8
BASE
100
AcDbLine
  6
BYLAYER
 10
54.3497610654588
 20
26.5009881171584
 11
52.3497610654588
 21
27.2289285856908
  0
LINE
  5
445
100
AcDbEntity
  8
BASE
100
AcDbLine
  6
BYLAYER
 10
73.3497610654588
 20
25.0009881171584
 11
73.3497610654588
 21
13.0009881171584
  0
LINE
  5
446
100
AcDbEntity
  8
BASE
100
AcDbLine
  6
BYLAYER
 10
73.3497610654588
 20
7.00098811715838
 11
73.3497610654588
 21
13.0009881171584
  0
LINE
  5
447
100
AcDbEntity
  8
BASE
100
AcDbLine
  6
BYLAYER
 10
72.8497610654588
 20
6.50098811715838
 11
73.3497610654588
 21
7.00098811715838
  0
LINE
  5
448
100
AcDbEntity
  8
HIDDEN
100
AcDbLine
  6
BYLAYER
 10
72.8497610654588
 20
13.5009881171584
 11
73.3497610654588
 21
13.0009881171584
  0
LINE
  5
449
100
AcDbEntity
  8
BASE
100
AcDbLine
  6
BYLAYER
 10
72.8497610654588
 20
24.5009881171584
 11
73.3497610654588
 21
25.0009881171584
  0
LINE
  5
44A
100
AcDbEntity
  8
BASE
100
AcDbLine
  6
BYLAYER
 10
72.8497610654588
 20
31.5009881171584
 11
73.3497610654588
 21
31.0009881171584
  0
LINE
  5
44B
100
AcDbEntity
  8
BASE
100
AcDbLine
  6
BYLAYER
 10
73.3497610654588
 20
31.0009881171584
 11
73.3497610654588
 21
25.0009881171584
  0
ENDBLK
  5
44C
100
AcDbEntity
  8
0
 67
     1
100
AcDbBlockEnd
  0
BLOCK
  5
44D
100
AcDbEntity
  8
0
100
AcDbBlockBegin
  2
A
 70
    0
 10
0
 20
0
 30
0.0
  3
A
  1

  0
TEXT
  5
44E
100
AcDbEntity
  8
0
100
AcDbText
  6
BYLAYER
 10
127.674651975441
 20
244.795661972877
 40
2.5
  1
a
  7
Font_0
100
AcDbText
  0
LWPOLYLINE
  5
44F
100
AcDbEntity
  8
0
100
AcDbPolyline
  6
BYLAYER
370
0
 90
     3
 70
     1
 10
126.71643944311
  20
244.632620693086
 10
129.71643944311
  20
244.632620693086
 10
128.21643944311
  20
247.230696904439
  0
ENDBLK
  5
450
100
AcDbEntity
  8
0
 67
     1
100
AcDbBlockEnd
  0
BLOCK
  5
451
100
AcDbEntity
  8
0
100
AcDbBlockBegin
  2
B
 70
    0
 10
0
 20
0
 30
0.0
  3
B
  1

  0
LWPOLYLINE
  5
452
100
AcDbEntity
  8
0
100
AcDbPolyline
  6
BYLAYER
370
0
 90
     3
 70
     1
 10
131.70249874082
  20
244.288443720077
 10
135.28174293015
  20
244.288443720077
 10
133.492120835485
  20
247.388160114384
  0
TEXT
  5
453
100
AcDbEntity
  8
0
100
AcDbText
  6
BYLAYER
 10
132.758464625955
 20
244.383450143826
 40
2.5
  1
b
  7
Font_0
100
AcDbText
  0
ENDBLK
  5
454
100
AcDbEntity
  8
0
 67
     1
100
AcDbBlockEnd
  0
BLOCK
  5
455
100
AcDbEntity
  8
0
100
AcDbBlockBegin
  2
C
 70
    0
 10
0
 20
0
 30
0.0
  3
C
  1

  0
LWPOLYLINE
  5
456
100
AcDbEntity
  8
0
100
AcDbPolyline
  6
BYLAYER
370
0
 90
     3
 70
     1
 10
135.509916074992
  20
244.473484482901
 10
139.001038434513
  20
244.473484482901
 10
137.255477254752
  20
247.496885133966
  0
TEXT
  5
457
100
AcDbEntity
  8
0
100
AcDbText
  6
BYLAYER
 10
136.382181305809
 20
244.594791834341
 40
2.5
  1
c
  7
Font_0
100
AcDbText
  0
ENDBLK
  5
458
100
AcDbEntity
  8
0
 67
     1
100
AcDbBlockEnd
  0
BLOCK
  5
459
100
AcDbEntity
  8
0
100
AcDbBlockBegin
  2
D
 70
    0
 10
0
 20
0
 30
0.0
  3
D
  1

  0
LWPOLYLINE
  5
45A
100
AcDbEntity
  8
0
100
AcDbPolyline
  6
BYLAYER
370
0
 90
     3
 70
     1
 10
140.763374439689
  20
244.465698913845
 10
144.291976798415
  20
244.465698913845
 10
142.527675619052
  20
247.521558196355
  0
TEXT
  5
45B
100
AcDbEntity
  8
0
100
AcDbText
  6
BYLAYER
 10
141.593202675708
 20
244.519464650768
 40
2.5
  1
d
  7
Font_0
100
AcDbText
  0
ENDBLK
  5
45C
100
AcDbEntity
  8
0
 67
     1
100
AcDbBlockEnd
  0
BLOCK
  5
45D
100
AcDbEntity
  8
0
100
AcDbBlockBegin
  2
A4ｹﾏｮﾘ_JAME_
 70
    0
 10
0
 20
0
 30
0.0
  3
A4ｹﾏｮﾘ_JAME_
  1

  0
POINT
  5
45E
100
AcDbEntity
  8
7475A
100
AcDbPoint
 10
289
 20
0
  0
TEXT
  5
45F
100
AcDbEntity
  8
0
100
AcDbText
  6
BYLAYER
 10
3.82484782096731
 20
38.4479746826859
 40
5
  1
ｦCｦL､魘ﾁ :
  7
Font_0
100
AcDbText
  0
LINE
  5
460
100
AcDbEntity
  8
0
100
AcDbLine
  6
BYLAYER
 10
49.4
 20
12
 11
49.4
 21
6
  0
TEXT
  5
461
100
AcDbEntity
  8
TEXT
100
AcDbText
  6
BYLAYER
 10
129
 20
19
 40
3.5
  1
JAME
  7
Font_0
100
AcDbText
  0
TEXT
  5
462
100
AcDbEntity
  8
TEXT
100
AcDbText
  6
BYLAYER
 10
179
 20
7
 40
3.5
 41
0.8
  1
20020101
  7
Font_0
100
AcDbText
  0
TEXT
  5
463
100
AcDbEntity
  8
TEXT
100
AcDbText
  6
BYLAYER
 10
179
 20
19
 40
3.5
  1
M/M
  7
Font_0
100
AcDbText
  0
TEXT
  5
464
100
AcDbEntity
  8
TEXT
100
AcDbText
  6
BYLAYER
 10
179
 20
25
 40
3.5
  1
1
  7
Font_0
100
AcDbText
  0
INSERT
  5
465
100
AcDbEntity
  8
0
100
AcDbBlockReference
  6
CONTINUOUS
  2
JAME
 10
0
 20
0
 30
0.0
  0
ENDBLK
  5
466
100
AcDbEntity
  8
0
 67
     1
100
AcDbBlockEnd
  0
BLOCK
  5
467
100
AcDbEntity
  8
0
100
AcDbBlockBegin
  2
A$C610B27C0
 70
    0
 10
0
 20
0
 30
0.0
  3
A$C610B27C0
  1

  0
ARC
  5
468
100
AcDbEntity
  8
BASE
100
AcDbCircle
  6
BYLAYER
 10
215.149954912736
 20
226.592714934776
 40
120
100
AcDbArc
 50
318.255194085577
 51
221.744805914423
  0
CIRCLE
  5
469
100
AcDbEntity
  8
BASE
100
AcDbCircle
  6
BYLAYER
 10
215.149954912736
 20
226.592714934776
 40
80
  0
CIRCLE
  5
46A
100
AcDbEntity
  8
0
100
AcDbCircle
  6
BYLAYER
 10
137.368208982216
 20
304.374460865297
 40
2.6
  0
CIRCLE
  5
46B
100
AcDbEntity
  8
0
100
AcDbCircle
  6
BYLAYER
 10
215.149954912737
 20
336.592714934777
 40
2.6
  0
CIRCLE
  5
46C
100
AcDbEntity
  8
0
100
AcDbCircle
  6
BYLAYER
 10
292.931700843257
 20
304.374460865297
 40
2.6
  0
CIRCLE
  5
46D
100
AcDbEntity
  8
BASE
100
AcDbCircle
  6
BYLAYER
 10
105.149954912736
 20
226.592714934777
 40
2.6
  0
CIRCLE
  5
46E
100
AcDbEntity
  8
BASE
100
AcDbCircle
  6
BYLAYER
 10
137.368208982215
 20
148.810969004256
 40
2.6
  0
CIRCLE
  5
46F
100
AcDbEntity
  8
BASE
100
AcDbCircle
  6
BYLAYER
 10
215.149954912736
 20
226.592714934776
 40
7
  0
CIRCLE
  5
470
100
AcDbEntity
  8
BASE
100
AcDbCircle
  6
BYLAYER
 10
325.149954912736
 20
226.592714934776
 40
2.6
  0
CIRCLE
  5
471
100
AcDbEntity
  8
BASE
100
AcDbCircle
  6
BYLAYER
 10
215.149954912736
 20
116.592714934776
 40
2.6
  0
CIRCLE
  5
472
100
AcDbEntity
  8
BASE
100
AcDbCircle
  6
BYLAYER
 10
292.931700843256
 20
148.810969004256
 40
2.6
  0
LINE
  5
473
100
AcDbEntity
  8
BASE
100
AcDbLine
  6
BYLAYER
 10
764.040448505352
 20
269.792722384776
 11
764.04044850535
 21
321.342714934776
  0
LINE
  5
474
100
AcDbEntity
  8
BASE
100
AcDbLine
  6
BYLAYER
 10
759.22794850535
 20
318.442714934776
 11
759.22794850535
 21
269.792722384776
  0
LINE
  5
475
100
AcDbEntity
  8
BASE
100
AcDbLine
  6
BYLAYER
 10
766.04044850535
 20
269.792722384776
 11
766.04044850535
 21
321.342714934776
  0
LINE
  5
476
100
AcDbEntity
  8
BASE
100
AcDbLine
  6
BYLAYER
 10
778.04044850535
 20
401.592662784776
 11
778.04044850535
 21
201.592722384776
  0
LINE
  5
477
100
AcDbEntity
  8
BASE
100
AcDbLine
  6
BYLAYER
 10
803.04044850535
 20
431.592692584776
 11
803.04044850535
 21
171.592692584776
  0
LINE
  5
478
100
AcDbEntity
  8
BASE
100
AcDbLine
  6
BYLAYER
 10
661.22794850535
 20
318.442714934776
 11
661.22794850535
 21
269.792722384776
  0
LINE
  5
479
100
AcDbEntity
  8
BASE
100
AcDbLine
  6
BYLAYER
 10
576.85294850535
 20
318.442714934776
 11
576.85294850535
 21
269.792722384776
  0
LINE
  5
47A
100
AcDbEntity
  8
BASE
100
AcDbLine
  6
BYLAYER
 10
674.85294850535
 20
318.442714934776
 11
674.85294850535
 21
269.792722384776
  0
LINE
  5
47B
100
AcDbEntity
  8
BASE
100
AcDbLine
  6
BYLAYER
 10
670.040448505349
 20
269.792722384776
 11
670.04044850535
 21
321.342714934776
  0
LINE
  5
47C
100
AcDbEntity
  8
BASE
100
AcDbLine
  6
BYLAYER
 10
668.040448505351
 20
269.792722384776
 11
668.040448505351
 21
321.342714934776
  0
LINE
  5
47D
100
AcDbEntity
  8
BASE
100
AcDbLine
  6
BYLAYER
 10
572.040448505349
 20
269.792722384776
 11
572.04044850535
 21
321.342714934776
  0
LINE
  5
47E
100
AcDbEntity
  8
BASE
100
AcDbLine
  6
BYLAYER
 10
570.04044850535
 20
269.792722384776
 11
570.04044850535
 21
321.342714934776
  0
LINE
  5
47F
100
AcDbEntity
  8
BASE
100
AcDbLine
  6
BYLAYER
 10
668.04044850535
 20
269.792722384776
 11
668.04044850535
 21
321.342714934776
  0
LINE
  5
480
100
AcDbEntity
  8
BASE
100
AcDbLine
  6
BYLAYER
 10
666.040448505351
 20
269.792722384776
 11
666.04044850535
 21
321.342714934776
  0
LINE
  5
481
100
AcDbEntity
  8
DIM
100
AcDbLine
  6
BYLAYER
 62
0
370
  -2
 10
540.540448505351
 20
166.592692584777
 11
473.957445375687
 21
166.592692584777
  0
LINE
  5
482
100
AcDbEntity
  8
DIM
100
AcDbLine
  6
BYLAYER
 62
0
370
  -2
 10
535.54044850535
 20
436.592692584777
 11
473.957445375687
 21
436.592692584777
  0
LINE
  5
483
100
AcDbEntity
  8
DIM
100
AcDbLine
  6
BYLAYER
 62
0
370
  -2
 10
476.457445375687
 20
179.092692584777
 11
476.457445375687
 21
282.842692584776
  0
LINE
  5
484
100
AcDbEntity
  8
DIM
100
AcDbLine
  6
BYLAYER
 62
0
370
  -2
 10
476.457445375687
 20
424.092692584777
 11
476.457445375687
 21
320.342692584776
  0
SOLID
  5
485
100
AcDbEntity
  8
DIM
100
AcDbTrace
 10
476.457445375687
 20
166.592692584777
 30
0.0
 11
478.54077870902
 21
179.092692584777
 31
0.0
 12
474.374112042354
 22
179.092692584777
 32
0.0
 13
474.374112042354
 23
179.092692584777
 33
0.0
  0
SOLID
  5
486
100
AcDbEntity
  8
DIM
100
AcDbTrace
 10
474.374112042354
 20
424.092692584777
 30
0.0
 11
478.54077870902
 21
424.092692584777
 31
0.0
 12
476.457445375687
 22
436.592692584777
 32
0.0
 13
476.457445375687
 23
436.592692584777
 33
0.0
  0
TEXT
  5
487
100
AcDbEntity
  8
DIM
 62
0
100
AcDbText
  6
BYLAYER
 62
0
 10
482.707445375688
 20
292.217692584777
 40
12.5
  1
270
  7
Font_0
 50
90
 72
1
 11
476.457445375688
 21
301.592692584777
100
AcDbText
 73
2
  0
LINE
  5
488
100
AcDbEntity
  8
DIM
100
AcDbLine
  6
BYLAYER
 62
0
370
  -2
 10
540.540448505351
 20
176.592692584777
 11
495.067658839304
 21
176.592692584777
  0
LINE
  5
489
100
AcDbEntity
  8
DIM
100
AcDbLine
  6
BYLAYER
 62
0
370
  -2
 10
540.540448505351
 20
301.592692584777
 11
495.067658839304
 21
301.592692584777
  0
LINE
  5
48A
100
AcDbEntity
  8
DIM
100
AcDbLine
  6
BYLAYER
 62
0
370
  -2
 10
497.567658839304
 20
189.092692584777
 11
497.567658839304
 21
216.859883274447
  0
LINE
  5
48B
100
AcDbEntity
  8
DIM
100
AcDbLine
  6
BYLAYER
 62
0
370
  -2
 10
497.567658839304
 20
289.092692584777
 11
497.567658839304
 21
252.276549941114
  0
SOLID
  5
48C
100
AcDbEntity
  8
DIM
100
AcDbTrace
 10
497.567658839304
 20
176.592692584777
 30
0.0
 11
499.650992172637
 21
189.092692584777
 31
0.0
 12
495.48432550597
 22
189.092692584777
 32
0.0
 13
495.48432550597
 23
189.092692584777
 33
0.0
  0
SOLID
  5
48D
100
AcDbEntity
  8
DIM
100
AcDbTrace
 10
495.48432550597
 20
289.092692584777
 30
0.0
 11
499.650992172637
 21
289.092692584777
 31
0.0
 12
497.567658839304
 22
301.592692584777
 32
0.0
 13
497.567658839304
 23
301.592692584777
 33
0.0
  0
TEXT
  5
48E
100
AcDbEntity
  8
DIM
 62
0
100
AcDbText
  6
BYLAYER
 62
0
 10
503.817658839304
 20
225.193216607781
 40
12.5
  1
125
  7
Font_0
 50
90
 72
1
 11
497.567658839304
 21
234.568216607781
100
AcDbText
 73
2
  0
LINE
  5
48F
100
AcDbEntity
  8
BASE
100
AcDbLine
  6
BYLAYER
 10
533.04044850535
 20
176.592692584776
 11
533.04044850535
 21
431.592692584776
  0
LINE
  5
490
100
AcDbEntity
  8
BASE
100
AcDbLine
  6
BYLAYER
 10
376.649907232736
 20
166.592692584776
 11
376.649907232736
 21
436.592692584777
  0
LINE
  5
491
100
AcDbEntity
  8
BASE
100
AcDbLine
  6
BYLAYER
 10
655.843192398512
 20
286.837770652736
 11
661.22794850535
 21
284.337770652736
  0
LINE
  5
492
100
AcDbEntity
  8
BASE
100
AcDbLine
  6
BYLAYER
 10
655.843192398512
 20
289.734714143806
 11
661.22794850535
 21
287.234714143806
  0
LINE
  5
493
100
AcDbEntity
  8
BASE
100
AcDbLine
  6
BYLAYER
 10
655.843192398512
 20
296.057159646997
 11
661.22794850535
 21
293.557159646997
  0
LINE
  5
494
100
AcDbEntity
  8
BASE
100
AcDbLine
  6
BYLAYER
 10
655.843192398512
 20
298.421520839961
 11
661.22794850535
 21
295.921520839962
  0
LINE
  5
495
100
AcDbEntity
  8
BASE
100
AcDbLine
  6
BYLAYER
 10
655.843192398512
 20
307.822789106888
 11
661.22794850535
 21
305.322789106888
  0
LINE
  5
496
100
AcDbEntity
  8
BASE
100
AcDbLine
  6
BYLAYER
 10
655.843192398512
 20
308.956608212721
 11
661.22794850535
 21
306.456608212721
  0
LINE
  5
497
100
AcDbEntity
  8
BASE
100
AcDbLine
  6
BYLAYER
 10
655.843192398512
 20
314.755922674495
 11
661.22794850535
 21
312.255922674495
  0
LINE
  5
498
100
AcDbEntity
  8
BASE
100
AcDbLine
  6
BYLAYER
 10
655.843192398512
 20
315.423655174371
 11
661.22794850535
 21
312.923655174371
  0
LINE
  5
499
100
AcDbEntity
  8
BASE
100
AcDbLine
  6
BYLAYER
 10
655.843192398512
 20
319.51024206934
 11
661.22794850535
 21
317.01024206934
  0
LINE
  5
49A
100
AcDbEntity
  8
BASE
100
AcDbLine
  6
BYLAYER
 10
655.843192398512
 20
319.010261787667
 11
661.22794850535
 21
316.510261787667
  0
LINE
  5
49B
100
AcDbEntity
  8
BASE
100
AcDbLine
  6
BYLAYER
 10
655.843192398512
 20
320.456540505249
 11
661.22794850535
 21
317.956540505249
  0
LINE
  5
49C
100
AcDbEntity
  8
BASE
100
AcDbLine
  6
BYLAYER
 10
655.843192398512
 20
320.942714934776
 11
661.22794850535
 21
318.442714934776
  0
LINE
  5
49D
100
AcDbEntity
  8
BASE
100
AcDbLine
  6
BYLAYER
 10
655.843192398512
 20
303.045294126709
 11
661.22794850535
 21
300.545294126709
  0
LINE
  5
49E
100
AcDbEntity
  8
BASE
100
AcDbLine
  6
BYLAYER
 10
655.843192398512
 20
300.306013218706
 11
661.22794850535
 21
297.806013218706
  0
LINE
  5
49F
100
AcDbEntity
  8
DIM
100
AcDbLine
  6
BYLAYER
 62
0
370
  -2
 10
570.54044850535
 20
371.0955201819
 11
650.100966579388
 21
371.0955201819
  0
LINE
  5
4A0
100
AcDbEntity
  8
DIM
100
AcDbLine
  6
BYLAYER
 62
0
370
  -2
 10
765.54044850535
 20
371.0955201819
 11
687.600966579388
 21
371.0955201819
  0
SOLID
  5
4A1
100
AcDbEntity
  8
DIM
100
AcDbTrace
 10
558.040448505351
 20
371.0955201819
 30
0.0
 11
570.54044850535
 21
369.012186848567
 31
0.0
 12
570.54044850535
 22
373.178853515233
 32
0.0
 13
570.54044850535
 23
373.178853515233
 33
0.0
  0
SOLID
  5
4A2
100
AcDbEntity
  8
DIM
100
AcDbTrace
 10
765.54044850535
 20
373.178853515233
 30
0.0
 11
765.54044850535
 21
369.012186848567
 31
0.0
 12
778.04044850535
 22
371.0955201819
 32
0.0
 13
778.04044850535
 23
371.0955201819
 33
0.0
  0
TEXT
  5
4A3
100
AcDbEntity
  8
DIM
 62
0
100
AcDbText
  6
BYLAYER
 62
0
 10
659.475966579388
 20
364.8455201819
 40
12.5
  1
220
  7
Font_0
 72
1
 11
668.850966579388
 21
371.0955201819
100
AcDbText
 73
2
  0
LINE
  5
4A4
100
AcDbEntity
  8
BASE
100
AcDbLine
  6
BYLAYER
 10
558.04044850535
 20
401.592692584776
 11
778.04044850535
 21
401.592692584776
  0
LINE
  5
4A5
100
AcDbEntity
  8
BASE
100
AcDbLine
  6
BYLAYER
 10
538.04044850535
 20
436.592692584776
 11
798.04044850535
 21
436.592692584776
  0
LINE
  5
4A6
100
AcDbEntity
  8
BASE
100
AcDbLine
  6
BYLAYER
 10
375.149907232736
 20
436.592692584777
 11
376.649907232736
 21
436.592692584777
  0
ARC
  5
4A7
100
AcDbEntity
  8
BASE
100
AcDbCircle
  6
BYLAYER
 10
538.04044850535
 20
431.592692584776
 40
5
100
AcDbArc
 50
90
 51
180
  0
CIRCLE
  5
4A8
100
AcDbEntity
  8
BASE
100
AcDbCircle
  6
BYLAYER
 10
543.04044850535
 20
426.592692584776
 40
4.25
  0
LINE
  5
4A9
100
AcDbEntity
  8
BASE
100
AcDbLine
  6
BYLAYER
 10
582.237704612188
 20
320.942714934776
 11
655.843192398512
 21
320.942714934776
  0
LINE
  5
4AA
100
AcDbEntity
  8
BASE
100
AcDbLine
  6
BYLAYER
 10
582.237704612188
 20
320.456540505249
 11
655.843192398512
 21
320.456540505249
  0
LINE
  5
4AB
100
AcDbEntity
  8
BASE
100
AcDbLine
  6
BYLAYER
 10
582.237704612188
 20
319.51024206934
 11
655.843192398512
 21
319.51024206934
  0
LINE
  5
4AC
100
AcDbEntity
  8
BASE
100
AcDbLine
  6
BYLAYER
 10
582.237704612188
 20
319.010261787667
 11
655.843192398512
 21
319.010261787667
  0
LINE
  5
4AD
100
AcDbEntity
  8
BASE
100
AcDbLine
  6
BYLAYER
 10
582.237704612188
 20
315.423655174371
 11
655.843192398512
 21
315.423655174371
  0
LINE
  5
4AE
100
AcDbEntity
  8
BASE
100
AcDbLine
  6
BYLAYER
 10
582.237704612188
 20
314.755922674495
 11
655.843192398512
 21
314.755922674495
  0
LINE
  5
4AF
100
AcDbEntity
  8
BASE
100
AcDbLine
  6
BYLAYER
 10
582.237704612188
 20
308.956608212721
 11
655.843192398512
 21
308.956608212721
  0
LINE
  5
4B0
100
AcDbEntity
  8
BASE
100
AcDbLine
  6
BYLAYER
 10
582.237704612188
 20
307.822789106888
 11
655.843192398512
 21
307.822789106888
  0
LINE
  5
4B1
100
AcDbEntity
  8
BASE
100
AcDbLine
  6
BYLAYER
 10
582.237704612188
 20
303.045294126709
 11
655.843192398512
 21
303.045294126709
  0
LINE
  5
4B2
100
AcDbEntity
  8
BASE
100
AcDbLine
  6
BYLAYER
 10
582.237704612188
 20
300.306013218706
 11
655.843192398512
 21
300.306013218706
  0
LINE
  5
4B3
100
AcDbEntity
  8
BASE
100
AcDbLine
  6
BYLAYER
 10
582.237704612188
 20
298.421520839961
 11
655.843192398512
 21
298.421520839962
  0
LINE
  5
4B4
100
AcDbEntity
  8
BASE
100
AcDbLine
  6
BYLAYER
 10
582.237704612188
 20
296.057159646997
 11
655.843192398512
 21
296.057159646997
  0
LINE
  5
4B5
100
AcDbEntity
  8
BASE
100
AcDbLine
  6
BYLAYER
 10
582.237704612188
 20
289.734714143806
 11
655.843192398512
 21
289.734714143806
  0
LINE
  5
4B6
100
AcDbEntity
  8
BASE
100
AcDbLine
  6
BYLAYER
 10
582.237704612188
 20
286.837770652736
 11
655.843192398512
 21
286.837770652736
  0
ARC
  5
4B7
100
AcDbEntity
  8
BASE
100
AcDbCircle
  6
BYLAYER
 10
571.04044850535
 20
321.342714934776
 40
1
100
AcDbArc
 50
90
 51
180
  0
ARC
  5
4B8
100
AcDbEntity
  8
BASE
100
AcDbCircle
  6
BYLAYER
 10
571.04044850535
 20
321.342714934776
 40
1
100
AcDbArc
 50
0
 51
90
  0
LINE
  5
4B9
100
AcDbEntity
  8
BASE
100
AcDbLine
  6
BYLAYER
 10
571.04044850535
 20
322.342714934776
 11
571.04044850535
 21
322.342714934776
  0
ARC
  5
4BA
100
AcDbEntity
  8
BASE
100
AcDbCircle
  6
BYLAYER
 10
565.582643020161
 20
314.096954984664
 40
7.77409728544649
100
AcDbArc
 50
194.02978956302
 51
304.988902401959
  0
CIRCLE
  5
4BB
100
AcDbEntity
  8
BASE
100
AcDbCircle
  6
BYLAYER
 10
543.04044850535
 20
301.592692584776
 40
4.25
  0
LINE
  5
4BC
100
AcDbEntity
  8
BASE
100
AcDbLine
  6
BYLAYER
 10
582.237704612188
 20
300.306013218706
 11
576.85294850535
 21
297.806013218706
  0
LINE
  5
4BD
100
AcDbEntity
  8
BASE
100
AcDbLine
  6
BYLAYER
 10
573.04044850535
 20
318.442714934776
 11
576.85294850535
 21
318.442714934776
  0
ARC
  5
4BE
100
AcDbEntity
  8
BASE
100
AcDbCircle
  6
BYLAYER
 10
573.04044850535
 20
319.442714934776
 40
1
100
AcDbArc
 50
180
 51
270
  0
LINE
  5
4BF
100
AcDbEntity
  8
BASE
100
AcDbLine
  6
BYLAYER
 10
570.04044850535
 20
320.592714934776
 11
570.04044850535
 21
320.792714934776
  0
LINE
  5
4C0
100
AcDbEntity
  8
BASE
100
AcDbLine
  6
BYLAYER
 10
582.237704612188
 20
320.942714934776
 11
576.85294850535
 21
318.442714934776
  0
LINE
  5
4C1
100
AcDbEntity
  8
BASE
100
AcDbLine
  6
BYLAYER
 10
582.237704612188
 20
320.456540505249
 11
576.85294850535
 21
317.956540505249
  0
LINE
  5
4C2
100
AcDbEntity
  8
BASE
100
AcDbLine
  6
BYLAYER
 10
582.237704612188
 20
319.010261787667
 11
576.85294850535
 21
316.510261787667
  0
LINE
  5
4C3
100
AcDbEntity
  8
BASE
100
AcDbLine
  6
BYLAYER
 10
582.237704612188
 20
319.51024206934
 11
576.85294850535
 21
317.01024206934
  0
LINE
  5
4C4
100
AcDbEntity
  8
BASE
100
AcDbLine
  6
BYLAYER
 10
582.237704612188
 20
315.423655174371
 11
576.85294850535
 21
312.923655174371
  0
LINE
  5
4C5
100
AcDbEntity
  8
BASE
100
AcDbLine
  6
BYLAYER
 10
582.237704612188
 20
314.755922674495
 11
576.85294850535
 21
312.255922674495
  0
LINE
  5
4C6
100
AcDbEntity
  8
BASE
100
AcDbLine
  6
BYLAYER
 10
582.237704612188
 20
308.956608212721
 11
576.85294850535
 21
306.456608212721
  0
LINE
  5
4C7
100
AcDbEntity
  8
BASE
100
AcDbLine
  6
BYLAYER
 10
582.237704612188
 20
307.822789106888
 11
576.85294850535
 21
305.322789106888
  0
LINE
  5
4C8
100
AcDbEntity
  8
BASE
100
AcDbLine
  6
BYLAYER
 10
582.237704612188
 20
303.045294126709
 11
576.85294850535
 21
300.545294126709
  0
LINE
  5
4C9
100
AcDbEntity
  8
BASE
100
AcDbLine
  6
BYLAYER
 10
582.237704612188
 20
298.421520839961
 11
576.85294850535
 21
295.921520839961
  0
LINE
  5
4CA
100
AcDbEntity
  8
BASE
100
AcDbLine
  6
BYLAYER
 10
582.237704612188
 20
296.057159646997
 11
576.85294850535
 21
293.557159646997
  0
LINE
  5
4CB
100
AcDbEntity
  8
BASE
100
AcDbLine
  6
BYLAYER
 10
582.237704612188
 20
289.734714143806
 11
576.85294850535
 21
287.234714143806
  0
LINE
  5
4CC
100
AcDbEntity
  8
BASE
100
AcDbLine
  6
BYLAYER
 10
582.237704612188
 20
286.837770652736
 11
576.85294850535
 21
284.337770652736
  0
LINE
  5
4CD
100
AcDbEntity
  8
BASE
100
AcDbLine
  6
BYLAYER
 10
781.040448505345
 20
60.6816338969948
 11
806.040448505346
 21
60.6816338969943
  0
LINE
  5
4CE
100
AcDbEntity
  8
BASE
100
AcDbLine
  6
BYLAYER
 10
781.040448505346
 20
62.6816338969943
 11
806.040448505346
 21
62.6816338969943
  0
CIRCLE
  5
4CF
100
AcDbEntity
  8
BASE
100
AcDbCircle
  6
BYLAYER
 10
793.04044850535
 20
426.592692584776
 40
4.25
  0
CIRCLE
  5
4D0
100
AcDbEntity
  8
BASE
100
AcDbCircle
  6
BYLAYER
 10
793.04044850535
 20
301.592692584776
 40
4.25
  0
CIRCLE
  5
4D1
100
AcDbEntity
  8
BASE
100
AcDbCircle
  6
BYLAYER
 10
668.04044850535
 20
426.592692584776
 40
4.25
  0
LINE
  5
4D2
100
AcDbEntity
  8
BASE
100
AcDbLine
  6
BYLAYER
 10
779.04044850535
 20
106.592714934776
 11
779.040448505345
 21
62.6816338969948
  0
ARC
  5
4D3
100
AcDbEntity
  8
BASE
100
AcDbCircle
  6
BYLAYER
 10
781.040448505345
 20
62.6816338969948
 40
2
100
AcDbArc
 50
180
 51
270
  0
LINE
  5
4D4
100
AcDbEntity
  8
BASE
100
AcDbLine
  6
BYLAYER
 10
781.040448505346
 20
158.681633896995
 11
781.040448505346
 21
62.6816338969943
  0
LINE
  5
4D5
100
AcDbEntity
  8
BASE
100
AcDbLine
  6
BYLAYER
 10
753.843192398512
 20
286.837770652736
 11
680.237704612188
 21
286.837770652736
  0
LINE
  5
4D6
100
AcDbEntity
  8
BASE
100
AcDbLine
  6
BYLAYER
 10
753.843192398512
 20
289.734714143806
 11
680.237704612188
 21
289.734714143806
  0
LINE
  5
4D7
100
AcDbEntity
  8
BASE
100
AcDbLine
  6
BYLAYER
 10
753.843192398512
 20
296.057159646997
 11
680.237704612188
 21
296.057159646997
  0
LINE
  5
4D8
100
AcDbEntity
  8
BASE
100
AcDbLine
  6
BYLAYER
 10
753.843192398512
 20
298.421520839961
 11
680.237704612188
 21
298.421520839962
  0
LINE
  5
4D9
100
AcDbEntity
  8
BASE
100
AcDbLine
  6
BYLAYER
 10
753.843192398512
 20
300.306013218706
 11
680.237704612188
 21
300.306013218706
  0
LINE
  5
4DA
100
AcDbEntity
  8
BASE
100
AcDbLine
  6
BYLAYER
 10
753.843192398512
 20
303.045294126709
 11
680.237704612188
 21
303.045294126709
  0
LINE
  5
4DB
100
AcDbEntity
  8
BASE
100
AcDbLine
  6
BYLAYER
 10
753.843192398512
 20
307.822789106888
 11
680.237704612188
 21
307.822789106888
  0
LINE
  5
4DC
100
AcDbEntity
  8
BASE
100
AcDbLine
  6
BYLAYER
 10
753.843192398512
 20
308.956608212721
 11
680.237704612188
 21
308.956608212721
  0
LINE
  5
4DD
100
AcDbEntity
  8
BASE
100
AcDbLine
  6
BYLAYER
 10
753.843192398512
 20
314.755922674495
 11
680.237704612188
 21
314.755922674495
  0
LINE
  5
4DE
100
AcDbEntity
  8
BASE
100
AcDbLine
  6
BYLAYER
 10
753.843192398512
 20
315.423655174371
 11
680.237704612188
 21
315.423655174371
  0
LINE
  5
4DF
100
AcDbEntity
  8
BASE
100
AcDbLine
  6
BYLAYER
 10
753.843192398512
 20
319.010261787667
 11
680.237704612188
 21
319.010261787667
  0
LINE
  5
4E0
100
AcDbEntity
  8
BASE
100
AcDbLine
  6
BYLAYER
 10
753.843192398512
 20
319.51024206934
 11
680.237704612188
 21
319.51024206934
  0
LINE
  5
4E1
100
AcDbEntity
  8
BASE
100
AcDbLine
  6
BYLAYER
 10
753.843192398512
 20
320.456540505249
 11
680.237704612188
 21
320.456540505249
  0
LINE
  5
4E2
100
AcDbEntity
  8
BASE
100
AcDbLine
  6
BYLAYER
 10
753.843192398512
 20
320.942714934776
 11
680.237704612188
 21
320.942714934776
  0
ARC
  5
4E3
100
AcDbEntity
  8
BASE
100
AcDbCircle
  6
BYLAYER
 10
667.04044850535
 20
321.342714934776
 40
1
100
AcDbArc
 50
0
 51
90
  0
ARC
  5
4E4
100
AcDbEntity
  8
BASE
100
AcDbCircle
  6
BYLAYER
 10
667.04044850535
 20
321.342714934776
 40
1
100
AcDbArc
 50
90
 51
180
  0
ARC
  5
4E5
100
AcDbEntity
  8
BASE
100
AcDbCircle
  6
BYLAYER
 10
669.04044850535
 20
321.342714934776
 40
1
100
AcDbArc
 50
90
 51
180
  0
ARC
  5
4E6
100
AcDbEntity
  8
BASE
100
AcDbCircle
  6
BYLAYER
 10
669.04044850535
 20
321.342714934776
 40
1
100
AcDbArc
 50
0
 51
90
  0
LINE
  5
4E7
100
AcDbEntity
  8
BASE
100
AcDbLine
  6
BYLAYER
 10
669.04044850535
 20
322.342714934776
 11
669.04044850535
 21
322.342714934776
  0
LINE
  5
4E8
100
AcDbEntity
  8
BASE
100
AcDbLine
  6
BYLAYER
 10
667.04044850535
 20
322.342714934776
 11
667.04044850535
 21
322.342714934776
  0
LINE
  5
4E9
100
AcDbEntity
  8
BASE
100
AcDbLine
  6
BYLAYER
 10
680.237704612188
 20
300.306013218706
 11
674.85294850535
 21
297.806013218706
  0
LINE
  5
4EA
100
AcDbEntity
  8
BASE
100
AcDbLine
  6
BYLAYER
 10
671.04044850535
 20
318.442714934776
 11
674.85294850535
 21
318.442714934776
  0
LINE
  5
4EB
100
AcDbEntity
  8
BASE
100
AcDbLine
  6
BYLAYER
 10
668.040448505351
 20
320.592714934776
 11
668.040448505351
 21
320.792714934776
  0
LINE
  5
4EC
100
AcDbEntity
  8
BASE
100
AcDbLine
  6
BYLAYER
 10
668.04044850535
 20
320.592714934776
 11
668.04044850535
 21
320.792714934776
  0
ARC
  5
4ED
100
AcDbEntity
  8
BASE
100
AcDbCircle
  6
BYLAYER
 10
665.04044850535
 20
319.442714934776
 40
1
100
AcDbArc
 50
270
 51
0
  0
LINE
  5
4EE
100
AcDbEntity
  8
BASE
100
AcDbLine
  6
BYLAYER
 10
665.04044850535
 20
318.442714934776
 11
661.22794850535
 21
318.442714934776
  0
ARC
  5
4EF
100
AcDbEntity
  8
BASE
100
AcDbCircle
  6
BYLAYER
 10
671.04044850535
 20
319.442714934776
 40
1
100
AcDbArc
 50
180
 51
270
  0
LINE
  5
4F0
100
AcDbEntity
  8
BASE
100
AcDbLine
  6
BYLAYER
 10
680.237704612188
 20
319.010261787667
 11
674.85294850535
 21
316.510261787667
  0
LINE
  5
4F1
100
AcDbEntity
  8
BASE
100
AcDbLine
  6
BYLAYER
 10
680.237704612188
 20
319.51024206934
 11
674.85294850535
 21
317.01024206934
  0
LINE
  5
4F2
100
AcDbEntity
  8
BASE
100
AcDbLine
  6
BYLAYER
 10
680.237704612188
 20
315.423655174371
 11
674.85294850535
 21
312.923655174371
  0
LINE
  5
4F3
100
AcDbEntity
  8
BASE
100
AcDbLine
  6
BYLAYER
 10
680.237704612188
 20
314.755922674495
 11
674.85294850535
 21
312.255922674495
  0
LINE
  5
4F4
100
AcDbEntity
  8
BASE
100
AcDbLine
  6
BYLAYER
 10
680.237704612188
 20
308.956608212721
 11
674.85294850535
 21
306.456608212721
  0
LINE
  5
4F5
100
AcDbEntity
  8
BASE
100
AcDbLine
  6
BYLAYER
 10
680.237704612188
 20
307.822789106888
 11
674.85294850535
 21
305.322789106888
  0
LINE
  5
4F6
100
AcDbEntity
  8
BASE
100
AcDbLine
  6
BYLAYER
 10
680.237704612188
 20
320.942714934776
 11
674.85294850535
 21
318.442714934776
  0
LINE
  5
4F7
100
AcDbEntity
  8
BASE
100
AcDbLine
  6
BYLAYER
 10
680.237704612188
 20
320.456540505249
 11
674.85294850535
 21
317.956540505249
  0
LINE
  5
4F8
100
AcDbEntity
  8
BASE
100
AcDbLine
  6
BYLAYER
 10
680.237704612188
 20
303.045294126709
 11
674.85294850535
 21
300.545294126709
  0
LINE
  5
4F9
100
AcDbEntity
  8
BASE
100
AcDbLine
  6
BYLAYER
 10
680.237704612188
 20
296.057159646997
 11
674.85294850535
 21
293.557159646997
  0
LINE
  5
4FA
100
AcDbEntity
  8
BASE
100
AcDbLine
  6
BYLAYER
 10
680.237704612188
 20
289.734714143806
 11
674.85294850535
 21
287.234714143806
  0
LINE
  5
4FB
100
AcDbEntity
  8
BASE
100
AcDbLine
  6
BYLAYER
 10
680.237704612188
 20
286.837770652736
 11
674.85294850535
 21
284.337770652736
  0
LINE
  5
4FC
100
AcDbEntity
  8
BASE
100
AcDbLine
  6
BYLAYER
 10
680.237704612188
 20
298.421520839961
 11
674.85294850535
 21
295.921520839962
  0
ARC
  5
4FD
100
AcDbEntity
  8
BASE
100
AcDbCircle
  6
BYLAYER
 10
765.04044850535
 20
321.342714934776
 40
1
100
AcDbArc
 50
0
 51
90
  0
ARC
  5
4FE
100
AcDbEntity
  8
BASE
100
AcDbCircle
  6
BYLAYER
 10
765.04044850535
 20
321.342714934776
 40
1
100
AcDbArc
 50
90
 51
180
  0
LINE
  5
4FF
100
AcDbEntity
  8
BASE
100
AcDbLine
  6
BYLAYER
 10
765.04044850535
 20
322.342714934776
 11
765.04044850535
 21
322.342714934776
  0
LINE
  5
500
100
AcDbEntity
  8
BASE
100
AcDbLine
  6
BYLAYER
 10
753.843192398512
 20
296.057159646997
 11
759.22794850535
 21
293.557159646997
  0
LINE
  5
501
100
AcDbEntity
  8
BASE
100
AcDbLine
  6
BYLAYER
 10
753.843192398512
 20
289.734714143806
 11
759.22794850535
 21
287.234714143806
  0
LINE
  5
502
100
AcDbEntity
  8
BASE
100
AcDbLine
  6
BYLAYER
 10
753.843192398512
 20
286.837770652736
 11
759.22794850535
 21
284.337770652736
  0
LINE
  5
503
100
AcDbEntity
  8
BASE
100
AcDbLine
  6
BYLAYER
 10
753.843192398512
 20
298.421520839961
 11
759.22794850535
 21
295.921520839962
  0
LINE
  5
504
100
AcDbEntity
  8
BASE
100
AcDbLine
  6
BYLAYER
 10
753.843192398512
 20
319.51024206934
 11
759.22794850535
 21
317.01024206934
  0
LINE
  5
505
100
AcDbEntity
  8
BASE
100
AcDbLine
  6
BYLAYER
 10
753.843192398512
 20
319.010261787667
 11
759.22794850535
 21
316.510261787667
  0
LINE
  5
506
100
AcDbEntity
  8
BASE
100
AcDbLine
  6
BYLAYER
 10
753.843192398512
 20
307.822789106888
 11
759.22794850535
 21
305.322789106888
  0
LINE
  5
507
100
AcDbEntity
  8
BASE
100
AcDbLine
  6
BYLAYER
 10
753.843192398512
 20
303.045294126709
 11
759.22794850535
 21
300.545294126709
  0
LINE
  5
508
100
AcDbEntity
  8
BASE
100
AcDbLine
  6
BYLAYER
 10
753.843192398512
 20
308.956608212721
 11
759.22794850535
 21
306.456608212721
  0
LINE
  5
509
100
AcDbEntity
  8
BASE
100
AcDbLine
  6
BYLAYER
 10
753.843192398512
 20
314.755922674495
 11
759.22794850535
 21
312.255922674495
  0
LINE
  5
50A
100
AcDbEntity
  8
BASE
100
AcDbLine
  6
BYLAYER
 10
753.843192398512
 20
315.423655174371
 11
759.22794850535
 21
312.923655174371
  0
LINE
  5
50B
100
AcDbEntity
  8
BASE
100
AcDbLine
  6
BYLAYER
 10
753.843192398512
 20
320.456540505249
 11
759.22794850535
 21
317.956540505249
  0
LINE
  5
50C
100
AcDbEntity
  8
BASE
100
AcDbLine
  6
BYLAYER
 10
753.843192398512
 20
320.942714934776
 11
759.22794850535
 21
318.442714934776
  0
LINE
  5
50D
100
AcDbEntity
  8
BASE
100
AcDbLine
  6
BYLAYER
 10
753.843192398512
 20
300.306013218706
 11
759.22794850535
 21
297.806013218706
  0
ARC
  5
50E
100
AcDbEntity
  8
BASE
100
AcDbCircle
  6
BYLAYER
 10
770.49825399054
 20
314.096954984664
 40
7.77409728544649
100
AcDbArc
 50
235.011097598041
 51
345.97021043698
  0
LINE
  5
50F
100
AcDbEntity
  8
BASE
100
AcDbLine
  6
BYLAYER
 10
766.04044850535
 20
320.592714934776
 11
766.04044850535
 21
320.792714934776
  0
LINE
  5
510
100
AcDbEntity
  8
BASE
100
AcDbLine
  6
BYLAYER
 10
763.04044850535
 20
318.442714934776
 11
759.22794850535
 21
318.442714934776
  0
ARC
  5
511
100
AcDbEntity
  8
BASE
100
AcDbCircle
  6
BYLAYER
 10
763.04044850535
 20
319.442714934776
 40
1
100
AcDbArc
 50
270
 51
0
  0
ARC
  5
512
100
AcDbEntity
  8
BASE
100
AcDbCircle
  6
BYLAYER
 10
798.04044850535
 20
431.592692584776
 40
5
100
AcDbArc
 50
0
 51
90
  0
LINE
  5
513
100
AcDbEntity
  8
BASE
100
AcDbLine
  6
BYLAYER
 10
806.040448505346
 20
62.6816338969943
 11
806.040448505346
 21
60.6816338969943
  0
LINE
  5
514
100
AcDbEntity
  8
BASE
100
AcDbLine
  6
BYLAYER
 10
778.04044850535
 20
201.592692584776
 11
558.04044850535
 21
201.592692584776
  0
LINE
  5
515
100
AcDbEntity
  8
BASE
100
AcDbLine
  6
BYLAYER
 10
778.04044850535
 20
261.792722384776
 11
558.04044850535
 21
261.792722384776
  0
LINE
  5
516
100
AcDbEntity
  8
BASE
100
AcDbLine
  6
BYLAYER
 10
778.04044850535
 20
269.792722384776
 11
558.04044850535
 21
269.792722384776
  0
LINE
  5
517
100
AcDbEntity
  8
DIM
100
AcDbLine
  6
BYLAYER
 62
0
370
  -2
 10
558.040448505351
 20
85.1526184419281
 11
558.040448505351
 21
73.2921437610521
  0
LINE
  5
518
100
AcDbEntity
  8
DIM
100
AcDbLine
  6
BYLAYER
 62
0
370
  -2
 10
778.04044850535
 20
85.1526184419281
 11
778.04044850535
 21
73.2921437610521
  0
LINE
  5
519
100
AcDbEntity
  8
DIM
100
AcDbLine
  6
BYLAYER
 62
0
370
  -2
 10
570.54044850535
 20
75.7921437610521
 11
648.290448505349
 21
75.7921437610521
  0
LINE
  5
51A
100
AcDbEntity
  8
DIM
100
AcDbLine
  6
BYLAYER
 62
0
370
  -2
 10
765.54044850535
 20
75.7921437610521
 11
685.790448505349
 21
75.7921437610521
  0
SOLID
  5
51B
100
AcDbEntity
  8
DIM
100
AcDbTrace
 10
558.040448505351
 20
75.7921437610521
 30
0.0
 11
570.54044850535
 21
73.7088104277191
 31
0.0
 12
570.54044850535
 22
77.8754770943849
 32
0.0
 13
570.54044850535
 23
77.8754770943849
 33
0.0
  0
SOLID
  5
51C
100
AcDbEntity
  8
DIM
100
AcDbTrace
 10
765.54044850535
 20
77.8754770943849
 30
0.0
 11
765.54044850535
 21
73.7088104277191
 31
0.0
 12
778.04044850535
 22
75.7921437610521
 32
0.0
 13
778.04044850535
 23
75.7921437610521
 33
0.0
  0
TEXT
  5
51D
100
AcDbEntity
  8
DIM
 62
0
100
AcDbText
  6
BYLAYER
 62
0
 10
657.665448505349
 20
69.5421437610521
 40
12.5
  1
220
  7
Font_0
 72
1
 11
667.040448505349
 21
75.7921437610521
100
AcDbText
 73
2
  0
LINE
  5
51E
100
AcDbEntity
  8
BASE
100
AcDbLine
  6
BYLAYER
 10
778.04044850535
 20
201.592692584776
 11
558.04044850535
 21
201.592692584776
  0
LINE
  5
51F
100
AcDbEntity
  8
BASE
100
AcDbLine
  6
BYLAYER
 10
568.04044850535
 20
88.4526184419276
 11
768.04044850535
 21
88.4526184419276
  0
LINE
  5
520
100
AcDbEntity
  8
BASE
100
AcDbLine
  6
BYLAYER
 10
798.04044850535
 20
166.592692584776
 11
543.04044850535
 21
166.592692584776
  0
LINE
  5
521
100
AcDbEntity
  8
BASE
100
AcDbLine
  6
BYLAYER
 10
568.04044850535
 20
166.592692584776
 11
568.04044850535
 21
87.6526184419276
  0
LINE
  5
522
100
AcDbEntity
  8
BASE
100
AcDbLine
  6
BYLAYER
 10
558.04044850535
 20
166.592692584776
 11
558.04044850535
 21
87.6526184419276
  0
LINE
  5
523
100
AcDbEntity
  8
BASE
100
AcDbLine
  6
BYLAYER
 10
355.149913192736
 20
201.592722384776
 11
375.149907232736
 21
201.592722384776
  0
LINE
  5
524
100
AcDbEntity
  8
BASE
100
AcDbLine
  6
BYLAYER
 10
335.149919152736
 20
201.592722384776
 11
355.149913192736
 21
201.592722384776
  0
LINE
  5
525
100
AcDbEntity
  8
BASE
100
AcDbLine
  6
BYLAYER
 10
375.149907232736
 20
166.592692584776
 11
376.649907232736
 21
166.592692584776
  0
ARC
  5
526
100
AcDbEntity
  8
BASE
100
AcDbCircle
  6
BYLAYER
 10
543.04044850535
 20
176.592692584776
 40
10
100
AcDbArc
 50
180
 51
270
  0
CIRCLE
  5
527
100
AcDbEntity
  8
BASE
100
AcDbCircle
  6
BYLAYER
 10
543.04044850535
 20
176.592692584776
 40
4.25
  0
LINE
  5
528
100
AcDbEntity
  8
BASE
100
AcDbLine
  6
BYLAYER
 10
558.04044850535
 20
87.6526184419276
 11
568.04044850535
 21
87.6526184419276
  0
LINE
  5
529
100
AcDbEntity
  8
BASE
100
AcDbLine
  6
BYLAYER
 10
768.04044850535
 20
166.592692584776
 11
768.04044850535
 21
87.6526184419276
  0
LINE
  5
52A
100
AcDbEntity
  8
BASE
100
AcDbLine
  6
BYLAYER
 10
778.04044850535
 20
166.592692584776
 11
778.04044850535
 21
87.6526184419276
  0
LINE
  5
52B
100
AcDbEntity
  8
BASE
100
AcDbLine
  6
BYLAYER
 10
779.04044850535
 20
166.592692584776
 11
779.04044850535
 21
106.592714934776
  0
CIRCLE
  5
52C
100
AcDbEntity
  8
BASE
100
AcDbCircle
  6
BYLAYER
 10
793.04044850535
 20
176.592692584776
 40
4.25
  0
LINE
  5
52D
100
AcDbEntity
  8
DIM
100
AcDbLine
  6
BYLAYER
 62
0
370
  -2
 10
507.719687436389
 20
458.44350029629
 11
520.219687436389
 21
458.443500296291
  0
LINE
  5
52E
100
AcDbEntity
  8
DIM
100
AcDbLine
  6
BYLAYER
 62
0
370
  -2
 10
520.219687436389
 20
458.443500296291
 11
533.284852345206
 21
440.208523207995
  0
TEXT
  5
52F
100
AcDbEntity
  8
DIM
 62
0
100
AcDbText
  6
BYLAYER
 62
0
 10
451.469700853657
 20
452.193453336039
 40
12.5
  1
8-φ8.5
  7
Font_0
 50
0.000123000000002786
 72
1
 11
473.344687436388
 21
458.44350029629
100
AcDbText
 73
2
  0
SOLID
  5
530
100
AcDbEntity
  8
DIM
100
AcDbTrace
 10
534.978363616751
 20
441.421905814978
 30
0.0
 11
531.591341073661
 21
438.995140601013
 31
0.0
 12
540.565147987104
 22
430.047455578727
 32
0.0
 13
540.565147987104
 23
430.047455578727
 33
0.0
  0
CIRCLE
  5
531
100
AcDbEntity
  8
BASE
100
AcDbCircle
  6
BYLAYER
 10
668.04044850535
 20
176.592692584776
 40
4.25
  0
ARC
  5
532
100
AcDbEntity
  8
BASE
100
AcDbCircle
  6
BYLAYER
 10
798.04044850535
 20
171.592692584776
 40
5
100
AcDbArc
 50
270
 51
0
  0
LINE
  5
533
100
AcDbEntity
  8
BASE
100
AcDbLine
  6
BYLAYER
 10
778.04044850535
 20
87.6526184419276
 11
768.04044850535
 21
87.6526184419276
  0
LINE
  5
534
100
AcDbEntity
  8
0
100
AcDbLine
  6
BYLAYER
 10
778.04044850535
 20
120.215559853877
 11
778.04044850535
 21
107.592714934776
  0
LINE
  5
535
100
AcDbEntity
  8
BASE
100
AcDbLine
  6
BYLAYER
 10
814.04044850535
 20
169.092714934776
 11
814.04044850535
 21
284.092714934776
  0
LINE
  5
536
100
AcDbEntity
  8
BASE
100
AcDbLine
  6
BYLAYER
 10
816.54044850535
 20
252.092714934776
 11
816.54044850535
 21
201.092714934776
  0
LINE
  5
537
100
AcDbEntity
  8
BASE
100
AcDbLine
  6
BYLAYER
 10
806.04044850535
 20
169.092714934776
 11
806.04044850535
 21
284.092714934776
  0
LINE
  5
538
100
AcDbEntity
  8
BASE
100
AcDbLine
  6
BYLAYER
 10
803.04044850535
 20
284.092714934776
 11
814.04044850535
 21
284.092714934776
  0
LINE
  5
539
100
AcDbEntity
  8
BASE
100
AcDbLine
  6
BYLAYER
 10
816.54044850535
 20
252.092714934776
 11
814.04044850535
 21
252.092714934776
  0
LINE
  5
53A
100
AcDbEntity
  8
BASE
100
AcDbLine
  6
BYLAYER
 10
816.54044850535
 20
201.092714934776
 11
814.04044850535
 21
201.092714934776
  0
LINE
  5
53B
100
AcDbEntity
  8
BASE
100
AcDbLine
  6
BYLAYER
 10
802.370588427974
 20
169.092714934776
 11
814.04044850535
 21
169.092714934776
  0
CIRCLE
  5
53C
100
AcDbEntity
  8
0
100
AcDbCircle
  6
BYLAYER
 10
215.149954912736
 20
226.592714934776
 40
95
  0
LINE
  5
53D
100
AcDbEntity
  8
0
100
AcDbLine
  6
BYLAYER
 10
558.04044850535
 20
201.592692584776
 11
558.04044850535
 21
401.592692584776
  0
LINE
  5
53E
100
AcDbEntity
  8
DIM
100
AcDbLine
  6
BYLAYER
 62
0
370
  -2
 10
555.54044850535
 20
201.592692584777
 11
514.919608477413
 21
201.592692584777
  0
LINE
  5
53F
100
AcDbEntity
  8
DIM
100
AcDbLine
  6
BYLAYER
 62
0
370
  -2
 10
555.54044850535
 20
401.592662784777
 11
514.919608477413
 21
401.592662784777
  0
LINE
  5
540
100
AcDbEntity
  8
DIM
100
AcDbLine
  6
BYLAYER
 62
0
370
  -2
 10
517.419608477413
 20
214.092692584777
 11
517.419608477413
 21
241.265339129503
  0
LINE
  5
541
100
AcDbEntity
  8
DIM
100
AcDbLine
  6
BYLAYER
 62
0
370
  -2
 10
517.419608477413
 20
389.092662784777
 11
517.419608477413
 21
276.68200579617
  0
SOLID
  5
542
100
AcDbEntity
  8
DIM
100
AcDbTrace
 10
517.419608477413
 20
201.592692584777
 30
0.0
 11
519.502941810747
 21
214.092692584777
 31
0.0
 12
515.33627514408
 22
214.092692584777
 32
0.0
 13
515.33627514408
 23
214.092692584777
 33
0.0
  0
SOLID
  5
543
100
AcDbEntity
  8
DIM
100
AcDbTrace
 10
515.33627514408
 20
389.092662784777
 30
0.0
 11
519.502941810747
 21
389.092662784777
 31
0.0
 12
517.419608477413
 22
401.592662784777
 32
0.0
 13
517.419608477413
 23
401.592662784777
 33
0.0
  0
TEXT
  5
544
100
AcDbEntity
  8
DIM
 62
0
100
AcDbText
  6
BYLAYER
 62
0
 10
523.669608477414
 20
249.598672462837
 40
12.5
  1
200
  7
Font_0
 50
90
 72
1
 11
517.419608477414
 21
258.973672462837
100
AcDbText
 73
2
  0
LINE
  5
545
100
AcDbEntity
  8
DIM
100
AcDbLine
  6
BYLAYER
 62
0
370
  -2
 10
540.540448505351
 20
301.592692584777
 11
495.067658839305
 21
301.592692584777
  0
LINE
  5
546
100
AcDbEntity
  8
DIM
100
AcDbLine
  6
BYLAYER
 62
0
370
  -2
 10
540.540448505351
 20
426.592692584777
 11
495.067658839305
 21
426.592692584777
  0
LINE
  5
547
100
AcDbEntity
  8
DIM
100
AcDbLine
  6
BYLAYER
 62
0
370
  -2
 10
497.567658839305
 20
314.092692584777
 11
497.567658839305
 21
346.384359251444
  0
LINE
  5
548
100
AcDbEntity
  8
DIM
100
AcDbLine
  6
BYLAYER
 62
0
370
  -2
 10
497.567658839305
 20
414.092692584777
 11
497.567658839305
 21
381.80102591811
  0
SOLID
  5
549
100
AcDbEntity
  8
DIM
100
AcDbTrace
 10
497.567658839305
 20
301.592692584777
 30
0.0
 11
499.650992172639
 21
314.092692584777
 31
0.0
 12
495.484325505971
 22
314.092692584777
 32
0.0
 13
495.484325505971
 23
314.092692584777
 33
0.0
  0
SOLID
  5
54A
100
AcDbEntity
  8
DIM
100
AcDbTrace
 10
495.484325505971
 20
414.092692584777
 30
0.0
 11
499.650992172639
 21
414.092692584777
 31
0.0
 12
497.567658839305
 22
426.592692584777
 32
0.0
 13
497.567658839305
 23
426.592692584777
 33
0.0
  0
TEXT
  5
54B
100
AcDbEntity
  8
DIM
 62
0
100
AcDbText
  6
BYLAYER
 62
0
 10
503.817658839305
 20
354.717692584777
 40
12.5
  1
125
  7
Font_0
 50
90
 72
1
 11
497.567658839305
 21
364.092692584777
100
AcDbText
 73
2
  0
LINE
  5
54C
100
AcDbEntity
  8
DIM
100
AcDbLine
  6
BYLAYER
 62
0
370
  -2
 10
543.040448505351
 20
424.092692584777
 11
543.040448505351
 21
412.641346381087
  0
LINE
  5
54D
100
AcDbEntity
  8
DIM
100
AcDbLine
  6
BYLAYER
 62
0
370
  -2
 10
668.040448505351
 20
424.092692584777
 11
668.040448505351
 21
412.641346381087
  0
LINE
  5
54E
100
AcDbEntity
  8
DIM
100
AcDbLine
  6
BYLAYER
 62
0
370
  -2
 10
555.54044850535
 20
415.141346381087
 11
587.832115172017
 21
415.141346381087
  0
LINE
  5
54F
100
AcDbEntity
  8
DIM
100
AcDbLine
  6
BYLAYER
 62
0
370
  -2
 10
655.54044850535
 20
415.141346381087
 11
623.248781838684
 21
415.141346381087
  0
SOLID
  5
550
100
AcDbEntity
  8
DIM
100
AcDbTrace
 10
543.040448505351
 20
415.141346381087
 30
0.0
 11
555.54044850535
 21
413.058013047753
 31
0.0
 12
555.54044850535
 22
417.22467971442
 32
0.0
 13
555.54044850535
 23
417.22467971442
 33
0.0
  0
SOLID
  5
551
100
AcDbEntity
  8
DIM
100
AcDbTrace
 10
655.54044850535
 20
417.22467971442
 30
0.0
 11
655.54044850535
 21
413.058013047753
 31
0.0
 12
668.040448505351
 22
415.141346381087
 32
0.0
 13
668.040448505351
 23
415.141346381087
 33
0.0
  0
TEXT
  5
552
100
AcDbEntity
  8
DIM
 62
0
100
AcDbText
  6
BYLAYER
 62
0
 10
596.165448505351
 20
408.891346381087
 40
12.5
  1
125
  7
Font_0
 72
1
 11
605.540448505351
 21
415.141346381087
100
AcDbText
 73
2
  0
LINE
  5
553
100
AcDbEntity
  8
DIM
100
AcDbLine
  6
BYLAYER
 62
0
370
  -2
 10
668.040448505351
 20
424.092692584777
 11
668.040448505351
 21
412.641346381087
  0
LINE
  5
554
100
AcDbEntity
  8
DIM
100
AcDbLine
  6
BYLAYER
 62
0
370
  -2
 10
793.040448505351
 20
424.092692584777
 11
793.040448505351
 21
412.641346381087
  0
LINE
  5
555
100
AcDbEntity
  8
DIM
100
AcDbLine
  6
BYLAYER
 62
0
370
  -2
 10
680.54044850535
 20
415.141346381087
 11
712.832115172017
 21
415.141346381087
  0
LINE
  5
556
100
AcDbEntity
  8
DIM
100
AcDbLine
  6
BYLAYER
 62
0
370
  -2
 10
780.540448505351
 20
415.141346381087
 11
748.248781838684
 21
415.141346381087
  0
SOLID
  5
557
100
AcDbEntity
  8
DIM
100
AcDbTrace
 10
668.040448505351
 20
415.141346381087
 30
0.0
 11
680.54044850535
 21
413.058013047753
 31
0.0
 12
680.54044850535
 22
417.22467971442
 32
0.0
 13
680.54044850535
 23
417.22467971442
 33
0.0
  0
SOLID
  5
558
100
AcDbEntity
  8
DIM
100
AcDbTrace
 10
780.540448505351
 20
417.22467971442
 30
0.0
 11
780.540448505351
 21
413.058013047753
 31
0.0
 12
793.040448505351
 22
415.141346381087
 32
0.0
 13
793.040448505351
 23
415.141346381087
 33
0.0
  0
TEXT
  5
559
100
AcDbEntity
  8
DIM
 62
0
100
AcDbText
  6
BYLAYER
 62
0
 10
721.165448505351
 20
408.891346381087
 40
12.5
  1
125
  7
Font_0
 72
1
 11
730.540448505351
 21
415.141346381087
100
AcDbText
 73
2
  0
LINE
  5
55A
100
AcDbEntity
  8
DIM
100
AcDbLine
  6
BYLAYER
 62
0
370
  -2
 10
57.9479381784113
 20
242.002271689517
 11
57.9479381784113
 21
482.268539557144
  0
LINE
  5
55B
100
AcDbEntity
  8
DIM
100
AcDbLine
  6
BYLAYER
 62
0
370
  -2
 10
376.649907232736
 20
439.092692584777
 11
376.649907232736
 21
482.268539557144
  0
LINE
  5
55C
100
AcDbEntity
  8
DIM
100
AcDbLine
  6
BYLAYER
 62
0
370
  -2
 10
70.4479381784122
 20
479.768539557144
 11
197.441621579403
 21
479.768539557144
  0
LINE
  5
55D
100
AcDbEntity
  8
DIM
100
AcDbLine
  6
BYLAYER
 62
0
370
  -2
 10
364.149907232736
 20
479.768539557144
 11
232.85828824607
 21
479.768539557144
  0
SOLID
  5
55E
100
AcDbEntity
  8
DIM
100
AcDbTrace
 10
57.9479381784113
 20
479.768539557144
 30
0.0
 11
70.4479381784122
 21
477.685206223811
 31
0.0
 12
70.4479381784122
 22
481.851872890478
 32
0.0
 13
70.4479381784122
 23
481.851872890478
 33
0.0
  0
SOLID
  5
55F
100
AcDbEntity
  8
DIM
100
AcDbTrace
 10
364.149907232736
 20
481.851872890478
 30
0.0
 11
364.149907232736
 21
477.685206223811
 31
0.0
 12
376.649907232736
 22
479.768539557144
 32
0.0
 13
376.649907232736
 23
479.768539557144
 33
0.0
  0
TEXT
  5
560
100
AcDbEntity
  8
DIM
 62
0
100
AcDbText
  6
BYLAYER
 62
0
 10
205.774954912737
 20
473.518539557144
 40
12.5
  1
319
  7
Font_0
 72
1
 11
215.149954912737
 21
479.768539557144
100
AcDbText
 73
2
  0
LINE
  5
561
100
AcDbEntity
  8
DIM
100
AcDbLine
  6
BYLAYER
 62
0
370
  -2
 10
376.649907232736
 20
439.092692584777
 11
376.649907232736
 21
457.479766457506
  0
LINE
  5
562
100
AcDbEntity
  8
DIM
100
AcDbLine
  6
BYLAYER
 62
0
370
  -2
 10
215.149954912737
 20
229.092714934777
 11
215.149954912737
 21
457.479766457506
  0
LINE
  5
563
100
AcDbEntity
  8
DIM
100
AcDbLine
  6
BYLAYER
 62
0
370
  -2
 10
364.149907232736
 20
454.979766457506
 11
311.524931072737
 21
454.979766457506
  0
LINE
  5
564
100
AcDbEntity
  8
DIM
100
AcDbLine
  6
BYLAYER
 62
0
370
  -2
 10
227.649954912736
 20
454.979766457506
 11
280.274931072737
 21
454.979766457506
  0
SOLID
  5
565
100
AcDbEntity
  8
DIM
100
AcDbTrace
 10
364.149907232736
 20
457.063099790839
 30
0.0
 11
364.149907232736
 21
452.896433124173
 31
0.0
 12
376.649907232736
 22
454.979766457506
 32
0.0
 13
376.649907232736
 23
454.979766457506
 33
0.0
  0
SOLID
  5
566
100
AcDbEntity
  8
DIM
100
AcDbTrace
 10
215.149954912737
 20
454.979766457506
 30
0.0
 11
227.649954912736
 21
452.896433124173
 31
0.0
 12
227.649954912736
 22
457.063099790839
 32
0.0
 13
227.649954912736
 23
457.063099790839
 33
0.0
  0
TEXT
  5
567
100
AcDbEntity
  8
DIM
 62
0
100
AcDbText
  6
BYLAYER
 62
0
 10
286.524931072737
 20
448.729766457506
 40
12.5
  1
161
  7
Font_0
 72
1
 11
295.899931072737
 21
454.979766457506
100
AcDbText
 73
2
  0
LINE
  5
568
100
AcDbEntity
  8
DIM
100
AcDbLine
  6
BYLAYER
 62
0
370
  -2
 10
215.149954912737
 20
229.092714934777
 11
215.149954912737
 21
457.479766457506
  0
LINE
  5
569
100
AcDbEntity
  8
DIM
100
AcDbLine
  6
BYLAYER
 62
0
370
  -2
 10
57.9479381784113
 20
242.002271689517
 11
57.9479381784113
 21
457.479766457506
  0
LINE
  5
56A
100
AcDbEntity
  8
DIM
100
AcDbLine
  6
BYLAYER
 62
0
370
  -2
 10
202.649954912737
 20
454.979766457506
 11
154.257279878907
 21
454.979766457506
  0
LINE
  5
56B
100
AcDbEntity
  8
DIM
100
AcDbLine
  6
BYLAYER
 62
0
370
  -2
 10
70.4479381784122
 20
454.979766457506
 11
118.840613212241
 21
454.979766457506
  0
SOLID
  5
56C
100
AcDbEntity
  8
DIM
100
AcDbTrace
 10
202.649954912737
 20
457.06309979084
 30
0.0
 11
202.649954912737
 21
452.896433124173
 31
0.0
 12
215.149954912737
 22
454.979766457506
 32
0.0
 13
215.149954912737
 23
454.979766457506
 33
0.0
  0
SOLID
  5
56D
100
AcDbEntity
  8
DIM
100
AcDbTrace
 10
57.9479381784113
 20
454.979766457506
 30
0.0
 11
70.4479381784122
 21
452.896433124173
 31
0.0
 12
70.4479381784122
 22
457.06309979084
 32
0.0
 13
70.4479381784122
 23
457.06309979084
 33
0.0
  0
TEXT
  5
56E
100
AcDbEntity
  8
DIM
 62
0
100
AcDbText
  6
BYLAYER
 62
0
 10
127.173946545574
 20
448.729766457506
 40
12.5
  1
157
  7
Font_0
 72
1
 11
136.548946545574
 21
454.979766457506
100
AcDbText
 73
2
  0
LINE
  5
56F
100
AcDbEntity
  8
DIM
100
AcDbLine
  6
BYLAYER
 62
0
370
  -2
 10
309.841707843782
 20
335.005513381074
 11
297.341707843783
 21
335.005513381073
  0
LINE
  5
570
100
AcDbEntity
  8
DIM
100
AcDbLine
  6
BYLAYER
 62
0
370
  -2
 10
297.341707843783
 20
335.005513381073
 11
271.03307168458
 21
300.303821695322
  0
TEXT
  5
571
100
AcDbEntity
  8
DIM
 62
0
100
AcDbText
  6
BYLAYER
 62
0
 10
317.133387927705
 20
328.755479838042
 40
12.5
  1
φ160
  7
Font_0
 50
0.000123000000002786
 72
1
 11
332.75837451045
 21
335.005513381074
100
AcDbText
 73
2
  0
SOLID
  5
572
100
AcDbEntity
  8
DIM
100
AcDbTrace
 10
263.481299147844
 20
290.342861322276
 30
0.0
 11
272.693231746754
 21
299.0451929392
 31
0.0
 12
269.372911622405
 22
301.562450451445
 32
0.0
 13
269.372911622405
 23
301.562450451445
 33
0.0
  0
LINE
  5
573
100
AcDbEntity
  8
DIM
100
AcDbLine
  6
BYLAYER
 62
0
370
  -2
 10
92.649954912737
 20
60.681633896995
 11
32.6051875074149
 21
60.681633896995
  0
LINE
  5
574
100
AcDbEntity
  8
DIM
100
AcDbLine
  6
BYLAYER
 62
0
370
  -2
 10
212.649954912737
 20
226.592714934777
 11
32.6051875074149
 21
226.592714934777
  0
LINE
  5
575
100
AcDbEntity
  8
DIM
100
AcDbLine
  6
BYLAYER
 62
0
370
  -2
 10
35.1051875074149
 20
73.181633896995
 11
35.1051875074149
 21
125.928841082553
  0
LINE
  5
576
100
AcDbEntity
  8
DIM
100
AcDbLine
  6
BYLAYER
 62
0
370
  -2
 10
35.1051875074149
 20
214.092714934777
 11
35.1051875074149
 21
161.34550774922
  0
SOLID
  5
577
100
AcDbEntity
  8
DIM
100
AcDbTrace
 10
35.1051875074149
 20
60.681633896995
 30
0.0
 11
37.188520840748
 21
73.181633896995
 31
0.0
 12
33.021854174081
 22
73.181633896995
 32
0.0
 13
33.021854174081
 23
73.181633896995
 33
0.0
  0
SOLID
  5
578
100
AcDbEntity
  8
DIM
100
AcDbTrace
 10
33.021854174081
 20
214.092714934777
 30
0.0
 11
37.188520840748
 21
214.092714934777
 31
0.0
 12
35.1051875074149
 22
226.592714934777
 32
0.0
 13
35.1051875074149
 23
226.592714934777
 33
0.0
  0
TEXT
  5
579
100
AcDbEntity
  8
DIM
 62
0
100
AcDbText
  6
BYLAYER
 62
0
 10
41.3551875074163
 20
134.262174415887
 40
12.5
  1
166
  7
Font_0
 50
90
 72
1
 11
35.1051875074163
 21
143.637174415887
100
AcDbText
 73
2
  0
LINE
  5
57A
100
AcDbEntity
  8
DIM
100
AcDbLine
  6
BYLAYER
 62
0
370
  -2
 10
212.649954912737
 20
226.592714934777
 11
32.6051875074149
 21
226.592714934777
  0
LINE
  5
57B
100
AcDbEntity
  8
DIM
100
AcDbLine
  6
BYLAYER
 62
0
370
  -2
 10
212.649954912742
 20
401.592662784778
 11
32.6051875074149
 21
401.592662784778
  0
LINE
  5
57C
100
AcDbEntity
  8
DIM
100
AcDbLine
  6
BYLAYER
 62
0
370
  -2
 10
35.1051875074163
 20
239.092714934777
 11
35.1051875074163
 21
296.384355526444
  0
LINE
  5
57D
100
AcDbEntity
  8
DIM
100
AcDbLine
  6
BYLAYER
 62
0
370
  -2
 10
35.1051875074163
 20
389.092662784778
 11
35.1051875074163
 21
331.801022193111
  0
SOLID
  5
57E
100
AcDbEntity
  8
DIM
100
AcDbTrace
 10
35.1051875074163
 20
226.592714934777
 30
0.0
 11
37.1885208407489
 21
239.092714934777
 31
0.0
 12
33.0218541740819
 22
239.092714934777
 32
0.0
 13
33.0218541740819
 23
239.092714934777
 33
0.0
  0
SOLID
  5
57F
100
AcDbEntity
  8
DIM
100
AcDbTrace
 10
33.0218541740819
 20
389.092662784778
 30
0.0
 11
37.1885208407489
 21
389.092662784778
 31
0.0
 12
35.1051875074163
 22
401.592662784778
 32
0.0
 13
35.1051875074163
 23
401.592662784778
 33
0.0
  0
TEXT
  5
580
100
AcDbEntity
  8
DIM
 62
0
100
AcDbText
  6
BYLAYER
 62
0
 10
41.3551875074163
 20
304.717688859778
 40
12.5
  1
175
  7
Font_0
 50
90
 72
1
 11
35.1051875074163
 21
314.092688859778
100
AcDbText
 73
2
  0
LINE
  5
581
100
AcDbEntity
  8
DIM
100
AcDbLine
  6
BYLAYER
 62
0
370
  -2
 10
92.649954912737
 20
60.681633896995
 11
3.75000023541406
 21
60.681633896995
  0
LINE
  5
582
100
AcDbEntity
  8
DIM
100
AcDbLine
  6
BYLAYER
 62
0
370
  -2
 10
372.649907232737
 20
436.592692584777
 11
3.75000023541406
 21
436.592692584778
  0
LINE
  5
583
100
AcDbEntity
  8
DIM
100
AcDbLine
  6
BYLAYER
 62
0
370
  -2
 10
6.25000023541406
 20
73.181633896995
 11
6.25000023541406
 21
228.84549657422
  0
LINE
  5
584
100
AcDbEntity
  8
DIM
100
AcDbLine
  6
BYLAYER
 62
0
370
  -2
 10
6.25000023541406
 20
424.092692584778
 11
6.25000023541406
 21
268.428829907553
  0
SOLID
  5
585
100
AcDbEntity
  8
DIM
100
AcDbTrace
 10
6.25000023541406
 20
60.681633896995
 30
0.0
 11
8.33333356874709
 21
73.181633896995
 31
0.0
 12
4.16666690208012
 22
73.181633896995
 32
0.0
 13
4.16666690208012
 23
73.181633896995
 33
0.0
  0
SOLID
  5
586
100
AcDbEntity
  8
DIM
100
AcDbTrace
 10
4.16666690208012
 20
424.092692584778
 30
0.0
 11
8.33333356874709
 21
424.092692584778
 31
0.0
 12
6.25000023541406
 22
436.592692584778
 32
0.0
 13
6.25000023541406
 23
436.592692584778
 33
0.0
  0
TEXT
  5
587
100
AcDbEntity
  8
DIM
 62
0
100
AcDbText
  6
BYLAYER
 62
0
 10
12.5000002354141
 20
239.262163240887
 40
12.5
  1
376
  7
Font_0
 50
90
 72
1
 11
6.25000023541406
 21
248.637163240887
100
AcDbText
 73
2
  0
LWPOLYLINE
  5
588
100
AcDbEntity
  8
0
100
AcDbPolyline
  6
BYLAYER
 90
     19
 10
335.149919152736
  20
201.592722384776
 10
333.900349003592
  20
196.289086867923
 10
332.710013040182
  20
191.310549157778
 10
331.554020093136
  20
186.624327778902
 10
330.40747899308
  20
182.197641255853
 10
329.245498570645
  20
177.997708113193
 10
328.043187656458
  20
173.99174687548
 10
326.775655081147
  20
170.146976067276
 10
325.418009675342
  20
166.430614213139
 10
323.94536026967
  20
162.809879837631
 10
322.342553021687
  20
159.262429186231
 10
320.633383396662
  20
155.80766938811
 10
318.851384186789
  20
152.475445293357
 10
317.030088184264
  20
149.295601752063
 10
315.203028181283
  20
146.297983614317
 10
313.403736970041
  20
143.51243573021
 10
311.665747342733
  20
140.968802949831
 10
310.022592091554
  20
138.696930123272
 10
308.507804008701
  20
136.726662100623
  0
LWPOLYLINE
  5
589
100
AcDbEntity
  8
0
100
AcDbPolyline
  6
BYLAYER
 90
     55
 10
114.856028522836
  20
118.644436699244
 10
112.376451549392
  20
120.685557603638
 10
109.71597479556
  20
123.003872153216
 10
106.906201761984
  20
125.582230435635
 10
103.978735949307
  20
128.403482538554
 10
100.965180858173
  20
131.450478549631
 10
97.8971399892246
  20
134.706068556524
 10
94.8062168431065
  20
138.153102646891
 10
91.724014920462
  20
141.77443090839
 10
88.6821377219347
  20
145.552903428679
 10
85.7092335563235
  20
149.474651165019
 10
82.8221299650493
  20
153.538928553075
 10
80.0346992976883
  20
157.748270898117
 10
77.3608139038167
  20
162.105213505415
 10
74.8143461330106
  20
166.612291680237
 10
72.4091683348465
  20
171.272040727851
 10
70.1591528589004
  20
176.086995953528
 10
68.0781720547486
  20
181.059692662536
 10
66.1800982719672
  20
186.192666160144
 10
64.4764531077922
  20
191.483972577836
 10
62.9693551500981
  20
196.913751351957
 10
61.6585722344188
  20
202.45766274507
 10
60.5438721962883
  20
208.091367019735
 10
59.6250228712409
  20
213.790524438512
 10
58.9017920948106
  20
219.530795263964
 10
58.3739477025314
  20
225.28783975865
 10
58.0412575299375
  20
231.037318185132
 10
57.9034894125628
  20
236.754890805971
 10
57.9587901589787
  20
242.417775907039
 10
58.1988224699047
  20
248.009423867456
 10
58.6136280190979
  20
253.514843089653
 10
59.193248480315
  20
258.919041976059
 10
59.927725527313
  20
264.207028929106
 10
60.8071008338486
  20
269.363812351224
 10
61.8214160736788
  20
274.374400644845
 10
62.9607129205605
  20
279.223802212399
 10
64.2150330482504
  20
283.897025456316
 10
65.5747795783371
  20
288.382998352707
 10
67.031801423736
  20
292.686327172399
 10
68.5783089451938
  20
296.815537759898
 10
70.2065125034575
  20
300.779155959711
 10
71.9086224592741
  20
304.585707616345
 10
73.6768491733905
  20
308.243718574305
 10
75.5034030065536
  20
311.761714678099
 10
77.3804943195104
  20
315.148221772233
 10
79.3003334730076
  20
318.411765701213
 10
81.2535087723382
  20
321.558290057948
 10
83.2241203009778
  20
324.583409428954
 10
85.1946460869481
  20
327.48015614915
 10
87.1475641582707
  20
330.241562553454
 10
89.0653525429671
  20
332.860660976785
 10
90.9304892690589
  20
335.330483754061
 10
92.7254523645678
  20
337.644063220201
 10
94.4327198575153
  20
339.794431710123
 10
96.034769775923
  20
341.774621558745
  0
LINE
  5
58A
100
AcDbEntity
  8
DIM
100
AcDbLine
  6
BYLAYER
 62
0
370
  -2
 10
335.149954912737
 20
58.181633896995
 11
335.149954912737
 21
19.430464556518
  0
LINE
  5
58B
100
AcDbEntity
  8
DIM
100
AcDbLine
  6
BYLAYER
 62
0
370
  -2
 10
95.149954912737
 20
58.181633896995
 11
95.149954912737
 21
19.430464556518
  0
LINE
  5
58C
100
AcDbEntity
  8
DIM
100
AcDbLine
  6
BYLAYER
 62
0
370
  -2
 10
322.649954912737
 20
21.9304645565189
 11
233.899954912737
 21
21.9304645565189
  0
LINE
  5
58D
100
AcDbEntity
  8
DIM
100
AcDbLine
  6
BYLAYER
 62
0
370
  -2
 10
107.649954912737
 20
21.9304645565189
 11
196.399954912736
 21
21.9304645565189
  0
SOLID
  5
58E
100
AcDbEntity
  8
DIM
100
AcDbTrace
 10
322.649954912737
 20
24.013797889852
 30
0.0
 11
322.649954912737
 21
19.847131223185
 31
0.0
 12
335.149954912737
 22
21.9304645565189
 32
0.0
 13
335.149954912737
 23
21.9304645565189
 33
0.0
  0
SOLID
  5
58F
100
AcDbEntity
  8
DIM
100
AcDbTrace
 10
95.149954912737
 20
21.9304645565189
 30
0.0
 11
107.649954912737
 21
19.847131223185
 31
0.0
 12
107.649954912737
 22
24.013797889852
 32
0.0
 13
107.649954912737
 23
24.013797889852
 33
0.0
  0
TEXT
  5
590
100
AcDbEntity
  8
DIM
 62
0
100
AcDbText
  6
BYLAYER
 62
0
 10
205.774954912737
 20
15.6804645565189
 40
12.5
  1
240
  7
Font_0
 72
1
 11
215.149954912737
 21
21.9304645565189
100
AcDbText
 73
2
  0
LINE
  5
591
100
AcDbEntity
  8
DIM
100
AcDbLine
  6
BYLAYER
 62
0
370
  -2
 10
315.149954912738
 20
59.1816338969941
 11
315.149954912738
 21
42.3055845114041
  0
LINE
  5
592
100
AcDbEntity
  8
DIM
100
AcDbLine
  6
BYLAYER
 62
0
370
  -2
 10
115.149954912736
 20
59.1816338969911
 11
115.149954912736
 21
42.3055845114041
  0
LINE
  5
593
100
AcDbEntity
  8
DIM
100
AcDbLine
  6
BYLAYER
 62
0
370
  -2
 10
302.649954912738
 20
44.805584511405
 11
232.85828824607
 21
44.805584511405
  0
LINE
  5
594
100
AcDbEntity
  8
DIM
100
AcDbLine
  6
BYLAYER
 62
0
370
  -2
 10
127.649954912736
 20
44.805584511405
 11
197.441621579403
 21
44.805584511405
  0
SOLID
  5
595
100
AcDbEntity
  8
DIM
100
AcDbTrace
 10
302.649954912738
 20
46.888917844738
 30
0.0
 11
302.649954912738
 21
42.722251178071
 31
0.0
 12
315.149954912738
 22
44.805584511405
 32
0.0
 13
315.149954912738
 23
44.805584511405
 33
0.0
  0
SOLID
  5
596
100
AcDbEntity
  8
DIM
100
AcDbTrace
 10
115.149954912736
 20
44.805584511405
 30
0.0
 11
127.649954912736
 21
42.722251178071
 31
0.0
 12
127.649954912736
 22
46.888917844738
 32
0.0
 13
127.649954912736
 23
46.888917844738
 33
0.0
  0
TEXT
  5
597
100
AcDbEntity
  8
DIM
 62
0
100
AcDbText
  6
BYLAYER
 62
0
 10
205.774954912737
 20
38.555584511405
 40
12.5
  1
200
  7
Font_0
 72
1
 11
215.149954912737
 21
44.805584511405
100
AcDbText
 73
2
  0
LINE
  5
598
100
AcDbEntity
  8
0
100
AcDbLine
  6
BYLAYER
 10
335.149954912737
 20
62.6816338969945
 11
95.1499549127361
 21
62.6816338969948
  0
LINE
  5
599
100
AcDbEntity
  8
0
100
AcDbLine
  6
BYLAYER
 10
335.149954912736
 20
60.6816338969945
 11
95.1499549127361
 21
60.6816338969948
  0
LINE
  5
59A
100
AcDbEntity
  8
0
100
AcDbLine
  6
BYLAYER
 10
335.149954912737
 20
60.6816338969945
 11
335.149954912737
 21
62.6816338969945
  0
LINE
  5
59B
100
AcDbEntity
  8
0
100
AcDbLine
  6
BYLAYER
 10
319.399954912737
 20
60.6816338969945
 11
319.399954912738
 21
62.6816338969945
  0
LINE
  5
59C
100
AcDbEntity
  8
0
100
AcDbLine
  6
BYLAYER
 10
310.899954912737
 20
60.6816338969945
 11
310.899954912737
 21
62.6816338969945
  0
LINE
  5
59D
100
AcDbEntity
  8
0
100
AcDbLine
  6
BYLAYER
 10
95.1499549127361
 20
60.6816338969948
 11
95.1499549127361
 21
62.6816338969948
  0
LINE
  5
59E
100
AcDbEntity
  8
0
100
AcDbLine
  6
BYLAYER
 10
110.899954912736
 20
60.6816338969948
 11
110.899954912735
 21
62.6816338969948
  0
LINE
  5
59F
100
AcDbEntity
  8
0
100
AcDbLine
  6
BYLAYER
 10
119.399954912734
 20
60.6816338969948
 11
119.399954912736
 21
62.6816338969948
  0
ARC
  5
5A0
100
AcDbEntity
  8
0
100
AcDbCircle
  6
BYLAYER
 10
215.149954912736
 20
226.592714934776
 40
102
100
AcDbArc
 50
223.607822831978
 51
316.392177168022
  0
LINE
  5
5A1
100
AcDbEntity
  8
0
100
AcDbLine
  6
BYLAYER
 10
330.149954912736
 20
62.6816338969945
 11
333.664590417219
 21
66.1962694014771
  0
ARC
  5
5A2
100
AcDbEntity
  8
0
100
AcDbCircle
  6
BYLAYER
 10
212.942863103934
 20
116.614859228514
 40
3.25
100
AcDbArc
 50
88.8503133446282
 51
268.850313344628
  0
ARC
  5
5A3
100
AcDbEntity
  8
0
100
AcDbCircle
  6
BYLAYER
 10
217.357046721538
 20
116.614859228514
 40
3.25
100
AcDbArc
 50
271.149686655372
 51
91.1496866553717
  0
ARC
  5
5A4
100
AcDbEntity
  8
0
100
AcDbCircle
  6
BYLAYER
 10
215.149954912736
 20
226.592714934776
 40
106.749999999999
100
AcDbArc
 50
268.850313344628
 51
271.149686655372
  0
ARC
  5
5A5
100
AcDbEntity
  8
0
100
AcDbCircle
  6
BYLAYER
 10
215.149954912736
 20
226.592714934776
 40
113.249999999999
100
AcDbArc
 50
268.850313344628
 51
271.149686655372
  0
ARC
  5
5A6
100
AcDbEntity
  8
0
100
AcDbCircle
  6
BYLAYER
 10
135.812271310966
 20
150.39867343083
 40
3.25
100
AcDbArc
 50
43.8420825245696
 51
223.84208252457
  0
ARC
  5
5A7
100
AcDbEntity
  8
0
100
AcDbCircle
  6
BYLAYER
 10
138.933122058217
 20
147.276925903675
 40
3.25
100
AcDbArc
 50
226.141455835261
 51
46.1414558352611
  0
ARC
  5
5A8
100
AcDbEntity
  8
0
100
AcDbCircle
  6
BYLAYER
 10
215.149954912736
 20
226.592714934776
 40
106.749999999999
100
AcDbArc
 50
223.84208252457
 51
226.141455835261
  0
ARC
  5
5A9
100
AcDbEntity
  8
0
100
AcDbCircle
  6
BYLAYER
 10
215.149954912736
 20
226.592714934776
 40
113.249999999999
100
AcDbArc
 50
223.84208252457
 51
226.141455835261
  0
ARC
  5
5AA
100
AcDbEntity
  8
0
100
AcDbCircle
  6
BYLAYER
 10
294.487638514508
 20
150.39867343083
 40
3.25
100
AcDbArc
 50
316.15791747543
 51
136.15791747543
  0
ARC
  5
5AB
100
AcDbEntity
  8
0
100
AcDbCircle
  6
BYLAYER
 10
291.366787767255
 20
147.276925903675
 40
3.25
100
AcDbArc
 50
133.858544164739
 51
313.858544164739
  0
ARC
  5
5AC
100
AcDbEntity
  8
0
100
AcDbCircle
  6
BYLAYER
 10
215.149954912736
 20
226.592714934776
 40
106.749999999999
100
AcDbArc
 50
313.858544164739
 51
316.15791747543
  0
ARC
  5
5AD
100
AcDbEntity
  8
0
100
AcDbCircle
  6
BYLAYER
 10
215.149954912736
 20
226.592714934776
 40
113.249999999999
100
AcDbArc
 50
313.858544164739
 51
316.15791747543
  0
LINE
  5
5AE
100
AcDbEntity
  8
0
100
AcDbLine
  6
BYLAYER
 10
334.262193434769
 20
69.5854445302586
 11
301.827980470919
 21
154.140838692515
  0
ARC
  5
5AF
100
AcDbEntity
  8
0
100
AcDbCircle
  6
BYLAYER
 10
331.543270073659
 20
68.3175897450362
 40
3
100
AcDbArc
 50
315
 51
25.0000000000344
  0
ARC
  5
5B0
100
AcDbEntity
  8
0
100
AcDbCircle
  6
BYLAYER
 10
294.700359729802
 20
150.817174556508
 40
7.86445934048663
100
AcDbArc
 50
25.0000000000344
 51
136.392177168022
  0
LINE
  5
5B1
100
AcDbEntity
  8
0
100
AcDbLine
  6
BYLAYER
 10
100.149954912736
 20
62.6816338969948
 11
96.6353194082544
 21
66.1962694014774
  0
LINE
  5
5B2
100
AcDbEntity
  8
0
100
AcDbLine
  6
BYLAYER
 10
96.0377163907046
 20
69.5854445302589
 11
128.471929354555
 21
154.140838692516
  0
ARC
  5
5B3
100
AcDbEntity
  8
0
100
AcDbCircle
  6
BYLAYER
 10
98.7566397518144
 20
68.3175897450365
 40
3
100
AcDbArc
 50
155.000000000024
 51
225
  0
ARC
  5
5B4
100
AcDbEntity
  8
0
100
AcDbCircle
  6
BYLAYER
 10
135.599550095671
 20
150.817174556508
 40
7.86445934048663
100
AcDbArc
 50
43.6078228319777
 51
155.000000000024
  0
LINE
  5
5B5
100
AcDbEntity
  8
DIM
100
AcDbLine
  6
BYLAYER
 62
0
370
  -2
 10
533.040448505351
 20
434.092692584777
 11
533.040448505351
 21
460.264011423275
  0
LINE
  5
5B6
100
AcDbEntity
  8
DIM
100
AcDbLine
  6
BYLAYER
 62
0
370
  -2
 10
803.04044850535
 20
434.092692584777
 11
803.04044850535
 21
460.264011423275
  0
LINE
  5
5B7
100
AcDbEntity
  8
DIM
100
AcDbLine
  6
BYLAYER
 62
0
370
  -2
 10
545.540448505351
 20
457.764011423274
 11
649.29044850535
 21
457.764011423274
  0
LINE
  5
5B8
100
AcDbEntity
  8
DIM
100
AcDbLine
  6
BYLAYER
 62
0
370
  -2
 10
790.54044850535
 20
457.764011423274
 11
686.79044850535
 21
457.764011423274
  0
SOLID
  5
5B9
100
AcDbEntity
  8
DIM
100
AcDbTrace
 10
533.040448505351
 20
457.764011423274
 30
0.0
 11
545.540448505351
 21
455.680678089941
 31
0.0
 12
545.540448505351
 22
459.847344756608
 32
0.0
 13
545.540448505351
 23
459.847344756608
 33
0.0
  0
SOLID
  5
5BA
100
AcDbEntity
  8
DIM
100
AcDbTrace
 10
790.54044850535
 20
459.847344756608
 30
0.0
 11
790.54044850535
 21
455.680678089941
 31
0.0
 12
803.04044850535
 22
457.764011423274
 32
0.0
 13
803.04044850535
 23
457.764011423274
 33
0.0
  0
TEXT
  5
5BB
100
AcDbEntity
  8
DIM
 62
0
100
AcDbText
  6
BYLAYER
 62
0
 10
658.665448505351
 20
451.514011423274
 40
12.5
  1
270
  7
Font_0
 72
1
 11
668.040448505351
 21
457.764011423274
100
AcDbText
 73
2
  0
ARC
  5
5BC
100
AcDbEntity
  8
BASE
100
AcDbCircle
  6
BYLAYER
 10
781.040448505346
 20
62.6816338969943
 40
2
100
AcDbArc
 50
180
 51
270
  0
LINE
  5
5BD
100
AcDbEntity
  8
0
100
AcDbLine
  6
BYLAYER
 10
781.040448505346
 20
62.6816338969943
 11
781.040448505346
 21
60.6816338969943
  0
LINE
  5
5BE
100
AcDbEntity
  8
0
100
AcDbLine
  6
BYLAYER
 10
781.040448505346
 20
62.6816338969943
 11
779.040448505346
 21
62.6816338969943
  0
LINE
  5
5BF
100
AcDbEntity
  8
0
100
AcDbLine
  6
BYLAYER
 10
779.04044850535
 20
106.592714934776
 11
778.04044850535
 21
106.592714934776
  0
LINE
  5
5C0
100
AcDbEntity
  8
0
100
AcDbLine
  6
BYLAYER
 10
781.040448505346
 20
158.681633896995
 11
779.040448505345
 21
158.681633896995
  0
LINE
  5
5C1
100
AcDbEntity
  8
BASE
100
AcDbLine
  6
BYLAYER
 10
553.04044850535
 20
60.6816338969948
 11
528.04044850535
 21
60.6816338969943
  0
LINE
  5
5C2
100
AcDbEntity
  8
BASE
100
AcDbLine
  6
BYLAYER
 10
553.04044850535
 20
62.6816338969943
 11
528.04044850535
 21
62.6816338969943
  0
LINE
  5
5C3
100
AcDbEntity
  8
BASE
100
AcDbLine
  6
BYLAYER
 10
555.040448505346
 20
106.592714934776
 11
555.04044850535
 21
62.6816338969948
  0
ARC
  5
5C4
100
AcDbEntity
  8
BASE
100
AcDbCircle
  6
BYLAYER
 10
553.04044850535
 20
62.6816338969948
 40
2
100
AcDbArc
 50
270
 51
0
  0
LINE
  5
5C5
100
AcDbEntity
  8
BASE
100
AcDbLine
  6
BYLAYER
 10
553.04044850535
 20
158.681633896995
 11
553.04044850535
 21
62.6816338969943
  0
LINE
  5
5C6
100
AcDbEntity
  8
BASE
100
AcDbLine
  6
BYLAYER
 10
528.04044850535
 20
62.6816338969943
 11
528.04044850535
 21
60.6816338969943
  0
LINE
  5
5C7
100
AcDbEntity
  8
BASE
100
AcDbLine
  6
BYLAYER
 10
557.04044850535
 20
166.592692584776
 11
557.04044850535
 21
106.592714934776
  0
LINE
  5
5C8
100
AcDbEntity
  8
BASE
100
AcDbLine
  6
BYLAYER
 10
556.24044850535
 20
166.592692584776
 11
556.24044850535
 21
106.592714934776
  0
LINE
  5
5C9
100
AcDbEntity
  8
BASE
100
AcDbLine
  6
BYLAYER
 10
555.04044850535
 20
166.592692584776
 11
555.04044850535
 21
106.592714934776
  0
LINE
  5
5CA
100
AcDbEntity
  8
0
100
AcDbLine
  6
BYLAYER
 10
558.04044850535
 20
120.215559853877
 11
558.04044850535
 21
107.592714934776
  0
ARC
  5
5CB
100
AcDbEntity
  8
BASE
100
AcDbCircle
  6
BYLAYER
 10
553.04044850535
 20
62.6816338969943
 40
2
100
AcDbArc
 50
270
 51
0
  0
LINE
  5
5CC
100
AcDbEntity
  8
0
100
AcDbLine
  6
BYLAYER
 10
553.04044850535
 20
62.6816338969943
 11
553.04044850535
 21
60.6816338969943
  0
LINE
  5
5CD
100
AcDbEntity
  8
0
100
AcDbLine
  6
BYLAYER
 10
553.04044850535
 20
62.6816338969943
 11
555.04044850535
 21
62.6816338969943
  0
LINE
  5
5CE
100
AcDbEntity
  8
0
100
AcDbLine
  6
BYLAYER
 10
555.04044850535
 20
106.592714934776
 11
556.24044850535
 21
106.592714934776
  0
LINE
  5
5CF
100
AcDbEntity
  8
0
100
AcDbLine
  6
BYLAYER
 10
557.04044850535
 20
106.592714934776
 11
558.04044850535
 21
106.592714934776
  0
LINE
  5
5D0
100
AcDbEntity
  8
0
100
AcDbLine
  6
BYLAYER
 10
553.04044850535
 20
158.681633896995
 11
555.04044850535
 21
158.681633896995
  0
LINE
  5
5D1
100
AcDbEntity
  8
DIM
100
AcDbLine
  6
BYLAYER
 62
0
370
  -2
 10
792.540448505346
 20
58.181633896995
 11
792.540448505346
 21
49.7437285395799
  0
LINE
  5
5D2
100
AcDbEntity
  8
DIM
100
AcDbLine
  6
BYLAYER
 62
0
370
  -2
 10
541.540448505351
 20
58.181633896995
 11
541.540448505351
 21
49.7437285395799
  0
LINE
  5
5D3
100
AcDbEntity
  8
DIM
100
AcDbLine
  6
BYLAYER
 62
0
370
  -2
 10
780.040448505346
 20
52.2437285395799
 11
684.748781838682
 21
52.2437285395799
  0
LINE
  5
5D4
100
AcDbEntity
  8
DIM
100
AcDbLine
  6
BYLAYER
 62
0
370
  -2
 10
554.04044850535
 20
52.2437285395799
 11
649.332115172015
 21
52.2437285395799
  0
SOLID
  5
5D5
100
AcDbEntity
  8
DIM
100
AcDbTrace
 10
780.040448505346
 20
54.327061872913
 30
0.0
 11
780.040448505346
 21
50.1603952062469
 31
0.0
 12
792.540448505346
 22
52.2437285395799
 32
0.0
 13
792.540448505346
 23
52.2437285395799
 33
0.0
  0
SOLID
  5
5D6
100
AcDbEntity
  8
DIM
100
AcDbTrace
 10
541.540448505351
 20
52.2437285395799
 30
0.0
 11
554.04044850535
 21
50.1603952062469
 31
0.0
 12
554.04044850535
 22
54.327061872913
 32
0.0
 13
554.04044850535
 23
54.327061872913
 33
0.0
  0
TEXT
  5
5D7
100
AcDbEntity
  8
DIM
 62
0
100
AcDbText
  6
BYLAYER
 62
0
 10
657.665448505349
 20
45.9937285395799
 40
12.5
  1
251
  7
Font_0
 72
1
 11
667.040448505349
 21
52.2437285395799
100
AcDbText
 73
2
  0
LINE
  5
5D8
100
AcDbEntity
  8
DIM
100
AcDbLine
  6
BYLAYER
 62
0
370
  -2
 10
806.040448505347
 20
58.181633896995
 11
806.040448505347
 21
26.035620429534
  0
LINE
  5
5D9
100
AcDbEntity
  8
DIM
100
AcDbLine
  6
BYLAYER
 62
0
370
  -2
 10
528.04044850535
 20
58.181633896995
 11
528.04044850535
 21
26.035620429534
  0
LINE
  5
5DA
100
AcDbEntity
  8
DIM
100
AcDbLine
  6
BYLAYER
 62
0
370
  -2
 10
793.540448505347
 20
28.535620429534
 11
686.832115172015
 21
28.535620429534
  0
LINE
  5
5DB
100
AcDbEntity
  8
DIM
100
AcDbLine
  6
BYLAYER
 62
0
370
  -2
 10
540.540448505351
 20
28.535620429534
 11
647.248781838682
 21
28.535620429534
  0
SOLID
  5
5DC
100
AcDbEntity
  8
DIM
100
AcDbTrace
 10
793.540448505347
 20
30.618953762867
 30
0.0
 11
793.540448505347
 21
26.4522870962001
 31
0.0
 12
806.040448505347
 22
28.535620429534
 32
0.0
 13
806.040448505347
 23
28.535620429534
 33
0.0
  0
SOLID
  5
5DD
100
AcDbEntity
  8
DIM
100
AcDbTrace
 10
528.04044850535
 20
28.535620429534
 30
0.0
 11
540.540448505351
 21
26.4522870962001
 31
0.0
 12
540.540448505351
 22
30.618953762867
 32
0.0
 13
540.540448505351
 23
30.618953762867
 33
0.0
  0
TEXT
  5
5DE
100
AcDbEntity
  8
DIM
 62
0
100
AcDbText
  6
BYLAYER
 62
0
 10
657.665448505349
 20
22.285620429534
 40
12.5
  1
278
  7
Font_0
 72
1
 11
667.040448505349
 21
28.535620429534
100
AcDbText
 73
2
  0
LINE
  5
5DF
100
AcDbEntity
  8
DIM
100
AcDbLine
  6
BYLAYER
 62
0
370
  -2
 10
816.540448505351
 20
198.592714934777
 11
816.540448505351
 21
26.035620429534
  0
LINE
  5
5E0
100
AcDbEntity
  8
DIM
100
AcDbLine
  6
BYLAYER
 62
0
370
  -2
 10
806.040448505347
 20
58.181633896995
 11
806.040448505347
 21
26.035620429534
  0
LINE
  5
5E1
100
AcDbEntity
  8
DIM
100
AcDbLine
  6
BYLAYER
 62
0
370
  -2
 10
793.540448505347
 20
28.535620429534
 11
781.040448505347
 21
28.535620429534
  0
LINE
  5
5E2
100
AcDbEntity
  8
DIM
100
AcDbLine
  6
BYLAYER
 62
0
370
  -2
 10
829.040448505351
 20
28.535620429534
 11
841.540448505351
 21
28.535620429534
  0
SOLID
  5
5E3
100
AcDbEntity
  8
DIM
100
AcDbTrace
 10
793.540448505347
 20
30.618953762867
 30
0.0
 11
793.540448505347
 21
26.4522870962001
 31
0.0
 12
806.040448505347
 22
28.535620429534
 32
0.0
 13
806.040448505347
 23
28.535620429534
 33
0.0
  0
SOLID
  5
5E4
100
AcDbEntity
  8
DIM
100
AcDbTrace
 10
816.540448505351
 20
28.535620429534
 30
0.0
 11
829.040448505351
 21
26.4522870962001
 31
0.0
 12
829.040448505351
 22
30.618953762867
 32
0.0
 13
829.040448505351
 23
30.618953762867
 33
0.0
  0
TEXT
  5
5E5
100
AcDbEntity
  8
DIM
 62
0
100
AcDbText
  6
BYLAYER
 62
0
 10
847.790448505351
 20
22.285620429534
 40
12.5
  1
10.5
  7
Font_0
 72
1
 11
860.290448505351
 21
28.535620429534
100
AcDbText
 73
2
  0
LINE
  5
5E6
100
AcDbEntity
  8
DIM
100
AcDbLine
  6
BYLAYER
 62
0
370
  -2
 10
816.540448505351
 20
198.592714934777
 11
816.540448505351
 21
3.75000054749717
  0
LINE
  5
5E7
100
AcDbEntity
  8
DIM
100
AcDbLine
  6
BYLAYER
 62
0
370
  -2
 10
528.04044850535
 20
58.181633896995
 11
528.04044850535
 21
3.75000054749717
  0
LINE
  5
5E8
100
AcDbEntity
  8
DIM
100
AcDbLine
  6
BYLAYER
 62
0
370
  -2
 10
804.040448505351
 20
6.25000054749717
 11
700.415448505351
 21
6.25000054749717
  0
LINE
  5
5E9
100
AcDbEntity
  8
DIM
100
AcDbLine
  6
BYLAYER
 62
0
370
  -2
 10
540.540448505351
 20
6.25000054749717
 11
644.16544850535
 21
6.25000054749717
  0
SOLID
  5
5EA
100
AcDbEntity
  8
DIM
100
AcDbTrace
 10
804.040448505351
 20
8.3333338808302
 30
0.0
 11
804.040448505351
 21
4.16666721416323
 31
0.0
 12
816.540448505351
 22
6.25000054749717
 32
0.0
 13
816.540448505351
 23
6.25000054749717
 33
0.0
  0
SOLID
  5
5EB
100
AcDbEntity
  8
DIM
100
AcDbTrace
 10
528.04044850535
 20
6.25000054749717
 30
0.0
 11
540.540448505351
 21
4.16666721416323
 31
0.0
 12
540.540448505351
 22
8.3333338808302
 32
0.0
 13
540.540448505351
 23
8.3333338808302
 33
0.0
  0
TEXT
  5
5EC
100
AcDbEntity
  8
DIM
 62
0
100
AcDbText
  6
BYLAYER
 62
0
 10
656.66544850535
 20
5.47497165825916E-7
 40
12.5
  1
288.5
  7
Font_0
 72
1
 11
672.29044850535
 21
6.25000054749717
100
AcDbText
 73
2
  0
LINE
  5
5ED
100
AcDbEntity
  8
BASE
100
AcDbLine
  6
BYLAYER
 10
375.149907232736
 20
401.592692584776
 11
215.149954912736
 21
401.592662784776
  0
ARC
  5
5EE
100
AcDbEntity
  8
BASE
100
AcDbCircle
  6
BYLAYER
 10
223.798406376852
 20
235.865494404529
 40
165.952674133508
100
AcDbArc
 50
92.9872633237617
 51
140.343109766179
  0
LINE
  5
5EF
100
AcDbEntity
  8
DIM
100
AcDbLine
  6
BYLAYER
 62
0
370
  -2
 10
297.200359729803
 20
158.681633896996
 11
356.05542874861
 21
158.681633896996
  0
LINE
  5
5F0
100
AcDbEntity
  8
DIM
100
AcDbLine
  6
BYLAYER
 62
0
370
  -2
 10
337.649954912737
 20
60.681633896995
 11
356.05542874861
 21
60.681633896995
  0
LINE
  5
5F1
100
AcDbEntity
  8
DIM
100
AcDbLine
  6
BYLAYER
 62
0
370
  -2
 10
353.55542874861
 20
146.181633896996
 11
353.55542874861
 21
123.223300563662
  0
LINE
  5
5F2
100
AcDbEntity
  8
DIM
100
AcDbLine
  6
BYLAYER
 62
0
370
  -2
 10
353.55542874861
 20
73.181633896995
 11
353.55542874861
 21
96.1399672303289
  0
SOLID
  5
5F3
100
AcDbEntity
  8
DIM
100
AcDbTrace
 10
351.472095415277
 20
146.181633896996
 30
0.0
 11
355.638762081944
 21
146.181633896996
 31
0.0
 12
353.55542874861
 22
158.681633896996
 32
0.0
 13
353.55542874861
 23
158.681633896996
 33
0.0
  0
SOLID
  5
5F4
100
AcDbEntity
  8
DIM
100
AcDbTrace
 10
353.55542874861
 20
60.681633896995
 30
0.0
 11
355.638762081944
 21
73.181633896995
 31
0.0
 12
351.472095415277
 22
73.181633896995
 32
0.0
 13
351.472095415277
 23
73.181633896995
 33
0.0
  0
TEXT
  5
5F5
100
AcDbEntity
  8
DIM
 62
0
100
AcDbText
  6
BYLAYER
 62
0
 10
359.805428748611
 20
103.431633896996
 40
12.5
  1
98
  7
Font_0
 50
90
 72
1
 11
353.555428748611
 21
109.681633896996
100
AcDbText
 73
2
  0
LINE
  5
5F6
100
AcDbEntity
  8
BASE
100
AcDbLine
  6
BYLAYER
 10
375.149907232736
 20
166.592692584776
 11
375.149907232736
 21
436.592692584777
  0
ENDBLK
  5
5F7
100
AcDbEntity
  8
0
 67
     1
100
AcDbBlockEnd
  0
BLOCK
  5
5F8
100
AcDbEntity
  8
0
100
AcDbBlockBegin
  2
Rｺﾝ､L
 70
    0
 10
0
 20
0
 30
0.0
  3
Rｺﾝ､L
  1

  0
LINE
  5
5F9
100
AcDbEntity
  8
0
100
AcDbLine
  6
BYLAYER
 10
1.5
 20
4
 11
3.9509924697129
 21
10.1840630586541
  0
LINE
  5
5FA
100
AcDbEntity
  8
0
100
AcDbLine
  6
BYLAYER
 10
-1.5
 20
4
 11
-3.9509924697129
 21
10.1840630586541
  0
LINE
  5
5FB
100
AcDbEntity
  8
0
100
AcDbLine
  6
BYLAYER
 10
-1.5
 20
0
 11
1.5
 21
0
  0
LINE
  5
5FC
100
AcDbEntity
  8
0
100
AcDbLine
  6
BYLAYER
 10
-1.5
 20
4
 11
1.5
 21
4
  0
LINE
  5
5FD
100
AcDbEntity
  8
0
100
AcDbLine
  6
BYLAYER
 10
1.5
 20
4
 11
1.5
 21
0
  0
LINE
  5
5FE
100
AcDbEntity
  8
0
100
AcDbLine
  6
BYLAYER
 10
-1.5
 20
4
 11
-1.5
 21
0
  0
ARC
  5
5FF
100
AcDbEntity
  8
0
100
AcDbCircle
  6
BYLAYER
 10
0
 20
11.75
 40
4.25
100
AcDbArc
 50
338.379589074111
 51
201.620410925889
  0
CIRCLE
  5
600
100
AcDbEntity
  8
0
100
AcDbCircle
  6
BYLAYER
 10
0
 20
11.75
 40
2.7
  0
ENDBLK
  5
601
100
AcDbEntity
  8
0
 67
     1
100
AcDbBlockEnd
  0
BLOCK
  5
602
100
AcDbEntity
  8
0
100
AcDbBlockBegin
  2
A$C09260B6A
 70
    0
 10
0
 20
0
 30
0.0
  3
A$C09260B6A
  1

  0
LINE
  5
603
100
AcDbEntity
  8
BASE
100
AcDbLine
  6
BYLAYER
 10
10.0000030374804
 20
-1.0608939647E-6
 11
230.000003037482
 21
-1.0608939647E-6
  0
ARC
  5
604
100
AcDbEntity
  8
0
100
AcDbCircle
  6
BYLAYER
 10
10.0000030374804
 20
9.99999893910604
 40
10
100
AcDbArc
 50
180
 51
270
  0
ARC
  5
605
100
AcDbEntity
  8
0
100
AcDbCircle
  6
BYLAYER
 10
230.000003037482
 20
9.99999893910604
 40
10
100
AcDbArc
 50
270
 51
0
  0
LINE
  5
606
100
AcDbEntity
  8
0
100
AcDbLine
  6
BYLAYER
 10
240.000003037481
 20
18.7573582519863
 11
240.000003037482
 21
9.99999893910672
  0
LINE
  5
607
100
AcDbEntity
  8
0
100
AcDbLine
  6
BYLAYER
 10
5.00000303748129
 20
24.9999989391058
 11
0.878682693921292
 21
20.8786785955456
  0
LINE
  5
608
100
AcDbEntity
  8
0
100
AcDbLine
  6
BYLAYER
 10
3.0374812923E-6
 20
18.7573582519863
 11
3.0374803828E-6
 21
9.99999893910672
  0
ARC
  5
609
100
AcDbEntity
  8
0
100
AcDbCircle
  6
BYLAYER
 10
3.00000303748129
 20
18.757358251986
 40
3
100
AcDbArc
 50
135.000000000009
 51
179.999999999987
  0
LINE
  5
60A
100
AcDbEntity
  8
0
100
AcDbLine
  6
BYLAYER
 10
3.0374815196E-6
 20
24.999998939106
 11
240.000003037481
 21
24.9999989391058
  0
LINE
  5
60B
100
AcDbEntity
  8
0
100
AcDbLine
  6
BYLAYER
 10
3.0374815196E-6
 20
26.9999989391058
 11
240.000003037481
 21
26.9999989391056
  0
ARC
  5
60C
100
AcDbEntity
  8
0
100
AcDbCircle
  6
BYLAYER
 10
220.000003037482
 20
12.4999989391063
 40
4.25
100
AcDbArc
 50
180
 51
0
  0
ARC
  5
60D
100
AcDbEntity
  8
0
100
AcDbCircle
  6
BYLAYER
 10
220.000003037482
 20
14.4999989391063
 40
4.25
100
AcDbArc
 50
0
 51
180
  0
LINE
  5
60E
100
AcDbEntity
  8
0
100
AcDbLine
  6
BYLAYER
 10
215.750003037482
 20
14.4999989391063
 11
215.750003037482
 21
12.4999989391063
  0
LINE
  5
60F
100
AcDbEntity
  8
0
100
AcDbLine
  6
BYLAYER
 10
224.250003037482
 20
14.4999989391063
 11
224.250003037482
 21
12.4999989391063
  0
ARC
  5
610
100
AcDbEntity
  8
0
100
AcDbCircle
  6
BYLAYER
 10
20.0000030374804
 20
12.4999989391063
 40
4.25
100
AcDbArc
 50
180
 51
0
  0
ARC
  5
611
100
AcDbEntity
  8
0
100
AcDbCircle
  6
BYLAYER
 10
20.0000030374804
 20
14.4999989391063
 40
4.25
100
AcDbArc
 50
0
 51
180
  0
LINE
  5
612
100
AcDbEntity
  8
0
100
AcDbLine
  6
BYLAYER
 10
24.2500030374802
 20
14.4999989391063
 11
24.2500030374802
 21
12.4999989391063
  0
LINE
  5
613
100
AcDbEntity
  8
0
100
AcDbLine
  6
BYLAYER
 10
15.7500030374804
 20
14.4999989391063
 11
15.7500030374804
 21
12.4999989391063
  0
LINE
  5
614
100
AcDbEntity
  8
0
100
AcDbLine
  6
BYLAYER
 10
235.000003037481
 20
24.9999989391058
 11
239.121323381041
 21
20.8786785955456
  0
LINE
  5
615
100
AcDbEntity
  8
0
100
AcDbLine
  6
BYLAYER
 10
240.000003037481
 20
18.7573582519863
 11
240.000003037482
 21
9.99999893910672
  0
ARC
  5
616
100
AcDbEntity
  8
0
100
AcDbCircle
  6
BYLAYER
 10
237.000003037481
 20
18.757358251986
 40
3
100
AcDbArc
 50
0
 51
44.9999999999908
  0
LINE
  5
617
100
AcDbEntity
  8
0
100
AcDbLine
  6
BYLAYER
 10
3.0374812923E-6
 20
24.999998939106
 11
3.0374812923E-6
 21
26.9999989391058
  0
LINE
  5
618
100
AcDbEntity
  8
0
100
AcDbLine
  6
BYLAYER
 10
240.000003037481
 20
24.999998939106
 11
240.000003037481
 21
26.9999989391058
  0
ENDBLK
  5
619
100
AcDbEntity
  8
0
 67
     1
100
AcDbBlockEnd
  0
ENDSEC
  0
SECTION
  2
ENTITIES
  0
LINE
  5
61A
100
AcDbEntity
  8
BASE
100
AcDbLine
  6
BYLAYER
 10
-51.3868960176812
 20
-149.935913919206
 11
3.69628564898107
 21
-149.935913919206
  0
CIRCLE
  5
61B
100
AcDbEntity
  8
BASE
100
AcDbCircle
  6
BYLAYER
 10
108.613056302318
 20
25.0640339307944
 40
121
  0
CIRCLE
  5
61C
100
AcDbEntity
  8
BASE
100
AcDbCircle
  6
BYLAYER
 10
108.613056302318
 20
25.0640339307944
 40
119
  0
CIRCLE
  5
61D
100
AcDbEntity
  8
BASE
100
AcDbCircle
  6
BYLAYER
 10
108.613056302318
 20
25.0640339307944
 40
80
  0
CIRCLE
  5
61E
100
AcDbEntity
  8
0
100
AcDbCircle
  6
BYLAYER
 10
186.394802232839
 20
-52.7177119997258
 40
2.6
  0
CIRCLE
  5
61F
100
AcDbEntity
  8
0
100
AcDbCircle
  6
BYLAYER
 10
108.613056302318
 20
-84.9359660692056
 40
2.6
  0
CIRCLE
  5
620
100
AcDbEntity
  8
0
100
AcDbCircle
  6
BYLAYER
 10
30.8313103717981
 20
-52.7177119997258
 40
2.6
  0
CIRCLE
  5
621
100
AcDbEntity
  8
BASE
100
AcDbCircle
  6
BYLAYER
 10
218.613056302318
 20
25.0640339307944
 40
2.6
  0
CIRCLE
  5
622
100
AcDbEntity
  8
BASE
100
AcDbCircle
  6
BYLAYER
 10
186.394802232839
 20
102.845779861315
 40
2.6
  0
CIRCLE
  5
623
100
AcDbEntity
  8
BASE
100
AcDbCircle
  6
BYLAYER
 10
108.613056302318
 20
25.0640339307944
 40
7
  0
CIRCLE
  5
624
100
AcDbEntity
  8
BASE
100
AcDbCircle
  6
BYLAYER
 10
-1.38694369768177
 20
25.0640339307944
 40
2.6
  0
CIRCLE
  5
625
100
AcDbEntity
  8
BASE
100
AcDbCircle
  6
BYLAYER
 10
108.613056302318
 20
135.064033930794
 40
2.6
  0
CIRCLE
  5
626
100
AcDbEntity
  8
BASE
100
AcDbCircle
  6
BYLAYER
 10
30.8313103717985
 20
102.845779861315
 40
2.6
  0
LINE
  5
627
100
AcDbEntity
  8
BASE
100
AcDbLine
  6
BYLAYER
 10
-369.360674496615
 20
-18.1359735192053
 11
-369.360674496613
 21
-69.6859660692056
  0
LINE
  5
628
100
AcDbEntity
  8
BASE
100
AcDbLine
  6
BYLAYER
 10
-364.548174496614
 20
-66.7859660692055
 11
-364.548174496614
 21
-18.1359735192053
  0
LINE
  5
629
100
AcDbEntity
  8
BASE
100
AcDbLine
  6
BYLAYER
 10
-371.360674496613
 20
-18.1359735192053
 11
-371.360674496613
 21
-69.6859660692056
  0
LINE
  5
62A
100
AcDbEntity
  8
BASE
100
AcDbLine
  6
BYLAYER
 10
-408.360674496613
 20
-179.935943719206
 11
-408.360674496613
 21
80.0640562807945
  0
LINE
  5
62B
100
AcDbEntity
  8
BASE
100
AcDbLine
  6
BYLAYER
 10
-266.548174496614
 20
-66.7859660692055
 11
-266.548174496614
 21
-18.1359735192053
  0
LINE
  5
62C
100
AcDbEntity
  8
BASE
100
AcDbLine
  6
BYLAYER
 10
-182.173174496613
 20
-66.7859660692055
 11
-182.173174496613
 21
-18.1359735192053
  0
LINE
  5
62D
100
AcDbEntity
  8
BASE
100
AcDbLine
  6
BYLAYER
 10
-280.173174496614
 20
-66.7859660692055
 11
-280.173174496614
 21
-18.1359735192053
  0
LINE
  5
62E
100
AcDbEntity
  8
BASE
100
AcDbLine
  6
BYLAYER
 10
-275.360674496613
 20
-18.1359735192053
 11
-275.360674496614
 21
-69.6859660692056
  0
LINE
  5
62F
100
AcDbEntity
  8
BASE
100
AcDbLine
  6
BYLAYER
 10
-273.360674496614
 20
-18.1359735192053
 11
-273.360674496614
 21
-69.6859660692056
  0
LINE
  5
630
100
AcDbEntity
  8
BASE
100
AcDbLine
  6
BYLAYER
 10
-177.360674496612
 20
-18.1359735192053
 11
-177.360674496613
 21
-69.6859660692056
  0
LINE
  5
631
100
AcDbEntity
  8
BASE
100
AcDbLine
  6
BYLAYER
 10
-175.360674496613
 20
-18.1359735192053
 11
-175.360674496613
 21
-69.6859660692056
  0
LINE
  5
632
100
AcDbEntity
  8
BASE
100
AcDbLine
  6
BYLAYER
 10
-273.360674496613
 20
-18.1359735192053
 11
-273.360674496613
 21
-69.6859660692056
  0
LINE
  5
633
100
AcDbEntity
  8
BASE
100
AcDbLine
  6
BYLAYER
 10
-271.360674496615
 20
-18.1359735192053
 11
-271.360674496613
 21
-69.6859660692056
  0
LINE
  5
634
100
AcDbEntity
  8
DIM
100
AcDbLine
  6
BYLAYER
 62
0
370
  -2
 10
-145.860674496613
 20
85.0640562807945
 11
-94.1352292435842
 21
85.0640562807945
  0
LINE
  5
635
100
AcDbEntity
  8
DIM
100
AcDbLine
  6
BYLAYER
 62
0
370
  -2
 10
-140.860674496613
 20
-184.935943719206
 11
-94.1352292435843
 21
-184.935943719206
  0
LINE
  5
636
100
AcDbEntity
  8
DIM
100
AcDbLine
  6
BYLAYER
 62
0
370
  -2
 10
-96.6352292435842
 20
72.5640562807945
 11
-96.6352292435843
 21
-26.8109437192055
  0
LINE
  5
637
100
AcDbEntity
  8
DIM
100
AcDbLine
  6
BYLAYER
 62
0
370
  -2
 10
-96.6352292435843
 20
-172.435943719206
 11
-96.6352292435843
 21
-73.0609437192055
  0
SOLID
  5
638
100
AcDbEntity
  8
DIM
100
AcDbTrace
 10
-98.7185625769176
 20
72.5640562807945
 30
0.0
 11
-94.5518959102509
 21
72.5640562807945
 31
0.0
 12
-96.6352292435842
 22
85.0640562807945
 32
0.0
 13
-96.6352292435842
 23
85.0640562807945
 33
0.0
  0
SOLID
  5
639
100
AcDbEntity
  8
DIM
100
AcDbTrace
 10
-96.6352292435843
 20
-184.935943719206
 30
0.0
 11
-94.551895910251
 21
-172.435943719206
 31
0.0
 12
-98.7185625769176
 22
-172.435943719206
 32
0.0
 13
-98.7185625769176
 23
-172.435943719206
 33
0.0
  0
TEXT
  5
63A
100
AcDbEntity
  8
DIM
 62
0
100
AcDbText
  6
BYLAYER
 62
0
 10
-90.3852292435843
 20
-59.3109437192055
 40
12.5
  1
270
  7
Font_0
 50
90
 72
1
 11
-96.6352292435843
 21
-49.9359437192055
100
AcDbText
 73
2
  0
LINE
  5
63B
100
AcDbEntity
  8
DIM
100
AcDbLine
  6
BYLAYER
 62
0
370
  -2
 10
-145.860674496613
 20
75.0640562807945
 11
-115.944851952725
 21
75.0640562807945
  0
LINE
  5
63C
100
AcDbEntity
  8
DIM
100
AcDbLine
  6
BYLAYER
 62
0
370
  -2
 10
-145.860674496613
 20
-49.9359437192055
 11
-115.944851952725
 21
-49.9359437192055
  0
LINE
  5
63D
100
AcDbEntity
  8
DIM
100
AcDbLine
  6
BYLAYER
 62
0
370
  -2
 10
-118.444851952725
 20
62.5640562807945
 11
-118.444851952725
 21
39.1718655911236
  0
LINE
  5
63E
100
AcDbEntity
  8
DIM
100
AcDbLine
  6
BYLAYER
 62
0
370
  -2
 10
-118.444851952725
 20
-37.4359437192055
 11
-118.444851952725
 21
-4.99480107554307
  0
SOLID
  5
63F
100
AcDbEntity
  8
DIM
100
AcDbTrace
 10
-120.528185286058
 20
62.5640562807945
 30
0.0
 11
-116.361518619392
 21
62.5640562807945
 31
0.0
 12
-118.444851952725
 22
75.0640562807945
 32
0.0
 13
-118.444851952725
 23
75.0640562807945
 33
0.0
  0
SOLID
  5
640
100
AcDbEntity
  8
DIM
100
AcDbTrace
 10
-118.444851952725
 20
-49.9359437192055
 30
0.0
 11
-116.361518619392
 21
-37.4359437192055
 31
0.0
 12
-120.528185286058
 22
-37.4359437192055
 32
0.0
 13
-120.528185286058
 23
-37.4359437192055
 33
0.0
  0
TEXT
  5
641
100
AcDbEntity
  8
DIM
 62
0
100
AcDbText
  6
BYLAYER
 62
0
 10
-112.194851952725
 20
7.71353225779023
 40
12.5
  1
125
  7
Font_0
 50
90
 72
1
 11
-118.444851952725
 21
17.0885322577902
100
AcDbText
 73
2
  0
LINE
  5
642
100
AcDbEntity
  8
BASE
100
AcDbLine
  6
BYLAYER
 10
-138.360674496613
 20
75.0640562807945
 11
-138.360674496613
 21
-179.935943719206
  0
LINE
  5
643
100
AcDbEntity
  8
BASE
100
AcDbLine
  6
BYLAYER
 10
-51.3868960176812
 20
50.0640264807945
 11
-51.3868960176812
 21
-149.935913919206
  0
LINE
  5
644
100
AcDbEntity
  8
BASE
100
AcDbLine
  6
BYLAYER
 10
-51.3868960176812
 20
-184.935943719206
 11
-51.3868960176812
 21
85.0640562807945
  0
LINE
  5
645
100
AcDbEntity
  8
BASE
100
AcDbLine
  6
BYLAYER
 10
-52.8868960176812
 20
85.0640562807945
 11
-52.8868960176812
 21
-184.935943719206
  0
LINE
  5
646
100
AcDbEntity
  8
BASE
100
AcDbLine
  6
BYLAYER
 10
-261.163418389776
 20
-35.1810217871652
 11
-266.548174496614
 21
-32.6810217871652
  0
LINE
  5
647
100
AcDbEntity
  8
BASE
100
AcDbLine
  6
BYLAYER
 10
-261.163418389776
 20
-38.0779652782356
 11
-266.548174496614
 21
-35.5779652782356
  0
LINE
  5
648
100
AcDbEntity
  8
BASE
100
AcDbLine
  6
BYLAYER
 10
-261.163418389776
 20
-44.4004107814263
 11
-266.548174496614
 21
-41.9004107814266
  0
LINE
  5
649
100
AcDbEntity
  8
BASE
100
AcDbLine
  6
BYLAYER
 10
-261.163418389776
 20
-46.7647719743908
 11
-266.548174496614
 21
-44.264771974391
  0
LINE
  5
64A
100
AcDbEntity
  8
BASE
100
AcDbLine
  6
BYLAYER
 10
-261.163418389776
 20
-56.1660402413171
 11
-266.548174496614
 21
-53.6660402413171
  0
LINE
  5
64B
100
AcDbEntity
  8
BASE
100
AcDbLine
  6
BYLAYER
 10
-261.163418389776
 20
-57.2998593471506
 11
-266.548174496614
 21
-54.7998593471506
  0
LINE
  5
64C
100
AcDbEntity
  8
BASE
100
AcDbLine
  6
BYLAYER
 10
-261.163418389776
 20
-63.0991738089245
 11
-266.548174496614
 21
-60.5991738089245
  0
LINE
  5
64D
100
AcDbEntity
  8
BASE
100
AcDbLine
  6
BYLAYER
 10
-261.163418389776
 20
-63.7669063088
 11
-266.548174496614
 21
-61.2669063088
  0
LINE
  5
64E
100
AcDbEntity
  8
BASE
100
AcDbLine
  6
BYLAYER
 10
-261.163418389776
 20
-67.8534932037691
 11
-266.548174496614
 21
-65.3534932037693
  0
LINE
  5
64F
100
AcDbEntity
  8
BASE
100
AcDbLine
  6
BYLAYER
 10
-261.163418389776
 20
-67.3535129220962
 11
-266.548174496614
 21
-64.8535129220962
  0
LINE
  5
650
100
AcDbEntity
  8
BASE
100
AcDbLine
  6
BYLAYER
 10
-261.163418389776
 20
-68.7997916396783
 11
-266.548174496614
 21
-66.2997916396783
  0
LINE
  5
651
100
AcDbEntity
  8
BASE
100
AcDbLine
  6
BYLAYER
 10
-261.163418389776
 20
-69.2859660692055
 11
-266.548174496614
 21
-66.7859660692055
  0
LINE
  5
652
100
AcDbEntity
  8
BASE
100
AcDbLine
  6
BYLAYER
 10
-261.163418389776
 20
-51.3885452611383
 11
-266.548174496614
 21
-48.8885452611383
  0
LINE
  5
653
100
AcDbEntity
  8
BASE
100
AcDbLine
  6
BYLAYER
 10
-261.163418389776
 20
-48.6492643531354
 11
-266.548174496614
 21
-46.1492643531357
  0
LINE
  5
654
100
AcDbEntity
  8
DIM
100
AcDbLine
  6
BYLAYER
 62
0
370
  -2
 10
-178.860674496613
 20
-125.688771316329
 11
-252.087859237318
 21
-125.688771316329
  0
LINE
  5
655
100
AcDbEntity
  8
DIM
100
AcDbLine
  6
BYLAYER
 62
0
370
  -2
 10
-367.860674496614
 20
-125.688771316329
 11
-296.254525903984
 21
-125.688771316329
  0
SOLID
  5
656
100
AcDbEntity
  8
DIM
100
AcDbTrace
 10
-178.860674496613
 20
-123.605437982996
 30
0.0
 11
-178.860674496613
 21
-127.772104649662
 31
0.0
 12
-166.360674496613
 22
-125.688771316329
 32
0.0
 13
-166.360674496613
 23
-125.688771316329
 33
0.0
  0
SOLID
  5
657
100
AcDbEntity
  8
DIM
100
AcDbTrace
 10
-380.360674496614
 20
-125.688771316329
 30
0.0
 11
-367.860674496614
 21
-127.772104649662
 31
0.0
 12
-367.860674496614
 22
-123.605437982996
 32
0.0
 13
-367.860674496614
 23
-123.605437982996
 33
0.0
  0
TEXT
  5
658
100
AcDbEntity
  8
DIM
 62
0
100
AcDbText
  6
BYLAYER
 62
0
 10
-283.546192570651
 20
-131.938771316329
 40
12.5
  1
214
  7
Font_0
 72
1
 11
-274.171192570651
 21
-125.688771316329
100
AcDbText
 73
2
  0
LINE
  5
659
100
AcDbEntity
  8
BASE
100
AcDbLine
  6
BYLAYER
 10
-143.360674496613
 20
-184.935943719206
 11
-403.360674496613
 21
-184.935943719206
  0
LINE
  5
65A
100
AcDbEntity
  8
BASE
100
AcDbLine
  6
BYLAYER
 10
-51.3868960176812
 20
-184.935943719206
 11
-52.8868960176812
 21
-184.935943719206
  0
LINE
  5
65B
100
AcDbEntity
  8
BASE
100
AcDbLine
  6
BYLAYER
 10
-161.360674496613
 20
-195.847047106988
 11
-136.360674496613
 21
-195.847047106988
  0
ARC
  5
65C
100
AcDbEntity
  8
BASE
100
AcDbCircle
  6
BYLAYER
 10
-143.360674496613
 20
-179.935943719206
 40
5
100
AcDbArc
 50
270
 51
0
  0
LINE
  5
65D
100
AcDbEntity
  8
BASE
100
AcDbLine
  6
BYLAYER
 10
-161.360674496613
 20
-193.847047106988
 11
-136.360674496613
 21
-193.847047106988
  0
LINE
  5
65E
100
AcDbEntity
  8
BASE
100
AcDbLine
  6
BYLAYER
 10
-136.360674496613
 20
-193.847047106988
 11
-136.360674496613
 21
-195.847047106988
  0
LINE
  5
65F
100
AcDbEntity
  8
BASE
100
AcDbLine
  6
BYLAYER
 10
-161.360674496613
 20
-184.935943719206
 11
-161.360674496613
 21
-193.847047106988
  0
CIRCLE
  5
660
100
AcDbEntity
  8
BASE
100
AcDbCircle
  6
BYLAYER
 10
-148.360674496613
 20
-174.935943719206
 40
4.25
  0
LINE
  5
661
100
AcDbEntity
  8
BASE
100
AcDbLine
  6
BYLAYER
 10
-163.360674496613
 20
-184.935943719206
 11
-163.360674496613
 21
-193.847047106988
  0
ARC
  5
662
100
AcDbEntity
  8
BASE
100
AcDbCircle
  6
BYLAYER
 10
-161.360674496613
 20
-193.847047106988
 40
2
100
AcDbArc
 50
180
 51
270
  0
LINE
  5
663
100
AcDbEntity
  8
BASE
100
AcDbLine
  6
BYLAYER
 10
-187.557930603451
 20
-69.2859660692055
 11
-261.163418389776
 21
-69.2859660692055
  0
LINE
  5
664
100
AcDbEntity
  8
BASE
100
AcDbLine
  6
BYLAYER
 10
-187.557930603451
 20
-68.7997916396781
 11
-261.163418389776
 21
-68.7997916396783
  0
LINE
  5
665
100
AcDbEntity
  8
BASE
100
AcDbLine
  6
BYLAYER
 10
-187.557930603451
 20
-67.8534932037691
 11
-261.163418389776
 21
-67.8534932037693
  0
LINE
  5
666
100
AcDbEntity
  8
BASE
100
AcDbLine
  6
BYLAYER
 10
-187.557930603451
 20
-67.3535129220962
 11
-261.163418389776
 21
-67.3535129220962
  0
LINE
  5
667
100
AcDbEntity
  8
BASE
100
AcDbLine
  6
BYLAYER
 10
-187.557930603451
 20
-63.7669063088
 11
-261.163418389776
 21
-63.7669063088
  0
LINE
  5
668
100
AcDbEntity
  8
BASE
100
AcDbLine
  6
BYLAYER
 10
-187.557930603451
 20
-63.0991738089245
 11
-261.163418389776
 21
-63.0991738089245
  0
LINE
  5
669
100
AcDbEntity
  8
BASE
100
AcDbLine
  6
BYLAYER
 10
-187.557930603451
 20
-57.2998593471506
 11
-261.163418389776
 21
-57.2998593471506
  0
LINE
  5
66A
100
AcDbEntity
  8
BASE
100
AcDbLine
  6
BYLAYER
 10
-187.557930603452
 20
-56.1660402413171
 11
-261.163418389776
 21
-56.1660402413171
  0
LINE
  5
66B
100
AcDbEntity
  8
BASE
100
AcDbLine
  6
BYLAYER
 10
-187.557930603452
 20
-51.3885452611383
 11
-261.163418389776
 21
-51.3885452611383
  0
LINE
  5
66C
100
AcDbEntity
  8
BASE
100
AcDbLine
  6
BYLAYER
 10
-187.557930603451
 20
-48.6492643531354
 11
-261.163418389776
 21
-48.6492643531354
  0
LINE
  5
66D
100
AcDbEntity
  8
BASE
100
AcDbLine
  6
BYLAYER
 10
-187.557930603452
 20
-46.7647719743908
 11
-261.163418389776
 21
-46.764771974391
  0
LINE
  5
66E
100
AcDbEntity
  8
BASE
100
AcDbLine
  6
BYLAYER
 10
-187.557930603451
 20
-44.4004107814263
 11
-261.163418389776
 21
-44.4004107814266
  0
LINE
  5
66F
100
AcDbEntity
  8
BASE
100
AcDbLine
  6
BYLAYER
 10
-187.557930603452
 20
-38.0779652782356
 11
-261.163418389776
 21
-38.0779652782356
  0
LINE
  5
670
100
AcDbEntity
  8
BASE
100
AcDbLine
  6
BYLAYER
 10
-187.557930603452
 20
-35.1810217871652
 11
-261.163418389776
 21
-35.1810217871652
  0
ARC
  5
671
100
AcDbEntity
  8
BASE
100
AcDbCircle
  6
BYLAYER
 10
-176.360674496613
 20
-69.6859660692056
 40
1
100
AcDbArc
 50
270
 51
0
  0
ARC
  5
672
100
AcDbEntity
  8
BASE
100
AcDbCircle
  6
BYLAYER
 10
-176.360674496613
 20
-69.6859660692056
 40
1
100
AcDbArc
 50
180
 51
270
  0
LINE
  5
673
100
AcDbEntity
  8
BASE
100
AcDbLine
  6
BYLAYER
 10
-176.360674496613
 20
-70.6859660692056
 11
-176.360674496613
 21
-70.6859660692056
  0
ARC
  5
674
100
AcDbEntity
  8
BASE
100
AcDbCircle
  6
BYLAYER
 10
-170.902869011424
 20
-62.440206119093
 40
7.77409728544649
100
AcDbArc
 50
54.2483583228041
 51
124.988902401957
  0
CIRCLE
  5
675
100
AcDbEntity
  8
BASE
100
AcDbCircle
  6
BYLAYER
 10
-148.360674496613
 20
-49.9359437192055
 40
4.25
  0
LINE
  5
676
100
AcDbEntity
  8
BASE
100
AcDbLine
  6
BYLAYER
 10
-187.557930603451
 20
-48.6492643531354
 11
-182.173174496613
 21
-46.1492643531354
  0
LINE
  5
677
100
AcDbEntity
  8
BASE
100
AcDbLine
  6
BYLAYER
 10
-178.360674496613
 20
-66.7859660692055
 11
-182.173174496613
 21
-66.7859660692055
  0
ARC
  5
678
100
AcDbEntity
  8
BASE
100
AcDbCircle
  6
BYLAYER
 10
-178.360674496613
 20
-67.7859660692055
 40
1
100
AcDbArc
 50
0
 51
90
  0
LINE
  5
679
100
AcDbEntity
  8
BASE
100
AcDbLine
  6
BYLAYER
 10
-175.360674496613
 20
-68.9359660692056
 11
-175.360674496613
 21
-69.1359660692054
  0
LINE
  5
67A
100
AcDbEntity
  8
BASE
100
AcDbLine
  6
BYLAYER
 10
-187.557930603451
 20
-69.2859660692055
 11
-182.173174496613
 21
-66.7859660692055
  0
LINE
  5
67B
100
AcDbEntity
  8
BASE
100
AcDbLine
  6
BYLAYER
 10
-187.557930603451
 20
-68.7997916396781
 11
-182.173174496613
 21
-66.2997916396783
  0
LINE
  5
67C
100
AcDbEntity
  8
BASE
100
AcDbLine
  6
BYLAYER
 10
-187.557930603451
 20
-67.3535129220962
 11
-182.173174496613
 21
-64.8535129220962
  0
LINE
  5
67D
100
AcDbEntity
  8
BASE
100
AcDbLine
  6
BYLAYER
 10
-187.557930603451
 20
-67.8534932037691
 11
-182.173174496613
 21
-65.3534932037691
  0
LINE
  5
67E
100
AcDbEntity
  8
BASE
100
AcDbLine
  6
BYLAYER
 10
-187.557930603451
 20
-63.7669063088
 11
-182.173174496613
 21
-61.2669063088
  0
LINE
  5
67F
100
AcDbEntity
  8
BASE
100
AcDbLine
  6
BYLAYER
 10
-187.557930603451
 20
-63.0991738089245
 11
-182.173174496613
 21
-60.5991738089245
  0
LINE
  5
680
100
AcDbEntity
  8
BASE
100
AcDbLine
  6
BYLAYER
 10
-187.557930603451
 20
-57.2998593471506
 11
-182.173174496613
 21
-54.7998593471506
  0
LINE
  5
681
100
AcDbEntity
  8
BASE
100
AcDbLine
  6
BYLAYER
 10
-187.557930603452
 20
-56.1660402413171
 11
-182.173174496613
 21
-53.6660402413171
  0
LINE
  5
682
100
AcDbEntity
  8
BASE
100
AcDbLine
  6
BYLAYER
 10
-187.557930603452
 20
-51.3885452611383
 11
-182.173174496613
 21
-48.8885452611383
  0
LINE
  5
683
100
AcDbEntity
  8
BASE
100
AcDbLine
  6
BYLAYER
 10
-187.557930603452
 20
-46.7647719743908
 11
-182.173174496613
 21
-44.2647719743908
  0
LINE
  5
684
100
AcDbEntity
  8
BASE
100
AcDbLine
  6
BYLAYER
 10
-187.557930603451
 20
-44.4004107814263
 11
-182.173174496613
 21
-41.9004107814263
  0
LINE
  5
685
100
AcDbEntity
  8
BASE
100
AcDbLine
  6
BYLAYER
 10
-187.557930603452
 20
-38.0779652782356
 11
-182.173174496613
 21
-35.5779652782356
  0
LINE
  5
686
100
AcDbEntity
  8
BASE
100
AcDbLine
  6
BYLAYER
 10
-187.557930603452
 20
-35.1810217871652
 11
-182.173174496613
 21
-32.6810217871652
  0
LINE
  5
687
100
AcDbEntity
  8
BASE
100
AcDbLine
  6
BYLAYER
 10
-385.360674496614
 20
-195.847047106987
 11
-410.360674496614
 21
-195.847047106988
  0
LINE
  5
688
100
AcDbEntity
  8
BASE
100
AcDbLine
  6
BYLAYER
 10
-385.360674496614
 20
-193.847047106988
 11
-410.360674496614
 21
-193.847047106988
  0
CIRCLE
  5
689
100
AcDbEntity
  8
BASE
100
AcDbCircle
  6
BYLAYER
 10
-398.360674496613
 20
-174.935943719206
 40
4.25
  0
CIRCLE
  5
68A
100
AcDbEntity
  8
BASE
100
AcDbCircle
  6
BYLAYER
 10
-398.360674496613
 20
-49.9359437192055
 40
4.25
  0
CIRCLE
  5
68B
100
AcDbEntity
  8
BASE
100
AcDbCircle
  6
BYLAYER
 10
-273.360674496613
 20
-174.935943719206
 40
4.25
  0
LINE
  5
68C
100
AcDbEntity
  8
BASE
100
AcDbLine
  6
BYLAYER
 10
-383.360674496614
 20
-184.935943719205
 11
-383.360674496613
 21
-193.847047106987
  0
ARC
  5
68D
100
AcDbEntity
  8
BASE
100
AcDbCircle
  6
BYLAYER
 10
-385.360674496614
 20
-193.847047106987
 40
2
100
AcDbArc
 50
270
 51
0
  0
LINE
  5
68E
100
AcDbEntity
  8
BASE
100
AcDbLine
  6
BYLAYER
 10
-385.360674496614
 20
-184.935943719205
 11
-385.360674496614
 21
-193.847047106988
  0
LINE
  5
68F
100
AcDbEntity
  8
BASE
100
AcDbLine
  6
BYLAYER
 10
-359.163418389776
 20
-35.1810217871652
 11
-285.557930603452
 21
-35.1810217871652
  0
LINE
  5
690
100
AcDbEntity
  8
BASE
100
AcDbLine
  6
BYLAYER
 10
-359.163418389776
 20
-38.0779652782356
 11
-285.557930603452
 21
-38.0779652782356
  0
LINE
  5
691
100
AcDbEntity
  8
BASE
100
AcDbLine
  6
BYLAYER
 10
-359.163418389776
 20
-44.4004107814263
 11
-285.557930603452
 21
-44.4004107814266
  0
LINE
  5
692
100
AcDbEntity
  8
BASE
100
AcDbLine
  6
BYLAYER
 10
-359.163418389776
 20
-46.7647719743908
 11
-285.557930603452
 21
-46.764771974391
  0
LINE
  5
693
100
AcDbEntity
  8
BASE
100
AcDbLine
  6
BYLAYER
 10
-359.163418389776
 20
-48.6492643531354
 11
-285.557930603452
 21
-48.6492643531354
  0
LINE
  5
694
100
AcDbEntity
  8
BASE
100
AcDbLine
  6
BYLAYER
 10
-359.163418389776
 20
-51.3885452611383
 11
-285.557930603452
 21
-51.3885452611383
  0
LINE
  5
695
100
AcDbEntity
  8
BASE
100
AcDbLine
  6
BYLAYER
 10
-359.163418389776
 20
-56.1660402413171
 11
-285.557930603452
 21
-56.1660402413171
  0
LINE
  5
696
100
AcDbEntity
  8
BASE
100
AcDbLine
  6
BYLAYER
 10
-359.163418389776
 20
-57.2998593471506
 11
-285.557930603452
 21
-57.2998593471506
  0
LINE
  5
697
100
AcDbEntity
  8
BASE
100
AcDbLine
  6
BYLAYER
 10
-359.163418389776
 20
-63.0991738089245
 11
-285.557930603452
 21
-63.0991738089245
  0
LINE
  5
698
100
AcDbEntity
  8
BASE
100
AcDbLine
  6
BYLAYER
 10
-359.163418389776
 20
-63.7669063088
 11
-285.557930603452
 21
-63.7669063088
  0
LINE
  5
699
100
AcDbEntity
  8
BASE
100
AcDbLine
  6
BYLAYER
 10
-359.163418389776
 20
-67.3535129220962
 11
-285.557930603452
 21
-67.3535129220962
  0
LINE
  5
69A
100
AcDbEntity
  8
BASE
100
AcDbLine
  6
BYLAYER
 10
-359.163418389776
 20
-67.8534932037691
 11
-285.557930603452
 21
-67.8534932037693
  0
LINE
  5
69B
100
AcDbEntity
  8
BASE
100
AcDbLine
  6
BYLAYER
 10
-359.163418389776
 20
-68.7997916396783
 11
-285.557930603452
 21
-68.7997916396783
  0
LINE
  5
69C
100
AcDbEntity
  8
BASE
100
AcDbLine
  6
BYLAYER
 10
-359.163418389776
 20
-69.2859660692055
 11
-285.557930603452
 21
-69.2859660692055
  0
ARC
  5
69D
100
AcDbEntity
  8
BASE
100
AcDbCircle
  6
BYLAYER
 10
-272.360674496614
 20
-69.6859660692056
 40
1
100
AcDbArc
 50
180
 51
270
  0
ARC
  5
69E
100
AcDbEntity
  8
BASE
100
AcDbCircle
  6
BYLAYER
 10
-272.360674496614
 20
-69.6859660692056
 40
1
100
AcDbArc
 50
270
 51
0
  0
ARC
  5
69F
100
AcDbEntity
  8
BASE
100
AcDbCircle
  6
BYLAYER
 10
-274.360674496614
 20
-69.6859660692056
 40
1
100
AcDbArc
 50
270
 51
0
  0
ARC
  5
6A0
100
AcDbEntity
  8
BASE
100
AcDbCircle
  6
BYLAYER
 10
-274.360674496614
 20
-69.6859660692056
 40
1
100
AcDbArc
 50
180
 51
270
  0
LINE
  5
6A1
100
AcDbEntity
  8
BASE
100
AcDbLine
  6
BYLAYER
 10
-274.360674496614
 20
-70.6859660692056
 11
-274.360674496614
 21
-70.6859660692056
  0
LINE
  5
6A2
100
AcDbEntity
  8
BASE
100
AcDbLine
  6
BYLAYER
 10
-272.360674496614
 20
-70.6859660692056
 11
-272.360674496614
 21
-70.6859660692056
  0
LINE
  5
6A3
100
AcDbEntity
  8
BASE
100
AcDbLine
  6
BYLAYER
 10
-285.557930603452
 20
-48.6492643531354
 11
-280.173174496614
 21
-46.1492643531357
  0
LINE
  5
6A4
100
AcDbEntity
  8
BASE
100
AcDbLine
  6
BYLAYER
 10
-276.360674496614
 20
-66.7859660692055
 11
-280.173174496614
 21
-66.7859660692055
  0
LINE
  5
6A5
100
AcDbEntity
  8
BASE
100
AcDbLine
  6
BYLAYER
 10
-273.360674496614
 20
-68.9359660692056
 11
-273.360674496614
 21
-69.1359660692054
  0
LINE
  5
6A6
100
AcDbEntity
  8
BASE
100
AcDbLine
  6
BYLAYER
 10
-273.360674496613
 20
-68.9359660692056
 11
-273.360674496613
 21
-69.1359660692054
  0
ARC
  5
6A7
100
AcDbEntity
  8
BASE
100
AcDbCircle
  6
BYLAYER
 10
-270.360674496614
 20
-67.7859660692055
 40
1
100
AcDbArc
 50
90
 51
180
  0
LINE
  5
6A8
100
AcDbEntity
  8
BASE
100
AcDbLine
  6
BYLAYER
 10
-270.360674496614
 20
-66.7859660692055
 11
-266.548174496614
 21
-66.7859660692055
  0
ARC
  5
6A9
100
AcDbEntity
  8
BASE
100
AcDbCircle
  6
BYLAYER
 10
-276.360674496614
 20
-67.7859660692055
 40
1
100
AcDbArc
 50
0
 51
90
  0
LINE
  5
6AA
100
AcDbEntity
  8
BASE
100
AcDbLine
  6
BYLAYER
 10
-285.557930603452
 20
-67.3535129220962
 11
-280.173174496614
 21
-64.8535129220962
  0
LINE
  5
6AB
100
AcDbEntity
  8
BASE
100
AcDbLine
  6
BYLAYER
 10
-285.557930603452
 20
-67.8534932037691
 11
-280.173174496614
 21
-65.3534932037693
  0
LINE
  5
6AC
100
AcDbEntity
  8
BASE
100
AcDbLine
  6
BYLAYER
 10
-285.557930603452
 20
-63.7669063088
 11
-280.173174496614
 21
-61.2669063088
  0
LINE
  5
6AD
100
AcDbEntity
  8
BASE
100
AcDbLine
  6
BYLAYER
 10
-285.557930603452
 20
-63.0991738089245
 11
-280.173174496614
 21
-60.5991738089245
  0
LINE
  5
6AE
100
AcDbEntity
  8
BASE
100
AcDbLine
  6
BYLAYER
 10
-285.557930603452
 20
-57.2998593471506
 11
-280.173174496614
 21
-54.7998593471506
  0
LINE
  5
6AF
100
AcDbEntity
  8
BASE
100
AcDbLine
  6
BYLAYER
 10
-285.557930603452
 20
-56.1660402413171
 11
-280.173174496614
 21
-53.6660402413171
  0
LINE
  5
6B0
100
AcDbEntity
  8
BASE
100
AcDbLine
  6
BYLAYER
 10
-285.557930603452
 20
-69.2859660692055
 11
-280.173174496614
 21
-66.7859660692055
  0
LINE
  5
6B1
100
AcDbEntity
  8
BASE
100
AcDbLine
  6
BYLAYER
 10
-285.557930603452
 20
-68.7997916396783
 11
-280.173174496614
 21
-66.2997916396783
  0
LINE
  5
6B2
100
AcDbEntity
  8
BASE
100
AcDbLine
  6
BYLAYER
 10
-285.557930603452
 20
-51.3885452611383
 11
-280.173174496614
 21
-48.8885452611383
  0
LINE
  5
6B3
100
AcDbEntity
  8
BASE
100
AcDbLine
  6
BYLAYER
 10
-285.557930603452
 20
-44.4004107814263
 11
-280.173174496614
 21
-41.9004107814266
  0
LINE
  5
6B4
100
AcDbEntity
  8
BASE
100
AcDbLine
  6
BYLAYER
 10
-285.557930603452
 20
-38.0779652782356
 11
-280.173174496614
 21
-35.5779652782356
  0
LINE
  5
6B5
100
AcDbEntity
  8
BASE
100
AcDbLine
  6
BYLAYER
 10
-285.557930603452
 20
-35.1810217871652
 11
-280.173174496614
 21
-32.6810217871652
  0
LINE
  5
6B6
100
AcDbEntity
  8
BASE
100
AcDbLine
  6
BYLAYER
 10
-285.557930603452
 20
-46.7647719743908
 11
-280.173174496614
 21
-44.264771974391
  0
ARC
  5
6B7
100
AcDbEntity
  8
BASE
100
AcDbCircle
  6
BYLAYER
 10
-370.360674496614
 20
-69.6859660692056
 40
1
100
AcDbArc
 50
180
 51
270
  0
ARC
  5
6B8
100
AcDbEntity
  8
BASE
100
AcDbCircle
  6
BYLAYER
 10
-370.360674496614
 20
-69.6859660692056
 40
1
100
AcDbArc
 50
270
 51
0
  0
LINE
  5
6B9
100
AcDbEntity
  8
BASE
100
AcDbLine
  6
BYLAYER
 10
-370.360674496614
 20
-70.6859660692056
 11
-370.360674496614
 21
-70.6859660692056
  0
LINE
  5
6BA
100
AcDbEntity
  8
BASE
100
AcDbLine
  6
BYLAYER
 10
-359.163418389776
 20
-44.4004107814263
 11
-364.548174496614
 21
-41.9004107814266
  0
LINE
  5
6BB
100
AcDbEntity
  8
BASE
100
AcDbLine
  6
BYLAYER
 10
-359.163418389776
 20
-38.0779652782356
 11
-364.548174496614
 21
-35.5779652782356
  0
LINE
  5
6BC
100
AcDbEntity
  8
BASE
100
AcDbLine
  6
BYLAYER
 10
-359.163418389776
 20
-35.1810217871652
 11
-364.548174496614
 21
-32.6810217871652
  0
LINE
  5
6BD
100
AcDbEntity
  8
BASE
100
AcDbLine
  6
BYLAYER
 10
-359.163418389776
 20
-46.7647719743908
 11
-364.548174496614
 21
-44.264771974391
  0
LINE
  5
6BE
100
AcDbEntity
  8
BASE
100
AcDbLine
  6
BYLAYER
 10
-359.163418389776
 20
-67.8534932037691
 11
-364.548174496614
 21
-65.3534932037693
  0
LINE
  5
6BF
100
AcDbEntity
  8
BASE
100
AcDbLine
  6
BYLAYER
 10
-359.163418389776
 20
-67.3535129220962
 11
-364.548174496614
 21
-64.8535129220962
  0
LINE
  5
6C0
100
AcDbEntity
  8
BASE
100
AcDbLine
  6
BYLAYER
 10
-359.163418389776
 20
-56.1660402413171
 11
-364.548174496614
 21
-53.6660402413171
  0
LINE
  5
6C1
100
AcDbEntity
  8
BASE
100
AcDbLine
  6
BYLAYER
 10
-359.163418389776
 20
-51.3885452611383
 11
-364.548174496614
 21
-48.8885452611383
  0
LINE
  5
6C2
100
AcDbEntity
  8
BASE
100
AcDbLine
  6
BYLAYER
 10
-359.163418389776
 20
-57.2998593471506
 11
-364.548174496614
 21
-54.7998593471506
  0
LINE
  5
6C3
100
AcDbEntity
  8
BASE
100
AcDbLine
  6
BYLAYER
 10
-359.163418389776
 20
-63.0991738089245
 11
-364.548174496614
 21
-60.5991738089245
  0
LINE
  5
6C4
100
AcDbEntity
  8
BASE
100
AcDbLine
  6
BYLAYER
 10
-359.163418389776
 20
-63.7669063088
 11
-364.548174496614
 21
-61.2669063088
  0
LINE
  5
6C5
100
AcDbEntity
  8
BASE
100
AcDbLine
  6
BYLAYER
 10
-359.163418389776
 20
-68.7997916396783
 11
-364.548174496614
 21
-66.2997916396783
  0
LINE
  5
6C6
100
AcDbEntity
  8
BASE
100
AcDbLine
  6
BYLAYER
 10
-359.163418389776
 20
-69.2859660692055
 11
-364.548174496614
 21
-66.7859660692055
  0
LINE
  5
6C7
100
AcDbEntity
  8
BASE
100
AcDbLine
  6
BYLAYER
 10
-359.163418389776
 20
-48.6492643531354
 11
-364.548174496614
 21
-46.1492643531357
  0
ARC
  5
6C8
100
AcDbEntity
  8
BASE
100
AcDbCircle
  6
BYLAYER
 10
-375.818479981803
 20
-62.440206119093
 40
7.77409728544649
100
AcDbArc
 50
55.0110975980431
 51
125.751641677196
  0
LINE
  5
6C9
100
AcDbEntity
  8
BASE
100
AcDbLine
  6
BYLAYER
 10
-371.360674496613
 20
-68.9359660692056
 11
-371.360674496613
 21
-69.1359660692054
  0
LINE
  5
6CA
100
AcDbEntity
  8
BASE
100
AcDbLine
  6
BYLAYER
 10
-368.360674496614
 20
-66.7859660692055
 11
-364.548174496614
 21
-66.7859660692055
  0
ARC
  5
6CB
100
AcDbEntity
  8
BASE
100
AcDbCircle
  6
BYLAYER
 10
-368.360674496614
 20
-67.7859660692055
 40
1
100
AcDbArc
 50
90
 51
180
  0
ARC
  5
6CC
100
AcDbEntity
  8
BASE
100
AcDbCircle
  6
BYLAYER
 10
-403.360674496613
 20
-179.935943719206
 40
5
100
AcDbArc
 50
180
 51
270
  0
LINE
  5
6CD
100
AcDbEntity
  8
BASE
100
AcDbLine
  6
BYLAYER
 10
-410.360674496614
 20
-193.847047106988
 11
-410.360674496614
 21
-195.847047106988
  0
LINE
  5
6CE
100
AcDbEntity
  8
CEN
100
AcDbLine
  6
BYLAYER
 10
-396.860674496614
 20
-196.847047106987
 11
-396.860674496614
 21
-192.847047106988
  0
LINE
  5
6CF
100
AcDbEntity
  8
BASE
100
AcDbLine
  6
BYLAYER
 10
-380.360674496614
 20
-10.1359735192053
 11
-166.360674496613
 21
-10.1359735192053
  0
LINE
  5
6D0
100
AcDbEntity
  8
BASE
100
AcDbLine
  6
BYLAYER
 10
-380.360674496614
 20
-18.1359735192053
 11
-166.360674496613
 21
-18.1359735192053
  0
LINE
  5
6D1
100
AcDbEntity
  8
DIM
100
AcDbLine
  6
BYLAYER
 62
0
370
  -2
 10
-138.360674496613
 20
77.5640562807945
 11
-138.360674496613
 21
202.660788072049
  0
LINE
  5
6D2
100
AcDbEntity
  8
DIM
100
AcDbLine
  6
BYLAYER
 62
0
370
  -2
 10
-421.860674496613
 20
53.0640339307944
 11
-421.860674496613
 21
202.660788072049
  0
LINE
  5
6D3
100
AcDbEntity
  8
DIM
100
AcDbLine
  6
BYLAYER
 62
0
370
  -2
 10
-150.860674496613
 20
200.160788072049
 11
-249.82532639704
 21
200.160788072049
  0
LINE
  5
6D4
100
AcDbEntity
  8
DIM
100
AcDbLine
  6
BYLAYER
 62
0
370
  -2
 10
-409.360674496613
 20
200.160788072049
 11
-298.158659730373
 21
200.160788072049
  0
SOLID
  5
6D5
100
AcDbEntity
  8
DIM
100
AcDbTrace
 10
-150.860674496613
 20
202.244121405382
 30
0.0
 11
-150.860674496613
 21
198.077454738715
 31
0.0
 12
-138.360674496613
 22
200.160788072049
 32
0.0
 13
-138.360674496613
 23
200.160788072049
 33
0.0
  0
SOLID
  5
6D6
100
AcDbEntity
  8
DIM
100
AcDbTrace
 10
-421.860674496613
 20
200.160788072049
 30
0.0
 11
-409.360674496613
 21
198.077454738715
 31
0.0
 12
-409.360674496613
 22
202.244121405382
 32
0.0
 13
-409.360674496613
 23
202.244121405382
 33
0.0
  0
TEXT
  5
6D7
100
AcDbEntity
  8
DIM
 62
0
100
AcDbText
  6
BYLAYER
 62
0
 10
-283.366993063706
 20
193.910788072049
 40
12.5
  1
285
  7
Font_0
 72
1
 11
-273.991993063706
 21
200.160788072049
100
AcDbText
 73
2
  0
LINE
  5
6D8
100
AcDbEntity
  8
DIM
100
AcDbLine
  6
BYLAYER
 62
0
370
  -2
 10
-163.360674496613
 20
166.504130423643
 11
-163.360674496613
 21
181.678014763826
  0
LINE
  5
6D9
100
AcDbEntity
  8
DIM
100
AcDbLine
  6
BYLAYER
 62
0
370
  -2
 10
-383.360674496613
 20
166.504130423643
 11
-383.360674496613
 21
181.678014763826
  0
LINE
  5
6DA
100
AcDbEntity
  8
DIM
100
AcDbLine
  6
BYLAYER
 62
0
370
  -2
 10
-175.860674496613
 20
179.178014763826
 11
-250.866993063706
 21
179.178014763826
  0
LINE
  5
6DB
100
AcDbEntity
  8
DIM
100
AcDbLine
  6
BYLAYER
 62
0
370
  -2
 10
-370.860674496614
 20
179.178014763826
 11
-297.116993063706
 21
179.178014763826
  0
SOLID
  5
6DC
100
AcDbEntity
  8
DIM
100
AcDbTrace
 10
-175.860674496613
 20
181.261348097159
 30
0.0
 11
-175.860674496613
 21
177.094681430492
 31
0.0
 12
-163.360674496613
 22
179.178014763826
 32
0.0
 13
-163.360674496613
 23
179.178014763826
 33
0.0
  0
SOLID
  5
6DD
100
AcDbEntity
  8
DIM
100
AcDbTrace
 10
-383.360674496613
 20
179.178014763826
 30
0.0
 11
-370.860674496614
 21
177.094681430492
 31
0.0
 12
-370.860674496614
 22
181.261348097159
 32
0.0
 13
-370.860674496614
 23
181.261348097159
 33
0.0
  0
TEXT
  5
6DE
100
AcDbEntity
  8
DIM
 62
0
100
AcDbText
  6
BYLAYER
 62
0
 10
-283.366993063706
 20
172.928014763826
 40
12.5
  1
220
  7
Font_0
 72
1
 11
-273.991993063706
 21
179.178014763826
100
AcDbText
 73
2
  0
LINE
  5
6DF
100
AcDbEntity
  8
BASE
100
AcDbLine
  6
BYLAYER
 10
-173.360674496613
 20
163.204130423643
 11
-373.360674496613
 21
163.204130423643
  0
LINE
  5
6E0
100
AcDbEntity
  8
BASE
100
AcDbLine
  6
BYLAYER
 10
-403.360674496613
 20
85.0640562807945
 11
-148.360674496613
 21
85.0640562807945
  0
LINE
  5
6E1
100
AcDbEntity
  8
BASE
100
AcDbLine
  6
BYLAYER
 10
-173.360674496613
 20
85.0640562807945
 11
-173.360674496613
 21
164.004130423643
  0
LINE
  5
6E2
100
AcDbEntity
  8
BASE
100
AcDbLine
  6
BYLAYER
 10
-163.360674496613
 20
85.0640562807945
 11
-163.360674496613
 21
164.004130423643
  0
LINE
  5
6E3
100
AcDbEntity
  8
BASE
100
AcDbLine
  6
BYLAYER
 10
-24.3868960176814
 20
50.0640562807963
 11
-51.3868960176812
 21
50.0640264807945
  0
LINE
  5
6E4
100
AcDbEntity
  8
BASE
100
AcDbLine
  6
BYLAYER
 10
-51.3868960176812
 20
85.0640562807945
 11
-52.8868960176812
 21
85.0640562807945
  0
ARC
  5
6E5
100
AcDbEntity
  8
BASE
100
AcDbCircle
  6
BYLAYER
 10
-148.360674496613
 20
75.0640562807945
 40
10
100
AcDbArc
 50
0
 51
90
  0
CIRCLE
  5
6E6
100
AcDbEntity
  8
BASE
100
AcDbCircle
  6
BYLAYER
 10
-148.360674496613
 20
75.0640562807945
 40
4.25
  0
LINE
  5
6E7
100
AcDbEntity
  8
BASE
100
AcDbLine
  6
BYLAYER
 10
-163.360674496613
 20
164.004130423643
 11
-173.360674496613
 21
164.004130423643
  0
LINE
  5
6E8
100
AcDbEntity
  8
BASE
100
AcDbLine
  6
BYLAYER
 10
-373.360674496613
 20
85.0640562807945
 11
-373.360674496613
 21
164.004130423643
  0
LINE
  5
6E9
100
AcDbEntity
  8
BASE
100
AcDbLine
  6
BYLAYER
 10
-383.360674496613
 20
85.0640562807945
 11
-383.360674496613
 21
164.004130423643
  0
CIRCLE
  5
6EA
100
AcDbEntity
  8
BASE
100
AcDbCircle
  6
BYLAYER
 10
-398.360674496613
 20
75.0640562807945
 40
4.25
  0
LINE
  5
6EB
100
AcDbEntity
  8
DIM
100
AcDbLine
  6
BYLAYER
 62
0
370
  -2
 10
-107.453440272037
 20
-211.723096492578
 11
-127.203440272032
 21
-211.723096492578
  0
LINE
  5
6EC
100
AcDbEntity
  8
DIM
100
AcDbLine
  6
BYLAYER
 62
0
370
  -2
 10
-127.203440272032
 20
-211.723096492578
 11
-140.009912373728
 21
-189.45583600417
  0
TEXT
  5
6ED
100
AcDbEntity
  8
DIM
 62
0
100
AcDbText
  6
BYLAYER
 62
0
 10
-90.5784402720367
 20
-217.973096492578
 40
12.5
  1
8-φ8.5
  7
Font_0
 72
1
 11
-68.7034402720367
 21
-211.723096492578
100
AcDbText
 73
2
  0
SOLID
  5
6EE
100
AcDbEntity
  8
DIM
100
AcDbTrace
 10
-146.241824405732
 20
-178.620095493002
 30
0.0
 11
-141.815869125589
 21
-190.494488009503
 31
0.0
 12
-138.203955621866
 22
-188.417183998835
 32
0.0
 13
-138.203955621866
 23
-188.417183998835
 33
0.0
  0
LINE
  5
6EF
100
AcDbEntity
  8
DIM
100
AcDbLine
  6
BYLAYER
 62
0
370
  -2
 10
-148.810674496613
 20
-174.935943719205
 11
-147.910674496613
 21
-174.935943719205
  0
LINE
  5
6F0
100
AcDbEntity
  8
DIM
100
AcDbLine
  6
BYLAYER
 62
0
370
  -2
 10
-148.360674496613
 20
-175.385943719205
 11
-148.360674496613
 21
-174.485943719205
  0
CIRCLE
  5
6F1
100
AcDbEntity
  8
BASE
100
AcDbCircle
  6
BYLAYER
 10
-273.360674496613
 20
75.0640562807945
 40
4.25
  0
ARC
  5
6F2
100
AcDbEntity
  8
BASE
100
AcDbCircle
  6
BYLAYER
 10
-403.360674496613
 20
80.0640562807945
 40
5
100
AcDbArc
 50
90
 51
180
  0
LINE
  5
6F3
100
AcDbEntity
  8
BASE
100
AcDbLine
  6
BYLAYER
 10
-383.360674496613
 20
164.004130423643
 11
-373.360674496613
 21
164.004130423643
  0
LINE
  5
6F4
100
AcDbEntity
  8
0
100
AcDbLine
  6
BYLAYER
 10
-157.360674496613
 20
146.064033930794
 11
-157.360674496613
 21
85.0640562807945
  0
LINE
  5
6F5
100
AcDbEntity
  8
0
100
AcDbLine
  6
BYLAYER
 10
-161.360674496613
 20
146.064033930794
 11
-157.360674496613
 21
146.064033930794
  0
ARC
  5
6F6
100
AcDbEntity
  8
0
100
AcDbCircle
  6
BYLAYER
 10
-161.360674496613
 20
144.064033930794
 40
2
100
AcDbArc
 50
90
 51
180
  0
LINE
  5
6F7
100
AcDbEntity
  8
0
100
AcDbLine
  6
BYLAYER
 10
-389.360674496614
 20
146.064033930794
 11
-389.360674496614
 21
85.0640562807945
  0
LINE
  5
6F8
100
AcDbEntity
  8
0
100
AcDbLine
  6
BYLAYER
 10
-385.360674496614
 20
146.064033930794
 11
-389.360674496614
 21
146.064033930794
  0
LINE
  5
6F9
100
AcDbEntity
  8
0
100
AcDbLine
  6
BYLAYER
 10
-383.360674496613
 20
131.441189011693
 11
-383.360674496613
 21
144.064033930794
  0
ARC
  5
6FA
100
AcDbEntity
  8
0
100
AcDbCircle
  6
BYLAYER
 10
-385.360674496614
 20
144.064033930794
 40
2
100
AcDbArc
 50
0
 51
90
  0
LINE
  5
6FB
100
AcDbEntity
  8
BASE
100
AcDbLine
  6
BYLAYER
 10
-419.360674496613
 20
82.5640339307944
 11
-419.360674496613
 21
-32.4359660692056
  0
LINE
  5
6FC
100
AcDbEntity
  8
BASE
100
AcDbLine
  6
BYLAYER
 10
-421.860674496613
 20
-0.43596606920562
 11
-421.860674496613
 21
50.5640339307944
  0
LINE
  5
6FD
100
AcDbEntity
  8
BASE
100
AcDbLine
  6
BYLAYER
 10
-411.360674496613
 20
82.5640339307944
 11
-411.360674496613
 21
-32.4359660692056
  0
LINE
  5
6FE
100
AcDbEntity
  8
BASE
100
AcDbLine
  6
BYLAYER
 10
-408.360674496613
 20
-32.4359660692056
 11
-419.360674496613
 21
-32.4359660692056
  0
LINE
  5
6FF
100
AcDbEntity
  8
BASE
100
AcDbLine
  6
BYLAYER
 10
-421.860674496613
 20
-0.43596606920562
 11
-419.360674496613
 21
-0.43596606920562
  0
LINE
  5
700
100
AcDbEntity
  8
BASE
100
AcDbLine
  6
BYLAYER
 10
-421.860674496613
 20
50.5640339307944
 11
-419.360674496613
 21
50.5640339307944
  0
LINE
  5
701
100
AcDbEntity
  8
BASE
100
AcDbLine
  6
BYLAYER
 10
-407.690814419237
 20
82.5640339307944
 11
-419.360674496613
 21
82.5640339307944
  0
CIRCLE
  5
702
100
AcDbEntity
  8
0
100
AcDbCircle
  6
BYLAYER
 10
108.613056302318
 20
25.0640339307944
 40
95
  0
LINE
  5
703
100
AcDbEntity
  8
DIM
100
AcDbLine
  6
BYLAYER
 62
0
370
  -2
 10
-145.860674496613
 20
-49.9359437192055
 11
-115.944851952726
 21
-49.9359437192055
  0
LINE
  5
704
100
AcDbEntity
  8
DIM
100
AcDbLine
  6
BYLAYER
 62
0
370
  -2
 10
-145.860674496613
 20
-174.935943719206
 11
-115.944851952726
 21
-174.935943719206
  0
LINE
  5
705
100
AcDbEntity
  8
DIM
100
AcDbLine
  6
BYLAYER
 62
0
370
  -2
 10
-118.444851952726
 20
-62.4359437192055
 11
-118.444851952726
 21
-90.3526103858722
  0
LINE
  5
706
100
AcDbEntity
  8
DIM
100
AcDbLine
  6
BYLAYER
 62
0
370
  -2
 10
-118.444851952726
 20
-162.435943719206
 11
-118.444851952726
 21
-134.519277052539
  0
SOLID
  5
707
100
AcDbEntity
  8
DIM
100
AcDbTrace
 10
-120.528185286059
 20
-62.4359437192055
 30
0.0
 11
-116.361518619392
 21
-62.4359437192055
 31
0.0
 12
-118.444851952726
 22
-49.9359437192055
 32
0.0
 13
-118.444851952726
 23
-49.9359437192055
 33
0.0
  0
SOLID
  5
708
100
AcDbEntity
  8
DIM
100
AcDbTrace
 10
-118.444851952726
 20
-174.935943719206
 30
0.0
 11
-116.361518619392
 21
-162.435943719206
 31
0.0
 12
-120.528185286059
 22
-162.435943719206
 32
0.0
 13
-120.528185286059
 23
-162.435943719206
 33
0.0
  0
TEXT
  5
709
100
AcDbEntity
  8
DIM
 62
0
100
AcDbText
  6
BYLAYER
 62
0
 10
-112.194851952726
 20
-121.810943719206
 40
12.5
  1
125
  7
Font_0
 50
90
 72
1
 11
-118.444851952726
 21
-112.435943719205
100
AcDbText
 73
2
  0
LINE
  5
70A
100
AcDbEntity
  8
DIM
100
AcDbLine
  6
BYLAYER
 62
0
370
  -2
 10
-148.360674496613
 20
-172.435943719206
 11
-148.360674496613
 21
-158.484597515515
  0
LINE
  5
70B
100
AcDbEntity
  8
DIM
100
AcDbLine
  6
BYLAYER
 62
0
370
  -2
 10
-273.360674496613
 20
-172.435943719206
 11
-273.360674496613
 21
-158.484597515515
  0
LINE
  5
70C
100
AcDbEntity
  8
DIM
100
AcDbLine
  6
BYLAYER
 62
0
370
  -2
 10
-160.860674496613
 20
-160.984597515515
 11
-188.77734116328
 21
-160.984597515515
  0
LINE
  5
70D
100
AcDbEntity
  8
DIM
100
AcDbLine
  6
BYLAYER
 62
0
370
  -2
 10
-260.860674496613
 20
-160.984597515515
 11
-232.944007829947
 21
-160.984597515515
  0
SOLID
  5
70E
100
AcDbEntity
  8
DIM
100
AcDbTrace
 10
-160.860674496613
 20
-158.901264182182
 30
0.0
 11
-160.860674496613
 21
-163.067930848849
 31
0.0
 12
-148.360674496613
 22
-160.984597515515
 32
0.0
 13
-148.360674496613
 23
-160.984597515515
 33
0.0
  0
SOLID
  5
70F
100
AcDbEntity
  8
DIM
100
AcDbTrace
 10
-273.360674496613
 20
-160.984597515515
 30
0.0
 11
-260.860674496613
 21
-163.067930848849
 31
0.0
 12
-260.860674496613
 22
-158.901264182182
 32
0.0
 13
-260.860674496613
 23
-158.901264182182
 33
0.0
  0
TEXT
  5
710
100
AcDbEntity
  8
DIM
 62
0
100
AcDbText
  6
BYLAYER
 62
0
 10
-220.235674496613
 20
-167.234597515515
 40
12.5
  1
125
  7
Font_0
 72
1
 11
-210.860674496613
 21
-160.984597515515
100
AcDbText
 73
2
  0
LINE
  5
711
100
AcDbEntity
  8
DIM
100
AcDbLine
  6
BYLAYER
 62
0
370
  -2
 10
-273.360674496613
 20
-172.435943719206
 11
-273.360674496613
 21
-158.484597515515
  0
LINE
  5
712
100
AcDbEntity
  8
DIM
100
AcDbLine
  6
BYLAYER
 62
0
370
  -2
 10
-398.360674496613
 20
-172.435943719206
 11
-398.360674496613
 21
-158.484597515515
  0
LINE
  5
713
100
AcDbEntity
  8
DIM
100
AcDbLine
  6
BYLAYER
 62
0
370
  -2
 10
-285.860674496613
 20
-160.984597515515
 11
-313.77734116328
 21
-160.984597515515
  0
LINE
  5
714
100
AcDbEntity
  8
DIM
100
AcDbLine
  6
BYLAYER
 62
0
370
  -2
 10
-385.860674496613
 20
-160.984597515515
 11
-357.944007829947
 21
-160.984597515515
  0
SOLID
  5
715
100
AcDbEntity
  8
DIM
100
AcDbTrace
 10
-285.860674496613
 20
-158.901264182182
 30
0.0
 11
-285.860674496613
 21
-163.067930848849
 31
0.0
 12
-273.360674496613
 22
-160.984597515515
 32
0.0
 13
-273.360674496613
 23
-160.984597515515
 33
0.0
  0
SOLID
  5
716
100
AcDbEntity
  8
DIM
100
AcDbTrace
 10
-398.360674496613
 20
-160.984597515515
 30
0.0
 11
-385.860674496613
 21
-163.067930848849
 31
0.0
 12
-385.860674496613
 22
-158.901264182182
 32
0.0
 13
-385.860674496613
 23
-158.901264182182
 33
0.0
  0
TEXT
  5
717
100
AcDbEntity
  8
DIM
 62
0
100
AcDbText
  6
BYLAYER
 62
0
 10
-345.235674496613
 20
-167.234597515515
 40
12.5
  1
125
  7
Font_0
 72
1
 11
-335.860674496613
 21
-160.984597515515
100
AcDbText
 73
2
  0
LINE
  5
718
100
AcDbEntity
  8
DIM
100
AcDbLine
  6
BYLAYER
 62
0
370
  -2
 10
265.815073036644
 20
14.6544771760544
 11
265.815073036644
 21
202.660788072049
  0
LINE
  5
719
100
AcDbEntity
  8
DIM
100
AcDbLine
  6
BYLAYER
 62
0
370
  -2
 10
-52.8868960176812
 20
87.5640562807945
 11
-52.8868960176812
 21
202.660788072049
  0
LINE
  5
71A
100
AcDbEntity
  8
DIM
100
AcDbLine
  6
BYLAYER
 62
0
370
  -2
 10
253.315073036644
 20
200.160788072049
 11
128.547421842815
 21
200.160788072049
  0
LINE
  5
71B
100
AcDbEntity
  8
DIM
100
AcDbLine
  6
BYLAYER
 62
0
370
  -2
 10
-40.3868960176812
 20
200.160788072049
 11
84.380755176148
 21
200.160788072049
  0
SOLID
  5
71C
100
AcDbEntity
  8
DIM
100
AcDbTrace
 10
253.315073036644
 20
202.244121405382
 30
0.0
 11
253.315073036644
 21
198.077454738715
 31
0.0
 12
265.815073036644
 22
200.160788072049
 32
0.0
 13
265.815073036644
 23
200.160788072049
 33
0.0
  0
SOLID
  5
71D
100
AcDbEntity
  8
DIM
100
AcDbTrace
 10
-52.8868960176812
 20
200.160788072049
 30
0.0
 11
-40.3868960176812
 21
198.077454738715
 31
0.0
 12
-40.3868960176812
 22
202.244121405382
 32
0.0
 13
-40.3868960176812
 23
202.244121405382
 33
0.0
  0
TEXT
  5
71E
100
AcDbEntity
  8
DIM
 62
0
100
AcDbText
  6
BYLAYER
 62
0
 10
97.0890885094813
 20
193.910788072049
 40
12.5
  1
319
  7
Font_0
 72
1
 11
106.464088509481
 21
200.160788072049
100
AcDbText
 73
2
  0
LINE
  5
71F
100
AcDbEntity
  8
DIM
100
AcDbLine
  6
BYLAYER
 62
0
370
  -2
 10
-52.8868960176812
 20
87.5640562807945
 11
-52.8868960176812
 21
181.678014763826
  0
LINE
  5
720
100
AcDbEntity
  8
DIM
100
AcDbLine
  6
BYLAYER
 62
0
370
  -2
 10
108.613056302318
 20
27.5640339307944
 11
108.613056302318
 21
181.678014763826
  0
LINE
  5
721
100
AcDbEntity
  8
DIM
100
AcDbLine
  6
BYLAYER
 62
0
370
  -2
 10
-40.3868960176812
 20
179.178014763826
 11
7.8630801423185
 21
179.178014763826
  0
LINE
  5
722
100
AcDbEntity
  8
DIM
100
AcDbLine
  6
BYLAYER
 62
0
370
  -2
 10
96.1130563023183
 20
179.178014763826
 11
47.8630801423185
 21
179.178014763826
  0
SOLID
  5
723
100
AcDbEntity
  8
DIM
100
AcDbTrace
 10
-52.8868960176812
 20
179.178014763826
 30
0.0
 11
-40.3868960176812
 21
177.094681430492
 31
0.0
 12
-40.3868960176812
 22
181.261348097159
 32
0.0
 13
-40.3868960176812
 23
181.261348097159
 33
0.0
  0
SOLID
  5
724
100
AcDbEntity
  8
DIM
100
AcDbTrace
 10
96.1130563023183
 20
181.261348097159
 30
0.0
 11
96.1130563023183
 21
177.094681430492
 31
0.0
 12
108.613056302318
 22
179.178014763826
 32
0.0
 13
108.613056302318
 23
179.178014763826
 33
0.0
  0
TEXT
  5
725
100
AcDbEntity
  8
DIM
 62
0
100
AcDbText
  6
BYLAYER
 62
0
 10
18.4880801423185
 20
172.928014763826
 40
12.5
  1
161
  7
Font_0
 72
1
 11
27.8630801423185
 21
179.178014763826
100
AcDbText
 73
2
  0
LINE
  5
726
100
AcDbEntity
  8
DIM
100
AcDbLine
  6
BYLAYER
 62
0
370
  -2
 10
108.613056302318
 20
27.5640339307944
 11
108.613056302318
 21
181.678014763826
  0
LINE
  5
727
100
AcDbEntity
  8
DIM
100
AcDbLine
  6
BYLAYER
 62
0
370
  -2
 10
265.815073036644
 20
14.6544771760544
 11
265.815073036644
 21
181.678014763826
  0
LINE
  5
728
100
AcDbEntity
  8
DIM
100
AcDbLine
  6
BYLAYER
 62
0
370
  -2
 10
121.113056302318
 20
179.178014763826
 11
165.130731336148
 21
179.178014763826
  0
LINE
  5
729
100
AcDbEntity
  8
DIM
100
AcDbLine
  6
BYLAYER
 62
0
370
  -2
 10
253.315073036644
 20
179.178014763826
 11
209.297398002814
 21
179.178014763826
  0
SOLID
  5
72A
100
AcDbEntity
  8
DIM
100
AcDbTrace
 10
108.613056302318
 20
179.178014763826
 30
0.0
 11
121.113056302318
 21
177.094681430492
 31
0.0
 12
121.113056302318
 22
181.261348097159
 32
0.0
 13
121.113056302318
 23
181.261348097159
 33
0.0
  0
SOLID
  5
72B
100
AcDbEntity
  8
DIM
100
AcDbTrace
 10
253.315073036644
 20
181.261348097159
 30
0.0
 11
253.315073036644
 21
177.094681430492
 31
0.0
 12
265.815073036644
 22
179.178014763826
 32
0.0
 13
265.815073036644
 23
179.178014763826
 33
0.0
  0
TEXT
  5
72C
100
AcDbEntity
  8
DIM
 62
0
100
AcDbText
  6
BYLAYER
 62
0
 10
177.839064669481
 20
172.928014763826
 40
12.5
  1
157
  7
Font_0
 72
1
 11
187.214064669481
 21
179.178014763826
100
AcDbText
 73
2
  0
LINE
  5
72D
100
AcDbEntity
  8
DIM
100
AcDbLine
  6
BYLAYER
 62
0
370
  -2
 10
9.57638097621511
 20
-83.3487645155027
 11
27.9513809762145
 21
-83.3487645155027
  0
LINE
  5
72E
100
AcDbEntity
  8
DIM
100
AcDbLine
  6
BYLAYER
 62
0
370
  -2
 10
27.9513809762145
 20
-83.3487645155027
 11
53.397321439669
 21
-49.1483142572102
  0
TEXT
  5
72F
100
AcDbEntity
  8
DIM
 62
0
100
AcDbText
  6
BYLAYER
 62
0
 10
-33.3402856904516
 20
-89.5987645155027
 40
12.5
  1
φ160
  7
Font_0
 72
1
 11
-17.7152856904516
 21
-83.3487645155027
100
AcDbText
 73
2
  0
SOLID
  5
730
100
AcDbEntity
  8
DIM
100
AcDbTrace
 10
51.7258721561554
 20
-47.9047166251685
 30
0.0
 11
55.0687707231826
 21
-50.3919118892518
 31
0.0
 12
60.858907231919
 22
-39.1196185561285
 32
0.0
 13
60.858907231919
 23
-39.1196185561285
 33
0.0
  0
LINE
  5
731
100
AcDbEntity
  8
DIM
100
AcDbLine
  6
BYLAYER
 62
0
370
  -2
 10
108.163056302318
 20
25.0640339307933
 11
109.063056302318
 21
25.0640339307933
  0
LINE
  5
732
100
AcDbEntity
  8
DIM
100
AcDbLine
  6
BYLAYER
 62
0
370
  -2
 10
108.613056302318
 20
24.6140339307933
 11
108.613056302318
 21
25.5140339307933
  0
LINE
  5
733
100
AcDbEntity
  8
DIM
100
AcDbLine
  6
BYLAYER
 62
0
370
  -2
 10
124.00775870048
 20
164.004130423643
 11
287.044198563331
 21
164.004130423643
  0
LINE
  5
734
100
AcDbEntity
  8
DIM
100
AcDbLine
  6
BYLAYER
 62
0
370
  -2
 10
111.113056302318
 20
25.0640339307944
 11
287.044198563331
 21
25.0640339307943
  0
LINE
  5
735
100
AcDbEntity
  8
DIM
100
AcDbLine
  6
BYLAYER
 62
0
370
  -2
 10
284.544198563331
 20
151.504130423643
 11
284.544198563331
 21
116.617415510552
  0
LINE
  5
736
100
AcDbEntity
  8
DIM
100
AcDbLine
  6
BYLAYER
 62
0
370
  -2
 10
284.544198563331
 20
37.5640339307943
 11
284.544198563331
 21
72.4507488438854
  0
SOLID
  5
737
100
AcDbEntity
  8
DIM
100
AcDbTrace
 10
282.460865229998
 20
151.504130423643
 30
0.0
 11
286.627531896664
 21
151.504130423643
 31
0.0
 12
284.544198563331
 22
164.004130423643
 32
0.0
 13
284.544198563331
 23
164.004130423643
 33
0.0
  0
SOLID
  5
738
100
AcDbEntity
  8
DIM
100
AcDbTrace
 10
284.544198563331
 20
25.0640339307943
 30
0.0
 11
286.627531896664
 21
37.5640339307943
 31
0.0
 12
282.460865229998
 22
37.5640339307943
 32
0.0
 13
282.460865229998
 23
37.5640339307943
 33
0.0
  0
TEXT
  5
739
100
AcDbEntity
  8
DIM
 62
0
100
AcDbText
  6
BYLAYER
 62
0
 10
290.794198563331
 20
85.1590821772188
 40
12.5
  1
139
  7
Font_0
 50
90
 72
1
 11
284.544198563331
 21
94.5340821772188
100
AcDbText
 73
2
  0
LINE
  5
73A
100
AcDbEntity
  8
DIM
100
AcDbLine
  6
BYLAYER
 62
0
370
  -2
 10
111.113056302318
 20
25.0640339307944
 11
287.044198563331
 21
25.0640339307943
  0
LINE
  5
73B
100
AcDbEntity
  8
DIM
100
AcDbLine
  6
BYLAYER
 62
0
370
  -2
 10
111.113056302316
 20
-149.935913919206
 11
287.044198563331
 21
-149.935913919206
  0
LINE
  5
73C
100
AcDbEntity
  8
DIM
100
AcDbLine
  6
BYLAYER
 62
0
370
  -2
 10
284.544198563331
 20
12.5640339307943
 11
284.544198563331
 21
-40.3526066608723
  0
LINE
  5
73D
100
AcDbEntity
  8
DIM
100
AcDbLine
  6
BYLAYER
 62
0
370
  -2
 10
284.544198563331
 20
-137.435913919205
 11
284.544198563331
 21
-84.519273327539
  0
SOLID
  5
73E
100
AcDbEntity
  8
DIM
100
AcDbTrace
 10
282.460865229998
 20
12.5640339307943
 30
0.0
 11
286.627531896664
 21
12.5640339307943
 31
0.0
 12
284.544198563331
 22
25.0640339307943
 32
0.0
 13
284.544198563331
 23
25.0640339307943
 33
0.0
  0
SOLID
  5
73F
100
AcDbEntity
  8
DIM
100
AcDbTrace
 10
284.544198563331
 20
-149.935913919206
 30
0.0
 11
286.627531896664
 21
-137.435913919205
 31
0.0
 12
282.460865229998
 22
-137.435913919205
 32
0.0
 13
282.460865229998
 23
-137.435913919205
 33
0.0
  0
TEXT
  5
740
100
AcDbEntity
  8
DIM
 62
0
100
AcDbText
  6
BYLAYER
 62
0
 10
290.794198563331
 20
-71.8109399942056
 40
12.5
  1
175
  7
Font_0
 50
90
 72
1
 11
284.544198563331
 21
-62.4359399942056
100
AcDbText
 73
2
  0
LINE
  5
741
100
AcDbEntity
  8
DIM
100
AcDbLine
  6
BYLAYER
 62
0
370
  -2
 10
124.00775870048
 20
164.004130423643
 11
312.428976698172
 21
164.004130423643
  0
LINE
  5
742
100
AcDbEntity
  8
DIM
100
AcDbLine
  6
BYLAYER
 62
0
370
  -2
 10
231.113056302318
 20
-195.847047106988
 11
312.428976698172
 21
-195.847047106988
  0
LINE
  5
743
100
AcDbEntity
  8
DIM
100
AcDbLine
  6
BYLAYER
 62
0
370
  -2
 10
309.928976698172
 20
151.504130423643
 11
309.928976698172
 21
7.2035416583278
  0
LINE
  5
744
100
AcDbEntity
  8
DIM
100
AcDbLine
  6
BYLAYER
 62
0
370
  -2
 10
309.928976698172
 20
-183.347047106988
 11
309.928976698172
 21
-39.0464583416722
  0
SOLID
  5
745
100
AcDbEntity
  8
DIM
100
AcDbTrace
 10
307.845643364839
 20
151.504130423643
 30
0.0
 11
312.012310031506
 21
151.504130423643
 31
0.0
 12
309.928976698172
 22
164.004130423643
 32
0.0
 13
309.928976698172
 23
164.004130423643
 33
0.0
  0
SOLID
  5
746
100
AcDbEntity
  8
DIM
100
AcDbTrace
 10
309.928976698172
 20
-195.847047106988
 30
0.0
 11
312.012310031505
 21
-183.347047106988
 31
0.0
 12
307.845643364839
 22
-183.347047106988
 32
0.0
 13
307.845643364839
 23
-183.347047106988
 33
0.0
  0
TEXT
  5
747
100
AcDbEntity
  8
DIM
 62
0
100
AcDbText
  6
BYLAYER
 62
0
 10
316.178976698172
 20
-25.2964583416722
 40
12.5
  1
360
  7
Font_0
 50
90
 72
1
 11
309.928976698172
 21
-15.9214583416721
100
AcDbText
 73
2
  0
LINE
  5
748
100
AcDbEntity
  8
DIM
100
AcDbLine
  6
BYLAYER
 62
0
370
  -2
 10
228.613056302318
 20
-198.347047106988
 11
228.613056302318
 21
-235.951578235315
  0
LINE
  5
749
100
AcDbEntity
  8
DIM
100
AcDbLine
  6
BYLAYER
 62
0
370
  -2
 10
-11.3869436976818
 20
-198.347047106988
 11
-11.3869436976818
 21
-235.951578235315
  0
LINE
  5
74A
100
AcDbEntity
  8
DIM
100
AcDbLine
  6
BYLAYER
 62
0
370
  -2
 10
216.113056302318
 20
-233.451578235315
 11
131.738056302318
 21
-233.451578235315
  0
LINE
  5
74B
100
AcDbEntity
  8
DIM
100
AcDbLine
  6
BYLAYER
 62
0
370
  -2
 10
1.11305630231822
 20
-233.451578235315
 11
85.4880563023182
 21
-233.451578235315
  0
SOLID
  5
74C
100
AcDbEntity
  8
DIM
100
AcDbTrace
 10
216.113056302318
 20
-231.368244901982
 30
0.0
 11
216.113056302318
 21
-235.534911568649
 31
0.0
 12
228.613056302318
 22
-233.451578235315
 32
0.0
 13
228.613056302318
 23
-233.451578235315
 33
0.0
  0
SOLID
  5
74D
100
AcDbEntity
  8
DIM
100
AcDbTrace
 10
-11.3869436976818
 20
-233.451578235315
 30
0.0
 11
1.11305630231822
 21
-235.534911568649
 31
0.0
 12
1.11305630231822
 22
-231.368244901982
 32
0.0
 13
1.11305630231822
 23
-231.368244901982
 33
0.0
  0
TEXT
  5
74E
100
AcDbEntity
  8
DIM
 62
0
100
AcDbText
  6
BYLAYER
 62
0
 10
99.2380563023182
 20
-239.701578235315
 40
12.5
  1
240
  7
Font_0
 72
1
 11
108.613056302318
 21
-233.451578235315
100
AcDbText
 73
2
  0
LINE
  5
74F
100
AcDbEntity
  8
DIM
100
AcDbLine
  6
BYLAYER
 62
0
370
  -2
 10
208.61305630232
 20
-199.347047106988
 11
208.61305630232
 21
-214.223096492578
  0
LINE
  5
750
100
AcDbEntity
  8
DIM
100
AcDbLine
  6
BYLAYER
 62
0
370
  -2
 10
8.61305630231777
 20
-199.347047106991
 11
8.61305630231777
 21
-214.223096492578
  0
LINE
  5
751
100
AcDbEntity
  8
DIM
100
AcDbLine
  6
BYLAYER
 62
0
370
  -2
 10
196.11305630232
 20
-211.723096492578
 11
130.696389635652
 21
-211.723096492578
  0
LINE
  5
752
100
AcDbEntity
  8
DIM
100
AcDbLine
  6
BYLAYER
 62
0
370
  -2
 10
21.1130563023178
 20
-211.723096492578
 11
86.5297229689854
 21
-211.723096492578
  0
SOLID
  5
753
100
AcDbEntity
  8
DIM
100
AcDbTrace
 10
196.11305630232
 20
-209.639763159245
 30
0.0
 11
196.11305630232
 21
-213.806429825912
 31
0.0
 12
208.61305630232
 22
-211.723096492578
 32
0.0
 13
208.61305630232
 23
-211.723096492578
 33
0.0
  0
SOLID
  5
754
100
AcDbEntity
  8
DIM
100
AcDbTrace
 10
8.61305630231777
 20
-211.723096492578
 30
0.0
 11
21.1130563023178
 21
-213.806429825912
 31
0.0
 12
21.1130563023178
 22
-209.639763159245
 32
0.0
 13
21.1130563023178
 23
-209.639763159245
 33
0.0
  0
TEXT
  5
755
100
AcDbEntity
  8
DIM
 62
0
100
AcDbText
  6
BYLAYER
 62
0
 10
99.2380563023187
 20
-217.973096492578
 40
12.5
  1
200
  7
Font_0
 72
1
 11
108.613056302319
 21
-211.723096492578
100
AcDbText
 73
2
  0
LINE
  5
756
100
AcDbEntity
  8
0
100
AcDbLine
  6
BYLAYER
 10
228.613056302319
 20
-193.847047106988
 11
-11.3869436976818
 21
-193.847047106988
  0
LINE
  5
757
100
AcDbEntity
  8
0
100
AcDbLine
  6
BYLAYER
 10
228.613056302318
 20
-195.847047106988
 11
-11.3869436976818
 21
-195.847047106988
  0
LINE
  5
758
100
AcDbEntity
  8
0
100
AcDbLine
  6
BYLAYER
 10
228.613056302319
 20
-195.847047106988
 11
228.613056302319
 21
-193.847047106988
  0
LINE
  5
759
100
AcDbEntity
  8
HIDDEN
100
AcDbLine
  6
BYLAYER
 10
212.863056302319
 20
-195.847047106988
 11
212.86305630232
 21
-193.847047106988
  0
LINE
  5
75A
100
AcDbEntity
  8
HIDDEN
100
AcDbLine
  6
BYLAYER
 10
204.363056302319
 20
-195.847047106988
 11
204.363056302319
 21
-193.847047106988
  0
LINE
  5
75B
100
AcDbEntity
  8
0
100
AcDbLine
  6
BYLAYER
 10
-11.3869436976818
 20
-195.847047106988
 11
-11.3869436976818
 21
-193.847047106988
  0
LINE
  5
75C
100
AcDbEntity
  8
HIDDEN
100
AcDbLine
  6
BYLAYER
 10
4.36305630231823
 20
-195.847047106988
 11
4.36305630231732
 21
-193.847047106988
  0
LINE
  5
75D
100
AcDbEntity
  8
HIDDEN
100
AcDbLine
  6
BYLAYER
 10
12.8630563023164
 20
-195.847047106988
 11
12.8630563023182
 21
-193.847047106988
  0
ARC
  5
75E
100
AcDbEntity
  8
0
100
AcDbCircle
  6
BYLAYER
 10
108.613056302318
 20
-29.9359660692065
 40
102
100
AcDbArc
 50
223.607822831981
 51
316.392177168019
  0
LINE
  5
75F
100
AcDbEntity
  8
0
100
AcDbLine
  6
BYLAYER
 10
223.613056302318
 20
-193.847047106988
 11
227.127691806801
 21
-190.332411602505
  0
ARC
  5
760
100
AcDbEntity
  8
0
100
AcDbCircle
  6
BYLAYER
 10
106.405964493516
 20
-139.913821775468
 40
3.25
100
AcDbArc
 50
88.8503133446285
 51
268.850313344628
  0
ARC
  5
761
100
AcDbEntity
  8
0
100
AcDbCircle
  6
BYLAYER
 10
110.82014811112
 20
-139.913821775468
 40
3.25
100
AcDbArc
 50
271.149686655372
 51
91.1496866553716
  0
ARC
  5
762
100
AcDbEntity
  8
0
100
AcDbCircle
  6
BYLAYER
 10
108.613056302318
 20
-29.9359660692065
 40
106.749999999999
100
AcDbArc
 50
268.850313344628
 51
271.149686655372
  0
ARC
  5
763
100
AcDbEntity
  8
0
100
AcDbCircle
  6
BYLAYER
 10
108.613056302318
 20
-29.9359660692065
 40
113.249999999999
100
AcDbArc
 50
268.850313344628
 51
271.149686655372
  0
ARC
  5
764
100
AcDbEntity
  8
0
100
AcDbCircle
  6
BYLAYER
 10
29.2753727005477
 20
-106.130007573152
 40
3.25
100
AcDbArc
 50
43.8420825245666
 51
223.842082524567
  0
ARC
  5
765
100
AcDbEntity
  8
0
100
AcDbCircle
  6
BYLAYER
 10
32.3962234477997
 20
-109.251755100308
 40
3.25
100
AcDbArc
 50
226.14145583526
 51
46.1414558352597
  0
ARC
  5
766
100
AcDbEntity
  8
0
100
AcDbCircle
  6
BYLAYER
 10
108.613056302318
 20
-29.9359660692063
 40
106.749999999999
100
AcDbArc
 50
223.842082524567
 51
226.14145583526
  0
ARC
  5
767
100
AcDbEntity
  8
0
100
AcDbCircle
  6
BYLAYER
 10
108.613056302318
 20
-29.9359660692063
 40
113.249999999999
100
AcDbArc
 50
223.842082524567
 51
226.14145583526
  0
ARC
  5
768
100
AcDbEntity
  8
0
100
AcDbCircle
  6
BYLAYER
 10
187.95073990409
 20
-106.130007573152
 40
3.25
100
AcDbArc
 50
316.157917475434
 51
136.157917475433
  0
ARC
  5
769
100
AcDbEntity
  8
0
100
AcDbCircle
  6
BYLAYER
 10
184.829889156837
 20
-109.251755100308
 40
3.25
100
AcDbArc
 50
133.85854416474
 51
313.85854416474
  0
ARC
  5
76A
100
AcDbEntity
  8
0
100
AcDbCircle
  6
BYLAYER
 10
108.613056302318
 20
-29.9359660692063
 40
106.749999999999
100
AcDbArc
 50
313.85854416474
 51
316.157917475434
  0
ARC
  5
76B
100
AcDbEntity
  8
0
100
AcDbCircle
  6
BYLAYER
 10
108.613056302318
 20
-29.9359660692063
 40
113.249999999999
100
AcDbArc
 50
313.85854416474
 51
316.157917475434
  0
LINE
  5
76C
100
AcDbEntity
  8
0
100
AcDbLine
  6
BYLAYER
 10
227.725294824351
 20
-186.943236473723
 11
195.291081860501
 21
-102.387842311467
  0
ARC
  5
76D
100
AcDbEntity
  8
0
100
AcDbCircle
  6
BYLAYER
 10
225.006371463241
 20
-188.211091258946
 40
3
100
AcDbArc
 50
315.000000000001
 51
25.0000000000449
  0
ARC
  5
76E
100
AcDbEntity
  8
0
100
AcDbCircle
  6
BYLAYER
 10
188.163461119384
 20
-105.711506447474
 40
7.86445934048663
100
AcDbArc
 50
25.0000000000449
 51
136.392177168019
  0
LINE
  5
76F
100
AcDbEntity
  8
0
100
AcDbLine
  6
BYLAYER
 10
-6.38694369768177
 20
-193.847047106988
 11
-9.90157920216348
 21
-190.332411602505
  0
LINE
  5
770
100
AcDbEntity
  8
0
100
AcDbLine
  6
BYLAYER
 10
-10.4991822197132
 20
-186.943236473723
 11
21.9350307441366
 21
-102.387842311467
  0
ARC
  5
771
100
AcDbEntity
  8
0
100
AcDbCircle
  6
BYLAYER
 10
-7.78025885860347
 20
-188.211091258946
 40
3
100
AcDbArc
 50
155.000000000022
 51
224.999999999998
  0
ARC
  5
772
100
AcDbEntity
  8
0
100
AcDbCircle
  6
BYLAYER
 10
29.0626514852531
 20
-105.711506447474
 40
7.86445934048663
100
AcDbArc
 50
43.6078228319807
 51
155.000000000022
  0
LINE
  5
773
100
AcDbEntity
  8
DIM
100
AcDbLine
  6
BYLAYER
 62
0
370
  -2
 10
-149.860674496613
 20
-199.347047106987
 11
-149.860674496613
 21
-210.364827187309
  0
LINE
  5
774
100
AcDbEntity
  8
DIM
100
AcDbLine
  6
BYLAYER
 62
0
370
  -2
 10
-396.860674496614
 20
-199.347047106987
 11
-396.860674496614
 21
-210.364827187309
  0
LINE
  5
775
100
AcDbEntity
  8
DIM
100
AcDbLine
  6
BYLAYER
 62
0
370
  -2
 10
-162.360674496613
 20
-207.864827187309
 11
-249.194007829947
 21
-207.864827187309
  0
LINE
  5
776
100
AcDbEntity
  8
DIM
100
AcDbLine
  6
BYLAYER
 62
0
370
  -2
 10
-384.360674496614
 20
-207.864827187309
 11
-297.52734116328
 21
-207.864827187309
  0
SOLID
  5
777
100
AcDbEntity
  8
DIM
100
AcDbTrace
 10
-162.360674496613
 20
-205.781493853975
 30
0.0
 11
-162.360674496613
 21
-209.948160520642
 31
0.0
 12
-149.860674496613
 22
-207.864827187309
 32
0.0
 13
-149.860674496613
 23
-207.864827187309
 33
0.0
  0
SOLID
  5
778
100
AcDbEntity
  8
DIM
100
AcDbTrace
 10
-396.860674496614
 20
-207.864827187309
 30
0.0
 11
-384.360674496614
 21
-209.948160520642
 31
0.0
 12
-384.360674496614
 22
-205.781493853975
 32
0.0
 13
-384.360674496614
 23
-205.781493853975
 33
0.0
  0
TEXT
  5
779
100
AcDbEntity
  8
DIM
 62
0
100
AcDbText
  6
BYLAYER
 62
0
 10
-282.735674496613
 20
-214.114827187309
 40
12.5
  1
247
  7
Font_0
 72
1
 11
-273.360674496613
 21
-207.864827187309
100
AcDbText
 73
2
  0
LINE
  5
77A
100
AcDbEntity
  8
DIM
100
AcDbLine
  6
BYLAYER
 62
0
370
  -2
 10
-136.360674496613
 20
-198.347047106988
 11
-136.360674496613
 21
-235.951578235315
  0
LINE
  5
77B
100
AcDbEntity
  8
DIM
100
AcDbLine
  6
BYLAYER
 62
0
370
  -2
 10
-410.360674496614
 20
-198.347047106988
 11
-410.360674496614
 21
-235.951578235315
  0
LINE
  5
77C
100
AcDbEntity
  8
DIM
100
AcDbLine
  6
BYLAYER
 62
0
370
  -2
 10
-148.860674496613
 20
-233.451578235315
 11
-249.194007829947
 21
-233.451578235315
  0
LINE
  5
77D
100
AcDbEntity
  8
DIM
100
AcDbLine
  6
BYLAYER
 62
0
370
  -2
 10
-397.860674496614
 20
-233.451578235315
 11
-297.52734116328
 21
-233.451578235315
  0
SOLID
  5
77E
100
AcDbEntity
  8
DIM
100
AcDbTrace
 10
-148.860674496613
 20
-231.368244901982
 30
0.0
 11
-148.860674496613
 21
-235.534911568649
 31
0.0
 12
-136.360674496613
 22
-233.451578235315
 32
0.0
 13
-136.360674496613
 23
-233.451578235315
 33
0.0
  0
SOLID
  5
77F
100
AcDbEntity
  8
DIM
100
AcDbTrace
 10
-410.360674496614
 20
-233.451578235315
 30
0.0
 11
-397.860674496614
 21
-235.534911568649
 31
0.0
 12
-397.860674496614
 22
-231.368244901982
 32
0.0
 13
-397.860674496614
 23
-231.368244901982
 33
0.0
  0
TEXT
  5
780
100
AcDbEntity
  8
DIM
 62
0
100
AcDbText
  6
BYLAYER
 62
0
 10
-282.735674496614
 20
-239.701578235315
 40
12.5
  1
274
  7
Font_0
 72
1
 11
-273.360674496614
 21
-233.451578235315
100
AcDbText
 73
2
  0
LINE
  5
781
100
AcDbEntity
  8
0
100
AcDbLine
  6
BYLAYER
 10
-161.360674496613
 20
-193.847047106988
 11
-161.360674496613
 21
-195.847047106988
  0
LINE
  5
782
100
AcDbEntity
  8
0
100
AcDbLine
  6
BYLAYER
 10
-161.360674496613
 20
-193.847047106988
 11
-163.360674496613
 21
-193.847047106988
  0
ARC
  5
783
100
AcDbEntity
  8
BASE
100
AcDbCircle
  6
BYLAYER
 10
-385.360674496614
 20
-193.847047106988
 40
2
100
AcDbArc
 50
270
 51
0
  0
LINE
  5
784
100
AcDbEntity
  8
0
100
AcDbLine
  6
BYLAYER
 10
-385.360674496614
 20
-193.847047106988
 11
-385.360674496614
 21
-195.847047106988
  0
LINE
  5
785
100
AcDbEntity
  8
0
100
AcDbLine
  6
BYLAYER
 10
-385.360674496614
 20
-193.847047106988
 11
-383.360674496614
 21
-193.847047106988
  0
LINE
  5
786
100
AcDbEntity
  8
DIM
100
AcDbLine
  6
BYLAYER
 62
0
370
  -2
 10
-382.860674496614
 20
46.5640562807945
 11
-440.156643697047
 21
46.5640562807945
  0
LINE
  5
787
100
AcDbEntity
  8
DIM
100
AcDbLine
  6
BYLAYER
 62
0
370
  -2
 10
-382.860674496614
 20
-146.435943719206
 11
-440.156643697047
 21
-146.435943719206
  0
LINE
  5
788
100
AcDbEntity
  8
DIM
100
AcDbLine
  6
BYLAYER
 62
0
370
  -2
 10
-437.656643697047
 20
34.0640562807945
 11
-437.656643697047
 21
-27.8526103858722
  0
LINE
  5
789
100
AcDbEntity
  8
DIM
100
AcDbLine
  6
BYLAYER
 62
0
370
  -2
 10
-437.656643697047
 20
-133.935943719206
 11
-437.656643697047
 21
-72.0192770525388
  0
SOLID
  5
78A
100
AcDbEntity
  8
DIM
100
AcDbTrace
 10
-439.73997703038
 20
34.0640562807945
 30
0.0
 11
-435.573310363713
 21
34.0640562807945
 31
0.0
 12
-437.656643697047
 22
46.5640562807945
 32
0.0
 13
-437.656643697047
 23
46.5640562807945
 33
0.0
  0
SOLID
  5
78B
100
AcDbEntity
  8
DIM
100
AcDbTrace
 10
-437.656643697047
 20
-146.435943719206
 30
0.0
 11
-435.573310363713
 21
-133.935943719206
 31
0.0
 12
-439.73997703038
 22
-133.935943719206
 32
0.0
 13
-439.73997703038
 23
-133.935943719206
 33
0.0
  0
TEXT
  5
78C
100
AcDbEntity
  8
DIM
 62
0
100
AcDbText
  6
BYLAYER
 62
0
 10
-431.406643697047
 20
-59.3109437192056
 40
12.5
  1
193
  7
Font_0
 50
90
 72
1
 11
-437.656643697047
 21
-49.9359437192056
100
AcDbText
 73
2
  0
LINE
  5
78D
100
AcDbEntity
  8
0
100
AcDbLine
  6
BYLAYER
 10
-166.360674496613
 20
46.5640562807945
 11
-166.360674496613
 21
-146.435943719206
  0
LINE
  5
78E
100
AcDbEntity
  8
0
100
AcDbLine
  6
BYLAYER
 10
-166.360674496613
 20
-146.435943719206
 11
-380.360674496614
 21
-146.435943719206
  0
LINE
  5
78F
100
AcDbEntity
  8
0
100
AcDbLine
  6
BYLAYER
 10
-380.360674496614
 20
-146.435943719206
 11
-380.360674496614
 21
46.5640562807945
  0
LINE
  5
790
100
AcDbEntity
  8
0
100
AcDbLine
  6
BYLAYER
 10
-380.360674496614
 20
46.5640562807945
 11
-166.360674496613
 21
46.5640562807945
  0
LINE
  5
791
100
AcDbEntity
  8
HIDDEN
100
AcDbLine
  6
BYLAYER
 10
3.69628564898062
 20
-149.935913919206
 11
108.613056302318
 21
-149.935913919206
  0
LINE
  5
792
100
AcDbEntity
  8
DIM
100
AcDbLine
  6
BYLAYER
 62
0
370
  -2
 10
111.113056302316
 20
-149.935913919206
 11
287.044198563331
 21
-149.935913919206
  0
LINE
  5
793
100
AcDbEntity
  8
DIM
100
AcDbLine
  6
BYLAYER
 62
0
370
  -2
 10
231.113056302318
 20
-195.847047106988
 11
287.044198563331
 21
-195.847047106988
  0
LINE
  5
794
100
AcDbEntity
  8
DIM
100
AcDbLine
  6
BYLAYER
 62
0
370
  -2
 10
284.544198563331
 20
-137.435913919205
 11
284.544198563331
 21
-124.935913919206
  0
LINE
  5
795
100
AcDbEntity
  8
DIM
100
AcDbLine
  6
BYLAYER
 62
0
370
  -2
 10
284.544198563331
 20
-208.347047106988
 11
284.544198563331
 21
-220.847047106988
  0
SOLID
  5
796
100
AcDbEntity
  8
DIM
100
AcDbTrace
 10
284.544198563331
 20
-149.935913919206
 30
0.0
 11
286.627531896664
 21
-137.435913919205
 31
0.0
 12
282.460865229998
 22
-137.435913919205
 32
0.0
 13
282.460865229998
 23
-137.435913919205
 33
0.0
  0
SOLID
  5
797
100
AcDbEntity
  8
DIM
100
AcDbTrace
 10
282.460865229998
 20
-208.347047106988
 30
0.0
 11
286.627531896664
 21
-208.347047106988
 31
0.0
 12
284.544198563331
 22
-195.847047106988
 32
0.0
 13
284.544198563331
 23
-195.847047106988
 33
0.0
  0
TEXT
  5
798
100
AcDbEntity
  8
DIM
 62
0
100
AcDbText
  6
BYLAYER
 62
0
 10
290.794198563331
 20
-179.141480513097
 40
12.5
  1
46
  7
Font_0
 50
90
 72
1
 11
284.544198563331
 21
-172.891480513097
100
AcDbText
 73
2
  0
LINE
  5
799
100
AcDbEntity
  8
DIM
100
AcDbLine
  6
BYLAYER
 62
0
370
  -2
 10
190.663461119384
 20
-97.8470471069873
 11
250.904498403547
 21
-97.8470471069873
  0
LINE
  5
79A
100
AcDbEntity
  8
DIM
100
AcDbLine
  6
BYLAYER
 62
0
370
  -2
 10
231.113056302318
 20
-195.847047106988
 11
250.904498403547
 21
-195.847047106988
  0
LINE
  5
79B
100
AcDbEntity
  8
DIM
100
AcDbLine
  6
BYLAYER
 62
0
370
  -2
 10
248.404498403547
 20
-110.347047106987
 11
248.404498403547
 21
-112.240402079916
  0
LINE
  5
79C
100
AcDbEntity
  8
DIM
100
AcDbLine
  6
BYLAYER
 62
0
370
  -2
 10
248.404498403547
 20
-183.347047106988
 11
248.404498403547
 21
-148.07373541325
  0
SOLID
  5
79D
100
AcDbEntity
  8
DIM
100
AcDbTrace
 10
246.321165070214
 20
-110.347047106987
 30
0.0
 11
250.487831736881
 21
-110.347047106987
 31
0.0
 12
248.404498403547
 22
-97.8470471069873
 32
0.0
 13
248.404498403547
 23
-97.8470471069873
 33
0.0
  0
SOLID
  5
79E
100
AcDbEntity
  8
DIM
100
AcDbTrace
 10
248.404498403547
 20
-195.847047106988
 30
0.0
 11
250.487831736881
 21
-183.347047106988
 31
0.0
 12
246.321165070214
 22
-183.347047106988
 32
0.0
 13
246.321165070214
 23
-183.347047106988
 33
0.0
  0
TEXT
  5
79F
100
AcDbEntity
  8
DIM
 62
0
100
AcDbText
  6
BYLAYER
 62
0
 10
254.654498403547
 20
-136.407068746583
 40
12.5
  1
98
  7
Font_0
 50
90
 72
1
 11
248.404498403547
 21
-130.157068746583
100
AcDbText
 73
2
  0
LINE
  5
7A0
100
AcDbEntity
  8
DIM
100
AcDbLine
  6
BYLAYER
 62
0
370
  -2
 10
-136.360674496613
 20
-198.347047106988
 11
-136.360674496613
 21
-260.710208007149
  0
LINE
  5
7A1
100
AcDbEntity
  8
DIM
100
AcDbLine
  6
BYLAYER
 62
0
370
  -2
 10
-421.860674496613
 20
-2.93596606920562
 11
-421.860674496613
 21
-260.710208007149
  0
LINE
  5
7A2
100
AcDbEntity
  8
DIM
100
AcDbLine
  6
BYLAYER
 62
0
370
  -2
 10
-148.860674496613
 20
-258.210208007149
 11
-246.610674496613
 21
-258.210208007149
  0
LINE
  5
7A3
100
AcDbEntity
  8
DIM
100
AcDbLine
  6
BYLAYER
 62
0
370
  -2
 10
-409.360674496613
 20
-258.210208007149
 11
-311.610674496614
 21
-258.210208007149
  0
SOLID
  5
7A4
100
AcDbEntity
  8
DIM
100
AcDbTrace
 10
-148.860674496613
 20
-256.126874673816
 30
0.0
 11
-148.860674496613
 21
-260.293541340482
 31
0.0
 12
-136.360674496613
 22
-258.210208007149
 32
0.0
 13
-136.360674496613
 23
-258.210208007149
 33
0.0
  0
SOLID
  5
7A5
100
AcDbEntity
  8
DIM
100
AcDbTrace
 10
-421.860674496613
 20
-258.210208007149
 30
0.0
 11
-409.360674496613
 21
-260.293541340482
 31
0.0
 12
-409.360674496613
 22
-256.126874673816
 32
0.0
 13
-409.360674496613
 23
-256.126874673816
 33
0.0
  0
TEXT
  5
7A6
100
AcDbEntity
  8
DIM
 62
0
100
AcDbText
  6
BYLAYER
 62
0
 10
-294.735674496614
 20
-264.460208007149
 40
12.5
  1
285.5
  7
Font_0
 72
1
 11
-279.110674496614
 21
-258.210208007149
100
AcDbText
 73
2
  0
LINE
  5
7A7
100
AcDbEntity
  8
DIM
100
AcDbLine
  6
BYLAYER
 62
0
370
  -2
 10
-410.360674496614
 20
-198.347047106988
 11
-410.360674496614
 21
-235.951578235316
  0
LINE
  5
7A8
100
AcDbEntity
  8
DIM
100
AcDbLine
  6
BYLAYER
 62
0
370
  -2
 10
-421.860674496613
 20
-2.93596606920562
 11
-421.860674496613
 21
-235.951578235316
  0
LINE
  5
7A9
100
AcDbEntity
  8
DIM
100
AcDbLine
  6
BYLAYER
 62
0
370
  -2
 10
-397.860674496614
 20
-233.451578235316
 11
-385.360674496614
 21
-233.451578235316
  0
LINE
  5
7AA
100
AcDbEntity
  8
DIM
100
AcDbLine
  6
BYLAYER
 62
0
370
  -2
 10
-434.360674496613
 20
-233.451578235316
 11
-446.860674496613
 21
-233.451578235316
  0
SOLID
  5
7AB
100
AcDbEntity
  8
DIM
100
AcDbTrace
 10
-410.360674496614
 20
-233.451578235316
 30
0.0
 11
-397.860674496614
 21
-235.534911568649
 31
0.0
 12
-397.860674496614
 22
-231.368244901982
 32
0.0
 13
-397.860674496614
 23
-231.368244901982
 33
0.0
  0
SOLID
  5
7AC
100
AcDbEntity
  8
DIM
100
AcDbTrace
 10
-434.360674496613
 20
-231.368244901982
 30
0.0
 11
-434.360674496613
 21
-235.534911568649
 31
0.0
 12
-421.860674496613
 22
-233.451578235316
 32
0.0
 13
-421.860674496613
 23
-233.451578235316
 33
0.0
  0
TEXT
  5
7AD
100
AcDbEntity
  8
DIM
 62
0
100
AcDbText
  6
BYLAYER
 62
0
 10
-481.444007829947
 20
-239.701578235316
 40
12.5
  1
11.5
  7
Font_0
 72
1
 11
-468.944007829947
 21
-233.451578235316
100
AcDbText
 73
2
  0
LINE
  5
7AE
100
AcDbEntity
  8
HIDDEN
100
AcDbLine
  6
BYLAYER
 10
-402.110674496614
 20
-193.847047106988
 11
-402.110674496614
 21
-195.847047106988
  0
LINE
  5
7AF
100
AcDbEntity
  8
HIDDEN
100
AcDbLine
  6
BYLAYER
 10
-391.610674496614
 20
-193.847047106988
 11
-391.610674496613
 21
-195.847047106988
  0
LINE
  5
7B0
100
AcDbEntity
  8
CEN
100
AcDbLine
  6
BYLAYER
 10
-149.860674496613
 20
-196.847047106987
 11
-149.860674496613
 21
-192.847047106988
  0
LINE
  5
7B1
100
AcDbEntity
  8
HIDDEN
100
AcDbLine
  6
BYLAYER
 10
-144.610674496613
 20
-193.847047106988
 11
-144.610674496613
 21
-195.847047106988
  0
LINE
  5
7B2
100
AcDbEntity
  8
HIDDEN
100
AcDbLine
  6
BYLAYER
 10
-155.110674496613
 20
-193.847047106988
 11
-155.110674496614
 21
-195.847047106988
  0
LINE
  5
7B3
100
AcDbEntity
  8
CEN
100
AcDbLine
  6
BYLAYER
 10
8.61305630231777
 20
-196.847047106991
 11
8.61305630231777
 21
-192.847047106991
  0
LINE
  5
7B4
100
AcDbEntity
  8
CEN
100
AcDbLine
  6
BYLAYER
 10
208.61305630232
 20
-196.847047106988
 11
208.61305630232
 21
-192.847047106989
  0
LWPOLYLINE
  5
7B5
100
AcDbEntity
  8
0
100
AcDbPolyline
  6
BYLAYER
 90
     91
 10
-24.3868960176814
  20
50.0640562807963
 10
-22.2195298656591
  20
56.1705272164931
 10
-19.96786240263
  20
62.3841205620954
 10
-17.6014622503656
  20
68.6596385806088
 10
-15.0898980306374
  20
74.9518835350388
 10
-12.402738365217
  20
81.2156576883911
 10
-9.50955187587584
  20
87.4057633036712
 10
-6.37990718438553
  20
93.4770026438846
 10
-2.9833729125176
  20
99.3841779720371
 10
0.710482317956413
  20
105.082091551134
 10
4.72387411748415
  20
110.53306319467
 10
9.04615502539
  20
115.729482918096
 10
13.6584618132175
  20
120.671258287353
 10
18.5419312525104
  20
125.358296868379
 10
23.6777001148121
  20
129.790506227115
 10
29.0469051716662
  20
133.9677939295
 10
34.6306831946163
  20
137.890067541476
 10
40.4101709552061
  20
141.557234628981
 10
46.366505224979
  20
144.969202757956
 10
52.4799918832844
  20
148.124879362391
 10
58.7276132406944
  20
151.019171348474
 10
65.0855207155868
  20
153.645985490445
 10
71.5298657263395
  20
155.999228562543
 10
78.0367996913303
  20
158.072807339007
 10
84.582474028937
  20
159.860628594077
 10
91.1430401575374
  20
161.356599101991
 10
97.6946494955094
  20
162.554625636988
 10
104.213453461231
  20
163.448614973309
 10
110.679830692189
  20
164.034179367323
 10
117.091068702307
  20
164.31375300393
 10
123.448682224619
  20
164.291475550158
 10
129.754185992157
  20
163.97148667304
 10
136.009094737955
  20
163.357926039604
 10
142.214923195045
  20
162.454933316882
 10
148.373186096461
  20
161.266648171903
 10
154.485398175236
  20
159.797210271698
 10
160.553074164404
  20
158.050759283297
 10
166.573900007973
  20
156.033326606184
 10
172.530246493862
  20
153.758510569654
 10
178.400655620965
  20
151.241801235458
 10
184.163669388178
  20
148.498688665346
 10
189.797829794396
  20
145.544662921067
 10
195.281678838513
  20
142.39521406437
 10
200.593758519424
  20
139.065832157007
 10
205.712610836023
  20
135.572007260725
 10
210.616777787207
  20
131.929229437276
 10
215.289630722516
  20
128.149363292357
 10
219.73385839408
  20
124.229771607465
 10
223.956978904678
  20
120.164191708046
 10
227.966510357085
  20
115.946360919544
 10
231.769970854079
  20
111.570016567405
 10
235.374878498438
  20
107.028895977073
 10
238.788751392938
  20
102.316736473995
 10
242.019107640357
  20
97.4272753836148
 10
245.073465343471
  20
92.3542500313784
 10
247.956542064647
  20
87.0949586708645
 10
250.66185320461
  20
81.6609432681874
 10
253.180113623675
  20
76.0673067175948
 10
255.502038182155
  20
70.3291519133347
 10
257.618341740364
  20
64.4615817496548
 10
259.519739158617
  20
58.4796991208032
 10
261.196945297229
  20
52.3986069210276
 10
262.640675016512
  20
46.2334080445759
 10
263.841643176782
  20
39.9992053856961
 10
264.791361412248
  20
33.7096948353574
 10
265.484528452695
  20
27.3729442714154
 10
265.916639801805
  20
20.995614568447
 10
266.083190963261
  20
14.5843666010293
 10
265.979677440742
  20
8.14586124373916
 10
265.601594737931
  20
1.68675937115361
 10
264.944438358508
  20
-4.78627814215039
 10
264.003703806155
  20
-11.2665904215958
 10
262.774886584554
  20
-17.7475165926058
 10
261.255759918044
  20
-24.2203214353947
 10
259.453207913595
  20
-30.6679723493433
 10
257.376392398836
  20
-37.0713623886237
 10
255.034475201396
  20
-43.4113846074081
 10
252.436618148903
  20
-49.6689320598686
 10
249.591983068986
  20
-55.8248978001773
 10
246.509731789275
  20
-61.8601748825064
 10
243.199026137396
  20
-67.7556563610282
 10
239.66902794098
  20
-73.4922352899146
 10
235.930278234095
  20
-79.052552878609
 10
231.998834876569
  20
-84.4262429576392
 10
227.892134934673
  20
-89.604687512804
 10
223.627615474676
  20
-94.5792685299022
 10
219.222713562846
  20
-99.3413679947326
 10
214.694866265453
  20
-103.882367893094
 10
210.061510648767
  20
-108.193650210786
 10
205.340083779056
  20
-112.266596933606
 10
200.54802272259
  20
-116.092590047354
  0
LWPOLYLINE
  5
7B6
100
AcDbEntity
  8
HIDDEN
100
AcDbPolyline
  6
BYLAYER
 90
     28
 10
200.54802272259
  20
-116.092590047355
 10
199.44146030698
  20
-116.924859572548
 10
197.887279675069
  20
-118.06153875471
 10
195.937003717332
  20
-119.454940097795
 10
193.642155324245
  20
-121.057376105759
 10
191.054257386284
  20
-122.821159282555
 10
188.224832793923
  20
-124.698602132138
 10
185.205404437637
  20
-126.642017158462
 10
182.047495207903
  20
-128.60371686548
 10
178.802627995194
  20
-130.536013757148
 10
175.511285353895
  20
-132.398533595021
 10
172.16978849402
  20
-134.180155171062
 10
168.76341828949
  20
-135.877070534836
 10
165.277455614229
  20
-137.485471735906
 10
161.697181342157
  20
-139.001550823837
 10
158.007876347198
  20
-140.421499848193
 10
154.194821503274
  20
-141.741510858539
 10
150.243297684306
  20
-142.95777590444
 10
146.138585764217
  20
-144.066487035459
 10
141.877954268743
  20
-145.065700861786
 10
137.506622330874
  20
-145.960932236116
 10
133.081796735415
  20
-146.759560571764
 10
128.660684267171
  20
-147.468965282052
 10
124.300491710945
  20
-148.096525780295
 10
120.058425851543
  20
-148.649621479814
 10
115.991693473768
  20
-149.135631793927
 10
112.157501362425
  20
-149.561936135952
 10
108.613056302319
  20
-149.935913919207
  0
ENDSEC
  0
SECTION
  2
OBJECTS
  0
DICTIONARY
  5
7B7
100
AcDbDictionary
  3
ACAD_GROUP
350
7B8
  3
ACAD_MLINESTYLE
350
7B9
  0
DICTIONARY
  5
7B8
102
{ACAD_REACTORS
330
7B7
102
}
100
AcDbDictionary
  0
DICTIONARY
  5
7B9
102
{ACAD_REACTORS
330
7B7
102
}
100
AcDbDictionary
  3
STANDARD
350
7BA
  0
MLINESTYLE
  5
7BA
102
{ACAD_REACTORS
330
7B9
102
}
100
AcDbMlineStyle
  2
Standard
 70
     0
  3

 62
     0
 51
90.0
 52
90.0
 71
     2
 49
0.5
 62
   256
  6
ByLayer
 49
-0.5
 62
   256
  6
ByLayer
  0
ENDSEC
  0
EOF
