999
Outputted By AR_CAD Ver.1.6.0
  0
SECTION
  2
HEADER
  9
$ACADVER
  1
AC1014
  9
$DWGCODEPAGE
  3
ANSI_932
  9
$EXTMIN
 10
0
 20
0
  9
$EXTMAX
 10
594
 20
420
  9
$INSBASE
 10
0.0
 20
0.0
 30
0.0
  9
$HANDLING
 70
     1
  9
$HANDSEED
  5
620
  9
$LTSCALE
 40
1
  0
ENDSEC
  0
SECTION
  2
TABLES
  0
TABLE
  2
VPORT
  5
1
100
AcDbSymbolTable
 70
     1
  0
VPORT
  5
30
100
AcDbSymbolTableRecord
100
AcDbViewportTableRecord
  2
*ACTIVE
 70
     0
 10
0.0
 20
0.0
 11
1.0
 21
1.0
 12
210.0
 22
148.5
 13
0.0
 23
0.0
 14
10.0
 24
10.0
 15
10.0
 25
10.0
 16
0.0
 26
0.0
 36
1.0
 17
0.0
 27
0.0
 37
0.0
 40
302.94
 41
1.333333
 42
50.0
 43
0.0
 44
0.0
 50
0.0
 51
0.0
 71
     0
 72
   100
 73
     1
 74
     1
 75
     0
 76
     0
 77
     0
 78
     0
  0
ENDTAB
  0
TABLE
  2
LTYPE
  5
2
100
AcDbSymbolTable
 70
     28
  0
LTYPE
  5
31
100
AcDbSymbolTableRecord
100
AcDbLinetypeTableRecord
  2
BYBLOCK
 70
    64
 3

 72
    65
 73
    0
 40
    0
  0
LTYPE
  5
32
100
AcDbSymbolTableRecord
100
AcDbLinetypeTableRecord
  2
BYLAYER
 70
    64
 3

 72
    65
 73
    0
 40
    0
  0
LTYPE
  5
33
100
AcDbSymbolTableRecord
100
AcDbLinetypeTableRecord
  2
CONTINUOUS
 70
    64
 3
CONTINUOUS
 72
    65
 73
    0
 40
    0
  0
LTYPE
  5
34
100
AcDbSymbolTableRecord
100
AcDbLinetypeTableRecord
  2
DASHED
 70
    64
 3

 72
    65
 73
    2
 40
    3.5
 49
    2.91666666666667
 74
    0
 49
    -0.583333333333333
 74
    0
  0
LTYPE
  5
35
100
AcDbSymbolTableRecord
100
AcDbLinetypeTableRecord
  2
DOT
 70
    64
 3

 72
    65
 73
    2
 40
    0.5
 49
    0.25
 74
    0
 49
    -0.25
 74
    0
  0
LTYPE
  5
36
100
AcDbSymbolTableRecord
100
AcDbLinetypeTableRecord
  2
DASHDOT
 70
    64
 3

 72
    65
 73
    4
 40
    3.5
 49
    1.84210526315789
 74
    0
 49
    -0.552631578947368
 74
    0
 49
    0.552631578947368
 74
    0
 49
    -0.552631578947368
 74
    0
  0
LTYPE
  5
37
100
AcDbSymbolTableRecord
100
AcDbLinetypeTableRecord
  2
DIVIDE
 70
    64
 3

 72
    65
 73
    6
 40
    3.5
 49
    1.4
 74
    0
 49
    -0.42
 74
    0
 49
    0.42
 74
    0
 49
    -0.42
 74
    0
 49
    0.42
 74
    0
 49
    -0.42
 74
    0
  0
LTYPE
  5
38
100
AcDbSymbolTableRecord
100
AcDbLinetypeTableRecord
  2
HIDDEN
 70
    64
 3

 72
    65
 73
    2
 40
    9.525
 49
    6.35
 74
    0
 49
    -3.175
 74
    0
  0
LTYPE
  5
39
100
AcDbSymbolTableRecord
100
AcDbLinetypeTableRecord
  2
CENTERX2
 70
    64
 3

 72
    65
 73
    4
 40
    4
 49
    2.5
 74
    0
 49
    -0.5
 74
    0
 49
    0.5
 74
    0
 49
    -0.5
 74
    0
  0
LTYPE
  5
3A
100
AcDbSymbolTableRecord
100
AcDbLinetypeTableRecord
  2
CENTER
 70
    64
 3

 72
    65
 73
    4
 40
    50.8
 49
    31.75
 74
    0
 49
    -6.35
 74
    0
 49
    6.35
 74
    0
 49
    -6.35
 74
    0
  0
LTYPE
  5
3B
100
AcDbSymbolTableRecord
100
AcDbLinetypeTableRecord
  2
BORDER
 70
    64
 3

 72
    65
 73
    6
 40
    44.45
 49
    12.7
 74
    0
 49
    -6.35
 74
    0
 49
    12.7
 74
    0
 49
    -6.35
 74
    0
 49
    0
 74
    0
 49
    -6.35
 74
    0
  0
LTYPE
  5
3C
100
AcDbSymbolTableRecord
100
AcDbLinetypeTableRecord
  2
AM_ISO02W050
 70
    64
 3

 72
    65
 73
    2
 40
    7.5
 49
    6
 74
    0
 49
    -1.5
 74
    0
  0
LTYPE
  5
3D
100
AcDbSymbolTableRecord
100
AcDbLinetypeTableRecord
  2
AM_ISO08W050
 70
    64
 3

 72
    65
 73
    4
 40
    18
 49
    12
 74
    0
 49
    -1.5
 74
    0
 49
    3
 74
    0
 49
    -1.5
 74
    0
  0
LTYPE
  5
3E
100
AcDbSymbolTableRecord
100
AcDbLinetypeTableRecord
  2
AM_ISO09W050
 70
    64
 3

 72
    65
 73
    6
 40
    22.5
 49
    12
 74
    0
 49
    -1.5
 74
    0
 49
    3
 74
    0
 49
    -1.5
 74
    0
 49
    3
 74
    0
 49
    -1.5
 74
    0
  0
LTYPE
  5
3F
100
AcDbSymbolTableRecord
100
AcDbLinetypeTableRecord
  2
Amconstr
 70
    64
 3

 72
    65
 73
    1
 40
    9999
 49
    9999
 74
    0
  0
LTYPE
  5
40
100
AcDbSymbolTableRecord
100
AcDbLinetypeTableRecord
  2
AM_ISO08W050x2
 70
    64
 3

 72
    65
 73
    4
 40
    9
 49
    6
 74
    0
 49
    -0.75
 74
    0
 49
    1.5
 74
    0
 49
    -0.75
 74
    0
  0
LTYPE
  5
41
100
AcDbSymbolTableRecord
100
AcDbLinetypeTableRecord
  2
AM_ISO02W050x2
 70
    64
 3

 72
    65
 73
    2
 40
    3.75
 49
    3
 74
    0
 49
    -0.75
 74
    0
  0
LTYPE
  5
42
100
AcDbSymbolTableRecord
100
AcDbLinetypeTableRecord
  2
Amzigzag
 70
    64
 3

 72
    65
 73
    2
 40
    4
 49
    2
 74
    0
 49
    -2
 74
    0
  0
LTYPE
  5
43
100
AcDbSymbolTableRecord
100
AcDbLinetypeTableRecord
  2
PHANTOM2
 70
    64
 3

 72
    65
 73
    6
 40
    1.25
 49
    0.625
 74
    0
 49
    -0.125
 74
    0
 49
    0.125
 74
    0
 49
    -0.125
 74
    0
 49
    0.125
 74
    0
 49
    -0.125
 74
    0
  0
LTYPE
  5
44
100
AcDbSymbolTableRecord
100
AcDbLinetypeTableRecord
  2
CENTER2
 70
    64
 3

 72
    65
 73
    4
 40
    1.125
 49
    0.75
 74
    0
 49
    -0.125
 74
    0
 49
    0.125
 74
    0
 49
    -0.125
 74
    0
  0
LTYPE
  5
45
100
AcDbSymbolTableRecord
100
AcDbLinetypeTableRecord
  2
HIDDEN2
 70
    64
 3

 72
    65
 73
    2
 40
    0.188
 49
    0.125668449197861
 74
    0
 49
    -0.062331550802139
 74
    0
  0
LTYPE
  5
46
100
AcDbSymbolTableRecord
100
AcDbLinetypeTableRecord
  2
Amzigzag2
 70
    64
 3

 72
    65
 73
    2
 40
    4
 49
    2
 74
    0
 49
    -2
 74
    0
  0
LTYPE
  5
47
100
AcDbSymbolTableRecord
100
AcDbLinetypeTableRecord
  2
ACANSTGB
 70
    64
 3

 72
    65
 73
    6
 40
    0.354
 49
    0.157892045454545
 74
    0
 49
    -0.0392215909090909
 74
    0
 49
    0.0392215909090909
 74
    0
 49
    -0.0392215909090909
 74
    0
 49
    0.0392215909090909
 74
    0
 49
    -0.0392215909090909
 74
    0
  0
LTYPE
  5
48
100
AcDbSymbolTableRecord
100
AcDbLinetypeTableRecord
  2
ACANSTGL
 70
    64
 3

 72
    65
 73
    2
 40
    0.118
 49
    0.079
 74
    0
 49
    -0.039
 74
    0
  0
LTYPE
  5
49
100
AcDbSymbolTableRecord
100
AcDbLinetypeTableRecord
  2
BORDERX2
 70
    64
 3

 72
    65
 73
    6
 40
    3.5
 49
    1
 74
    0
 49
    -0.5
 74
    0
 49
    1
 74
    0
 49
    -0.5
 74
    0
 49
    0
 74
    0
 49
    -0.5
 74
    0
  0
LTYPE
  5
4A
100
AcDbSymbolTableRecord
100
AcDbLinetypeTableRecord
  2
BORDER2
 70
    64
 3

 72
    65
 73
    6
 40
    0.875
 49
    0.25
 74
    0
 49
    -0.125
 74
    0
 49
    0.25
 74
    0
 49
    -0.125
 74
    0
 49
    0
 74
    0
 49
    -0.125
 74
    0
  0
LTYPE
  5
4B
100
AcDbSymbolTableRecord
100
AcDbLinetypeTableRecord
  2
ACISOWELD
 70
    64
 3

 72
    65
 73
    2
 40
    2
 49
    1.33333333333333
 74
    0
 49
    -0.666666666666667
 74
    0
  0
LTYPE
  5
4C
100
AcDbSymbolTableRecord
100
AcDbLinetypeTableRecord
  2
ACISOTGB
 70
    64
 3

 72
    65
 73
    6
 40
    9
 49
    4
 74
    0
 49
    -1
 74
    0
 49
    1
 74
    0
 49
    -1
 74
    0
 49
    1
 74
    0
 49
    -1
 74
    0
  0
LTYPE
  5
4D
100
AcDbSymbolTableRecord
100
AcDbLinetypeTableRecord
  2
ACISOTGL
 70
    64
 3

 72
    65
 73
    2
 40
    3
 49
    2
 74
    0
 49
    -1
 74
    0
  0
ENDTAB
  0
TABLE
  2
LAYER
  5
3
100
AcDbSymbolTable
 70
   257
  0
LAYER
  5
4E
100
AcDbSymbolTableRecord
100
AcDbLayerTableRecord
  2
0
 70
    0
 62
7
  6
CONTINUOUS
  0
LAYER
  5
4F
100
AcDbSymbolTableRecord
100
AcDbLayerTableRecord
  2
DEFPOINTS
 70
    0
 62
7
  6
CONTINUOUS
  0
LAYER
  5
50
100
AcDbSymbolTableRecord
100
AcDbLayerTableRecord
  2
ASHADE
 70
    4
 62
7
  6
CONTINUOUS
  0
LAYER
  5
51
100
AcDbSymbolTableRecord
100
AcDbLayerTableRecord
  2
CEN
 70
    0
 62
3
  6
AM_ISO08W050
  0
LAYER
  5
52
100
AcDbSymbolTableRecord
100
AcDbLayerTableRecord
  2
DIM
 70
    0
 62
1
  6
CONTINUOUS
  0
LAYER
  5
53
100
AcDbSymbolTableRecord
100
AcDbLayerTableRecord
  2
HIDDEN
 70
    0
 62
3
  6
CONTINUOUS
  0
LAYER
  5
54
100
AcDbSymbolTableRecord
100
AcDbLayerTableRecord
  2
HATCH
 70
    0
 62
5
  6
CONTINUOUS
  0
LAYER
  5
55
100
AcDbSymbolTableRecord
100
AcDbLayerTableRecord
  2
TEXT
 70
    0
 62
7
  6
CONTINUOUS
  0
LAYER
  5
56
100
AcDbSymbolTableRecord
100
AcDbLayerTableRecord
  2
M
 70
    0
 62
6
  6
CONTINUOUS
  0
LAYER
  5
57
100
AcDbSymbolTableRecord
100
AcDbLayerTableRecord
  2
BREAK
 70
    0
 62
3
  6
AM_ISO09W050
  0
LAYER
  5
58
100
AcDbSymbolTableRecord
100
AcDbLayerTableRecord
  2
01
 70
    0
 62
3
  6
CONTINUOUS
  0
LAYER
  5
59
100
AcDbSymbolTableRecord
100
AcDbLayerTableRecord
  2
7475A
 70
    0
 62
1
  6
CONTINUOUS
  0
LAYER
  5
5A
100
AcDbSymbolTableRecord
100
AcDbLayerTableRecord
  2
BASE
 70
    0
 62
7
  6
CONTINUOUS
  0
LAYER
  5
5B
100
AcDbSymbolTableRecord
100
AcDbLayerTableRecord
  2
AME
 70
    0
 62
7
  6
CONTINUOUS
  0
LAYER
  5
5C
100
AcDbSymbolTableRecord
100
AcDbLayerTableRecord
  2
4
 70
    0
 62
4
  6
CONTINUOUS
  0
LAYER
  5
5D
100
AcDbSymbolTableRecord
100
AcDbLayerTableRecord
  2
AM_CL
 70
    0
 62
1
  6
Amzigzag
  0
LAYER
  5
5E
100
AcDbSymbolTableRecord
100
AcDbLayerTableRecord
  2
PV-236
 70
    0
 62
7
  6
CONTINUOUS
  0
LAYER
  5
5F
100
AcDbSymbolTableRecord
100
AcDbLayerTableRecord
  2
画層17
 70
    0
 62
70
  6
CONTINUOUS
  0
LAYER
  5
60
100
AcDbSymbolTableRecord
100
AcDbLayerTableRecord
  2
画層18
 70
    0
 62
211
  6
CONTINUOUS
  0
LAYER
  5
61
100
AcDbSymbolTableRecord
100
AcDbLayerTableRecord
  2
画層19
 70
    0
 62
137
  6
CONTINUOUS
  0
LAYER
  5
62
100
AcDbSymbolTableRecord
100
AcDbLayerTableRecord
  2
画層20
 70
    0
 62
4
  6
CONTINUOUS
  0
LAYER
  5
63
100
AcDbSymbolTableRecord
100
AcDbLayerTableRecord
  2
画層21
 70
    0
 62
131
  6
CONTINUOUS
  0
LAYER
  5
64
100
AcDbSymbolTableRecord
100
AcDbLayerTableRecord
  2
画層22
 70
    0
 62
4
  6
CONTINUOUS
  0
LAYER
  5
65
100
AcDbSymbolTableRecord
100
AcDbLayerTableRecord
  2
画層23
 70
    0
 62
4
  6
CONTINUOUS
  0
LAYER
  5
66
100
AcDbSymbolTableRecord
100
AcDbLayerTableRecord
  2
画層24
 70
    0
 62
7
  6
CONTINUOUS
  0
LAYER
  5
67
100
AcDbSymbolTableRecord
100
AcDbLayerTableRecord
  2
画層25
 70
    0
 62
7
  6
CONTINUOUS
  0
LAYER
  5
68
100
AcDbSymbolTableRecord
100
AcDbLayerTableRecord
  2
画層26
 70
    0
 62
7
  6
CONTINUOUS
  0
LAYER
  5
69
100
AcDbSymbolTableRecord
100
AcDbLayerTableRecord
  2
画層27
 70
    0
 62
7
  6
CONTINUOUS
  0
LAYER
  5
6A
100
AcDbSymbolTableRecord
100
AcDbLayerTableRecord
  2
画層28
 70
    0
 62
7
  6
CONTINUOUS
  0
LAYER
  5
6B
100
AcDbSymbolTableRecord
100
AcDbLayerTableRecord
  2
画層29
 70
    0
 62
7
  6
CONTINUOUS
  0
LAYER
  5
6C
100
AcDbSymbolTableRecord
100
AcDbLayerTableRecord
  2
画層30
 70
    0
 62
7
  6
CONTINUOUS
  0
LAYER
  5
6D
100
AcDbSymbolTableRecord
100
AcDbLayerTableRecord
  2
画層31
 70
    0
 62
7
  6
CONTINUOUS
  0
LAYER
  5
6E
100
AcDbSymbolTableRecord
100
AcDbLayerTableRecord
  2
画層32
 70
    0
 62
7
  6
CONTINUOUS
  0
LAYER
  5
6F
100
AcDbSymbolTableRecord
100
AcDbLayerTableRecord
  2
画層33
 70
    0
 62
7
  6
CONTINUOUS
  0
LAYER
  5
70
100
AcDbSymbolTableRecord
100
AcDbLayerTableRecord
  2
画層34
 70
    0
 62
7
  6
CONTINUOUS
  0
LAYER
  5
71
100
AcDbSymbolTableRecord
100
AcDbLayerTableRecord
  2
画層35
 70
    0
 62
7
  6
CONTINUOUS
  0
LAYER
  5
72
100
AcDbSymbolTableRecord
100
AcDbLayerTableRecord
  2
画層36
 70
    0
 62
7
  6
CONTINUOUS
  0
LAYER
  5
73
100
AcDbSymbolTableRecord
100
AcDbLayerTableRecord
  2
画層37
 70
    0
 62
7
  6
CONTINUOUS
  0
LAYER
  5
74
100
AcDbSymbolTableRecord
100
AcDbLayerTableRecord
  2
画層38
 70
    0
 62
7
  6
CONTINUOUS
  0
LAYER
  5
75
100
AcDbSymbolTableRecord
100
AcDbLayerTableRecord
  2
画層39
 70
    0
 62
7
  6
CONTINUOUS
  0
LAYER
  5
76
100
AcDbSymbolTableRecord
100
AcDbLayerTableRecord
  2
画層40
 70
    0
 62
7
  6
CONTINUOUS
  0
LAYER
  5
77
100
AcDbSymbolTableRecord
100
AcDbLayerTableRecord
  2
画層41
 70
    0
 62
7
  6
CONTINUOUS
  0
LAYER
  5
78
100
AcDbSymbolTableRecord
100
AcDbLayerTableRecord
  2
画層42
 70
    0
 62
7
  6
CONTINUOUS
  0
LAYER
  5
79
100
AcDbSymbolTableRecord
100
AcDbLayerTableRecord
  2
画層43
 70
    0
 62
7
  6
CONTINUOUS
  0
LAYER
  5
7A
100
AcDbSymbolTableRecord
100
AcDbLayerTableRecord
  2
画層44
 70
    0
 62
7
  6
CONTINUOUS
  0
LAYER
  5
7B
100
AcDbSymbolTableRecord
100
AcDbLayerTableRecord
  2
画層45
 70
    0
 62
7
  6
CONTINUOUS
  0
LAYER
  5
7C
100
AcDbSymbolTableRecord
100
AcDbLayerTableRecord
  2
画層46
 70
    0
 62
7
  6
CONTINUOUS
  0
LAYER
  5
7D
100
AcDbSymbolTableRecord
100
AcDbLayerTableRecord
  2
画層47
 70
    0
 62
7
  6
CONTINUOUS
  0
LAYER
  5
7E
100
AcDbSymbolTableRecord
100
AcDbLayerTableRecord
  2
画層48
 70
    0
 62
7
  6
CONTINUOUS
  0
LAYER
  5
7F
100
AcDbSymbolTableRecord
100
AcDbLayerTableRecord
  2
画層49
 70
    0
 62
7
  6
CONTINUOUS
  0
LAYER
  5
80
100
AcDbSymbolTableRecord
100
AcDbLayerTableRecord
  2
画層50
 70
    0
 62
7
  6
CONTINUOUS
  0
LAYER
  5
81
100
AcDbSymbolTableRecord
100
AcDbLayerTableRecord
  2
画層51
 70
    0
 62
7
  6
CONTINUOUS
  0
LAYER
  5
82
100
AcDbSymbolTableRecord
100
AcDbLayerTableRecord
  2
画層52
 70
    0
 62
7
  6
CONTINUOUS
  0
LAYER
  5
83
100
AcDbSymbolTableRecord
100
AcDbLayerTableRecord
  2
画層53
 70
    0
 62
7
  6
CONTINUOUS
  0
LAYER
  5
84
100
AcDbSymbolTableRecord
100
AcDbLayerTableRecord
  2
画層54
 70
    0
 62
7
  6
CONTINUOUS
  0
LAYER
  5
85
100
AcDbSymbolTableRecord
100
AcDbLayerTableRecord
  2
画層55
 70
    0
 62
7
  6
CONTINUOUS
  0
LAYER
  5
86
100
AcDbSymbolTableRecord
100
AcDbLayerTableRecord
  2
画層56
 70
    0
 62
7
  6
CONTINUOUS
  0
LAYER
  5
87
100
AcDbSymbolTableRecord
100
AcDbLayerTableRecord
  2
画層57
 70
    0
 62
7
  6
CONTINUOUS
  0
LAYER
  5
88
100
AcDbSymbolTableRecord
100
AcDbLayerTableRecord
  2
画層58
 70
    0
 62
7
  6
CONTINUOUS
  0
LAYER
  5
89
100
AcDbSymbolTableRecord
100
AcDbLayerTableRecord
  2
画層59
 70
    0
 62
7
  6
CONTINUOUS
  0
LAYER
  5
8A
100
AcDbSymbolTableRecord
100
AcDbLayerTableRecord
  2
画層60
 70
    0
 62
7
  6
CONTINUOUS
  0
LAYER
  5
8B
100
AcDbSymbolTableRecord
100
AcDbLayerTableRecord
  2
画層61
 70
    0
 62
7
  6
CONTINUOUS
  0
LAYER
  5
8C
100
AcDbSymbolTableRecord
100
AcDbLayerTableRecord
  2
画層62
 70
    0
 62
7
  6
CONTINUOUS
  0
LAYER
  5
8D
100
AcDbSymbolTableRecord
100
AcDbLayerTableRecord
  2
画層63
 70
    0
 62
7
  6
CONTINUOUS
  0
LAYER
  5
8E
100
AcDbSymbolTableRecord
100
AcDbLayerTableRecord
  2
画層64
 70
    0
 62
7
  6
CONTINUOUS
  0
LAYER
  5
8F
100
AcDbSymbolTableRecord
100
AcDbLayerTableRecord
  2
画層65
 70
    0
 62
7
  6
CONTINUOUS
  0
LAYER
  5
90
100
AcDbSymbolTableRecord
100
AcDbLayerTableRecord
  2
画層66
 70
    0
 62
7
  6
CONTINUOUS
  0
LAYER
  5
91
100
AcDbSymbolTableRecord
100
AcDbLayerTableRecord
  2
画層67
 70
    0
 62
7
  6
CONTINUOUS
  0
LAYER
  5
92
100
AcDbSymbolTableRecord
100
AcDbLayerTableRecord
  2
画層68
 70
    0
 62
7
  6
CONTINUOUS
  0
LAYER
  5
93
100
AcDbSymbolTableRecord
100
AcDbLayerTableRecord
  2
画層69
 70
    0
 62
7
  6
CONTINUOUS
  0
LAYER
  5
94
100
AcDbSymbolTableRecord
100
AcDbLayerTableRecord
  2
画層70
 70
    0
 62
7
  6
CONTINUOUS
  0
LAYER
  5
95
100
AcDbSymbolTableRecord
100
AcDbLayerTableRecord
  2
画層71
 70
    0
 62
7
  6
CONTINUOUS
  0
LAYER
  5
96
100
AcDbSymbolTableRecord
100
AcDbLayerTableRecord
  2
画層72
 70
    0
 62
7
  6
CONTINUOUS
  0
LAYER
  5
97
100
AcDbSymbolTableRecord
100
AcDbLayerTableRecord
  2
画層73
 70
    0
 62
7
  6
CONTINUOUS
  0
LAYER
  5
98
100
AcDbSymbolTableRecord
100
AcDbLayerTableRecord
  2
画層74
 70
    0
 62
7
  6
CONTINUOUS
  0
LAYER
  5
99
100
AcDbSymbolTableRecord
100
AcDbLayerTableRecord
  2
画層75
 70
    0
 62
7
  6
CONTINUOUS
  0
LAYER
  5
9A
100
AcDbSymbolTableRecord
100
AcDbLayerTableRecord
  2
画層76
 70
    0
 62
7
  6
CONTINUOUS
  0
LAYER
  5
9B
100
AcDbSymbolTableRecord
100
AcDbLayerTableRecord
  2
画層77
 70
    0
 62
7
  6
CONTINUOUS
  0
LAYER
  5
9C
100
AcDbSymbolTableRecord
100
AcDbLayerTableRecord
  2
画層78
 70
    0
 62
7
  6
CONTINUOUS
  0
LAYER
  5
9D
100
AcDbSymbolTableRecord
100
AcDbLayerTableRecord
  2
画層79
 70
    0
 62
7
  6
CONTINUOUS
  0
LAYER
  5
9E
100
AcDbSymbolTableRecord
100
AcDbLayerTableRecord
  2
画層80
 70
    0
 62
7
  6
CONTINUOUS
  0
LAYER
  5
9F
100
AcDbSymbolTableRecord
100
AcDbLayerTableRecord
  2
画層81
 70
    0
 62
7
  6
CONTINUOUS
  0
LAYER
  5
A0
100
AcDbSymbolTableRecord
100
AcDbLayerTableRecord
  2
画層82
 70
    0
 62
7
  6
CONTINUOUS
  0
LAYER
  5
A1
100
AcDbSymbolTableRecord
100
AcDbLayerTableRecord
  2
画層83
 70
    0
 62
7
  6
CONTINUOUS
  0
LAYER
  5
A2
100
AcDbSymbolTableRecord
100
AcDbLayerTableRecord
  2
画層84
 70
    0
 62
7
  6
CONTINUOUS
  0
LAYER
  5
A3
100
AcDbSymbolTableRecord
100
AcDbLayerTableRecord
  2
画層85
 70
    0
 62
7
  6
CONTINUOUS
  0
LAYER
  5
A4
100
AcDbSymbolTableRecord
100
AcDbLayerTableRecord
  2
画層86
 70
    0
 62
7
  6
CONTINUOUS
  0
LAYER
  5
A5
100
AcDbSymbolTableRecord
100
AcDbLayerTableRecord
  2
画層87
 70
    0
 62
7
  6
CONTINUOUS
  0
LAYER
  5
A6
100
AcDbSymbolTableRecord
100
AcDbLayerTableRecord
  2
画層88
 70
    0
 62
7
  6
CONTINUOUS
  0
LAYER
  5
A7
100
AcDbSymbolTableRecord
100
AcDbLayerTableRecord
  2
画層89
 70
    0
 62
7
  6
CONTINUOUS
  0
LAYER
  5
A8
100
AcDbSymbolTableRecord
100
AcDbLayerTableRecord
  2
画層90
 70
    0
 62
7
  6
CONTINUOUS
  0
LAYER
  5
A9
100
AcDbSymbolTableRecord
100
AcDbLayerTableRecord
  2
画層91
 70
    0
 62
7
  6
CONTINUOUS
  0
LAYER
  5
AA
100
AcDbSymbolTableRecord
100
AcDbLayerTableRecord
  2
画層92
 70
    0
 62
7
  6
CONTINUOUS
  0
LAYER
  5
AB
100
AcDbSymbolTableRecord
100
AcDbLayerTableRecord
  2
画層93
 70
    0
 62
7
  6
CONTINUOUS
  0
LAYER
  5
AC
100
AcDbSymbolTableRecord
100
AcDbLayerTableRecord
  2
画層94
 70
    0
 62
7
  6
CONTINUOUS
  0
LAYER
  5
AD
100
AcDbSymbolTableRecord
100
AcDbLayerTableRecord
  2
画層95
 70
    0
 62
7
  6
CONTINUOUS
  0
LAYER
  5
AE
100
AcDbSymbolTableRecord
100
AcDbLayerTableRecord
  2
画層96
 70
    0
 62
7
  6
CONTINUOUS
  0
LAYER
  5
AF
100
AcDbSymbolTableRecord
100
AcDbLayerTableRecord
  2
画層97
 70
    0
 62
7
  6
CONTINUOUS
  0
LAYER
  5
B0
100
AcDbSymbolTableRecord
100
AcDbLayerTableRecord
  2
画層98
 70
    0
 62
7
  6
CONTINUOUS
  0
LAYER
  5
B1
100
AcDbSymbolTableRecord
100
AcDbLayerTableRecord
  2
画層99
 70
    0
 62
7
  6
CONTINUOUS
  0
LAYER
  5
B2
100
AcDbSymbolTableRecord
100
AcDbLayerTableRecord
  2
画層100
 70
    0
 62
7
  6
CONTINUOUS
  0
LAYER
  5
B3
100
AcDbSymbolTableRecord
100
AcDbLayerTableRecord
  2
画層101
 70
    0
 62
7
  6
CONTINUOUS
  0
LAYER
  5
B4
100
AcDbSymbolTableRecord
100
AcDbLayerTableRecord
  2
画層102
 70
    0
 62
7
  6
CONTINUOUS
  0
LAYER
  5
B5
100
AcDbSymbolTableRecord
100
AcDbLayerTableRecord
  2
画層103
 70
    0
 62
7
  6
CONTINUOUS
  0
LAYER
  5
B6
100
AcDbSymbolTableRecord
100
AcDbLayerTableRecord
  2
画層104
 70
    0
 62
7
  6
CONTINUOUS
  0
LAYER
  5
B7
100
AcDbSymbolTableRecord
100
AcDbLayerTableRecord
  2
画層105
 70
    0
 62
7
  6
CONTINUOUS
  0
LAYER
  5
B8
100
AcDbSymbolTableRecord
100
AcDbLayerTableRecord
  2
画層106
 70
    0
 62
7
  6
CONTINUOUS
  0
LAYER
  5
B9
100
AcDbSymbolTableRecord
100
AcDbLayerTableRecord
  2
画層107
 70
    0
 62
7
  6
CONTINUOUS
  0
LAYER
  5
BA
100
AcDbSymbolTableRecord
100
AcDbLayerTableRecord
  2
画層108
 70
    0
 62
7
  6
CONTINUOUS
  0
LAYER
  5
BB
100
AcDbSymbolTableRecord
100
AcDbLayerTableRecord
  2
画層109
 70
    0
 62
7
  6
CONTINUOUS
  0
LAYER
  5
BC
100
AcDbSymbolTableRecord
100
AcDbLayerTableRecord
  2
画層110
 70
    0
 62
7
  6
CONTINUOUS
  0
LAYER
  5
BD
100
AcDbSymbolTableRecord
100
AcDbLayerTableRecord
  2
画層111
 70
    0
 62
7
  6
CONTINUOUS
  0
LAYER
  5
BE
100
AcDbSymbolTableRecord
100
AcDbLayerTableRecord
  2
画層112
 70
    0
 62
7
  6
CONTINUOUS
  0
LAYER
  5
BF
100
AcDbSymbolTableRecord
100
AcDbLayerTableRecord
  2
画層113
 70
    0
 62
7
  6
CONTINUOUS
  0
LAYER
  5
C0
100
AcDbSymbolTableRecord
100
AcDbLayerTableRecord
  2
画層114
 70
    0
 62
7
  6
CONTINUOUS
  0
LAYER
  5
C1
100
AcDbSymbolTableRecord
100
AcDbLayerTableRecord
  2
画層115
 70
    0
 62
7
  6
CONTINUOUS
  0
LAYER
  5
C2
100
AcDbSymbolTableRecord
100
AcDbLayerTableRecord
  2
画層116
 70
    0
 62
7
  6
CONTINUOUS
  0
LAYER
  5
C3
100
AcDbSymbolTableRecord
100
AcDbLayerTableRecord
  2
画層117
 70
    0
 62
7
  6
CONTINUOUS
  0
LAYER
  5
C4
100
AcDbSymbolTableRecord
100
AcDbLayerTableRecord
  2
画層118
 70
    0
 62
7
  6
CONTINUOUS
  0
LAYER
  5
C5
100
AcDbSymbolTableRecord
100
AcDbLayerTableRecord
  2
画層119
 70
    0
 62
7
  6
CONTINUOUS
  0
LAYER
  5
C6
100
AcDbSymbolTableRecord
100
AcDbLayerTableRecord
  2
画層120
 70
    0
 62
7
  6
CONTINUOUS
  0
LAYER
  5
C7
100
AcDbSymbolTableRecord
100
AcDbLayerTableRecord
  2
画層121
 70
    0
 62
7
  6
CONTINUOUS
  0
LAYER
  5
C8
100
AcDbSymbolTableRecord
100
AcDbLayerTableRecord
  2
画層122
 70
    0
 62
7
  6
CONTINUOUS
  0
LAYER
  5
C9
100
AcDbSymbolTableRecord
100
AcDbLayerTableRecord
  2
画層123
 70
    0
 62
7
  6
CONTINUOUS
  0
LAYER
  5
CA
100
AcDbSymbolTableRecord
100
AcDbLayerTableRecord
  2
画層124
 70
    0
 62
7
  6
CONTINUOUS
  0
LAYER
  5
CB
100
AcDbSymbolTableRecord
100
AcDbLayerTableRecord
  2
画層125
 70
    0
 62
7
  6
CONTINUOUS
  0
LAYER
  5
CC
100
AcDbSymbolTableRecord
100
AcDbLayerTableRecord
  2
画層126
 70
    0
 62
7
  6
CONTINUOUS
  0
LAYER
  5
CD
100
AcDbSymbolTableRecord
100
AcDbLayerTableRecord
  2
画層127
 70
    0
 62
7
  6
CONTINUOUS
  0
LAYER
  5
CE
100
AcDbSymbolTableRecord
100
AcDbLayerTableRecord
  2
画層128
 70
    0
 62
7
  6
CONTINUOUS
  0
LAYER
  5
CF
100
AcDbSymbolTableRecord
100
AcDbLayerTableRecord
  2
画層129
 70
    0
 62
7
  6
CONTINUOUS
  0
LAYER
  5
D0
100
AcDbSymbolTableRecord
100
AcDbLayerTableRecord
  2
画層130
 70
    0
 62
7
  6
CONTINUOUS
  0
LAYER
  5
D1
100
AcDbSymbolTableRecord
100
AcDbLayerTableRecord
  2
画層131
 70
    0
 62
7
  6
CONTINUOUS
  0
LAYER
  5
D2
100
AcDbSymbolTableRecord
100
AcDbLayerTableRecord
  2
画層132
 70
    0
 62
7
  6
CONTINUOUS
  0
LAYER
  5
D3
100
AcDbSymbolTableRecord
100
AcDbLayerTableRecord
  2
画層133
 70
    0
 62
7
  6
CONTINUOUS
  0
LAYER
  5
D4
100
AcDbSymbolTableRecord
100
AcDbLayerTableRecord
  2
画層134
 70
    0
 62
7
  6
CONTINUOUS
  0
LAYER
  5
D5
100
AcDbSymbolTableRecord
100
AcDbLayerTableRecord
  2
画層135
 70
    0
 62
7
  6
CONTINUOUS
  0
LAYER
  5
D6
100
AcDbSymbolTableRecord
100
AcDbLayerTableRecord
  2
画層136
 70
    0
 62
7
  6
CONTINUOUS
  0
LAYER
  5
D7
100
AcDbSymbolTableRecord
100
AcDbLayerTableRecord
  2
画層137
 70
    0
 62
7
  6
CONTINUOUS
  0
LAYER
  5
D8
100
AcDbSymbolTableRecord
100
AcDbLayerTableRecord
  2
画層138
 70
    0
 62
7
  6
CONTINUOUS
  0
LAYER
  5
D9
100
AcDbSymbolTableRecord
100
AcDbLayerTableRecord
  2
画層139
 70
    0
 62
7
  6
CONTINUOUS
  0
LAYER
  5
DA
100
AcDbSymbolTableRecord
100
AcDbLayerTableRecord
  2
画層140
 70
    0
 62
7
  6
CONTINUOUS
  0
LAYER
  5
DB
100
AcDbSymbolTableRecord
100
AcDbLayerTableRecord
  2
画層141
 70
    0
 62
7
  6
CONTINUOUS
  0
LAYER
  5
DC
100
AcDbSymbolTableRecord
100
AcDbLayerTableRecord
  2
画層142
 70
    0
 62
7
  6
CONTINUOUS
  0
LAYER
  5
DD
100
AcDbSymbolTableRecord
100
AcDbLayerTableRecord
  2
画層143
 70
    0
 62
7
  6
CONTINUOUS
  0
LAYER
  5
DE
100
AcDbSymbolTableRecord
100
AcDbLayerTableRecord
  2
画層144
 70
    0
 62
7
  6
CONTINUOUS
  0
LAYER
  5
DF
100
AcDbSymbolTableRecord
100
AcDbLayerTableRecord
  2
画層145
 70
    0
 62
7
  6
CONTINUOUS
  0
LAYER
  5
E0
100
AcDbSymbolTableRecord
100
AcDbLayerTableRecord
  2
画層146
 70
    0
 62
7
  6
CONTINUOUS
  0
LAYER
  5
E1
100
AcDbSymbolTableRecord
100
AcDbLayerTableRecord
  2
画層147
 70
    0
 62
7
  6
CONTINUOUS
  0
LAYER
  5
E2
100
AcDbSymbolTableRecord
100
AcDbLayerTableRecord
  2
画層148
 70
    0
 62
7
  6
CONTINUOUS
  0
LAYER
  5
E3
100
AcDbSymbolTableRecord
100
AcDbLayerTableRecord
  2
画層149
 70
    0
 62
7
  6
CONTINUOUS
  0
LAYER
  5
E4
100
AcDbSymbolTableRecord
100
AcDbLayerTableRecord
  2
画層150
 70
    0
 62
7
  6
CONTINUOUS
  0
LAYER
  5
E5
100
AcDbSymbolTableRecord
100
AcDbLayerTableRecord
  2
画層151
 70
    0
 62
7
  6
CONTINUOUS
  0
LAYER
  5
E6
100
AcDbSymbolTableRecord
100
AcDbLayerTableRecord
  2
画層152
 70
    0
 62
7
  6
CONTINUOUS
  0
LAYER
  5
E7
100
AcDbSymbolTableRecord
100
AcDbLayerTableRecord
  2
画層153
 70
    0
 62
7
  6
CONTINUOUS
  0
LAYER
  5
E8
100
AcDbSymbolTableRecord
100
AcDbLayerTableRecord
  2
画層154
 70
    0
 62
7
  6
CONTINUOUS
  0
LAYER
  5
E9
100
AcDbSymbolTableRecord
100
AcDbLayerTableRecord
  2
画層155
 70
    0
 62
7
  6
CONTINUOUS
  0
LAYER
  5
EA
100
AcDbSymbolTableRecord
100
AcDbLayerTableRecord
  2
画層156
 70
    0
 62
7
  6
CONTINUOUS
  0
LAYER
  5
EB
100
AcDbSymbolTableRecord
100
AcDbLayerTableRecord
  2
画層157
 70
    0
 62
7
  6
CONTINUOUS
  0
LAYER
  5
EC
100
AcDbSymbolTableRecord
100
AcDbLayerTableRecord
  2
画層158
 70
    0
 62
7
  6
CONTINUOUS
  0
LAYER
  5
ED
100
AcDbSymbolTableRecord
100
AcDbLayerTableRecord
  2
画層159
 70
    0
 62
7
  6
CONTINUOUS
  0
LAYER
  5
EE
100
AcDbSymbolTableRecord
100
AcDbLayerTableRecord
  2
画層160
 70
    0
 62
7
  6
CONTINUOUS
  0
LAYER
  5
EF
100
AcDbSymbolTableRecord
100
AcDbLayerTableRecord
  2
画層161
 70
    0
 62
7
  6
CONTINUOUS
  0
LAYER
  5
F0
100
AcDbSymbolTableRecord
100
AcDbLayerTableRecord
  2
画層162
 70
    0
 62
7
  6
CONTINUOUS
  0
LAYER
  5
F1
100
AcDbSymbolTableRecord
100
AcDbLayerTableRecord
  2
画層163
 70
    0
 62
7
  6
CONTINUOUS
  0
LAYER
  5
F2
100
AcDbSymbolTableRecord
100
AcDbLayerTableRecord
  2
画層164
 70
    0
 62
7
  6
CONTINUOUS
  0
LAYER
  5
F3
100
AcDbSymbolTableRecord
100
AcDbLayerTableRecord
  2
画層165
 70
    0
 62
7
  6
CONTINUOUS
  0
LAYER
  5
F4
100
AcDbSymbolTableRecord
100
AcDbLayerTableRecord
  2
画層166
 70
    0
 62
7
  6
CONTINUOUS
  0
LAYER
  5
F5
100
AcDbSymbolTableRecord
100
AcDbLayerTableRecord
  2
画層167
 70
    0
 62
7
  6
CONTINUOUS
  0
LAYER
  5
F6
100
AcDbSymbolTableRecord
100
AcDbLayerTableRecord
  2
画層168
 70
    0
 62
7
  6
CONTINUOUS
  0
LAYER
  5
F7
100
AcDbSymbolTableRecord
100
AcDbLayerTableRecord
  2
画層169
 70
    0
 62
7
  6
CONTINUOUS
  0
LAYER
  5
F8
100
AcDbSymbolTableRecord
100
AcDbLayerTableRecord
  2
画層170
 70
    0
 62
7
  6
CONTINUOUS
  0
LAYER
  5
F9
100
AcDbSymbolTableRecord
100
AcDbLayerTableRecord
  2
画層171
 70
    0
 62
7
  6
CONTINUOUS
  0
LAYER
  5
FA
100
AcDbSymbolTableRecord
100
AcDbLayerTableRecord
  2
画層172
 70
    0
 62
7
  6
CONTINUOUS
  0
LAYER
  5
FB
100
AcDbSymbolTableRecord
100
AcDbLayerTableRecord
  2
画層173
 70
    0
 62
7
  6
CONTINUOUS
  0
LAYER
  5
FC
100
AcDbSymbolTableRecord
100
AcDbLayerTableRecord
  2
画層174
 70
    0
 62
7
  6
CONTINUOUS
  0
LAYER
  5
FD
100
AcDbSymbolTableRecord
100
AcDbLayerTableRecord
  2
画層175
 70
    0
 62
7
  6
CONTINUOUS
  0
LAYER
  5
FE
100
AcDbSymbolTableRecord
100
AcDbLayerTableRecord
  2
画層176
 70
    0
 62
7
  6
CONTINUOUS
  0
LAYER
  5
FF
100
AcDbSymbolTableRecord
100
AcDbLayerTableRecord
  2
画層177
 70
    0
 62
7
  6
CONTINUOUS
  0
LAYER
  5
100
100
AcDbSymbolTableRecord
100
AcDbLayerTableRecord
  2
画層178
 70
    0
 62
7
  6
CONTINUOUS
  0
LAYER
  5
101
100
AcDbSymbolTableRecord
100
AcDbLayerTableRecord
  2
画層179
 70
    0
 62
7
  6
CONTINUOUS
  0
LAYER
  5
102
100
AcDbSymbolTableRecord
100
AcDbLayerTableRecord
  2
画層180
 70
    0
 62
7
  6
CONTINUOUS
  0
LAYER
  5
103
100
AcDbSymbolTableRecord
100
AcDbLayerTableRecord
  2
画層181
 70
    0
 62
7
  6
CONTINUOUS
  0
LAYER
  5
104
100
AcDbSymbolTableRecord
100
AcDbLayerTableRecord
  2
画層182
 70
    0
 62
7
  6
CONTINUOUS
  0
LAYER
  5
105
100
AcDbSymbolTableRecord
100
AcDbLayerTableRecord
  2
画層183
 70
    0
 62
7
  6
CONTINUOUS
  0
LAYER
  5
106
100
AcDbSymbolTableRecord
100
AcDbLayerTableRecord
  2
画層184
 70
    0
 62
7
  6
CONTINUOUS
  0
LAYER
  5
107
100
AcDbSymbolTableRecord
100
AcDbLayerTableRecord
  2
画層185
 70
    0
 62
7
  6
CONTINUOUS
  0
LAYER
  5
108
100
AcDbSymbolTableRecord
100
AcDbLayerTableRecord
  2
画層186
 70
    0
 62
7
  6
CONTINUOUS
  0
LAYER
  5
109
100
AcDbSymbolTableRecord
100
AcDbLayerTableRecord
  2
画層187
 70
    0
 62
7
  6
CONTINUOUS
  0
LAYER
  5
10A
100
AcDbSymbolTableRecord
100
AcDbLayerTableRecord
  2
画層188
 70
    0
 62
7
  6
CONTINUOUS
  0
LAYER
  5
10B
100
AcDbSymbolTableRecord
100
AcDbLayerTableRecord
  2
画層189
 70
    0
 62
7
  6
CONTINUOUS
  0
LAYER
  5
10C
100
AcDbSymbolTableRecord
100
AcDbLayerTableRecord
  2
画層190
 70
    0
 62
7
  6
CONTINUOUS
  0
LAYER
  5
10D
100
AcDbSymbolTableRecord
100
AcDbLayerTableRecord
  2
画層191
 70
    0
 62
7
  6
CONTINUOUS
  0
LAYER
  5
10E
100
AcDbSymbolTableRecord
100
AcDbLayerTableRecord
  2
画層192
 70
    0
 62
7
  6
CONTINUOUS
  0
LAYER
  5
10F
100
AcDbSymbolTableRecord
100
AcDbLayerTableRecord
  2
画層193
 70
    0
 62
7
  6
CONTINUOUS
  0
LAYER
  5
110
100
AcDbSymbolTableRecord
100
AcDbLayerTableRecord
  2
画層194
 70
    0
 62
7
  6
CONTINUOUS
  0
LAYER
  5
111
100
AcDbSymbolTableRecord
100
AcDbLayerTableRecord
  2
画層195
 70
    0
 62
7
  6
CONTINUOUS
  0
LAYER
  5
112
100
AcDbSymbolTableRecord
100
AcDbLayerTableRecord
  2
画層196
 70
    0
 62
7
  6
CONTINUOUS
  0
LAYER
  5
113
100
AcDbSymbolTableRecord
100
AcDbLayerTableRecord
  2
画層197
 70
    0
 62
7
  6
CONTINUOUS
  0
LAYER
  5
114
100
AcDbSymbolTableRecord
100
AcDbLayerTableRecord
  2
画層198
 70
    0
 62
7
  6
CONTINUOUS
  0
LAYER
  5
115
100
AcDbSymbolTableRecord
100
AcDbLayerTableRecord
  2
画層199
 70
    0
 62
7
  6
CONTINUOUS
  0
LAYER
  5
116
100
AcDbSymbolTableRecord
100
AcDbLayerTableRecord
  2
画層200
 70
    0
 62
7
  6
CONTINUOUS
  0
LAYER
  5
117
100
AcDbSymbolTableRecord
100
AcDbLayerTableRecord
  2
画層201
 70
    0
 62
7
  6
CONTINUOUS
  0
LAYER
  5
118
100
AcDbSymbolTableRecord
100
AcDbLayerTableRecord
  2
画層202
 70
    0
 62
7
  6
CONTINUOUS
  0
LAYER
  5
119
100
AcDbSymbolTableRecord
100
AcDbLayerTableRecord
  2
画層203
 70
    0
 62
7
  6
CONTINUOUS
  0
LAYER
  5
11A
100
AcDbSymbolTableRecord
100
AcDbLayerTableRecord
  2
画層204
 70
    0
 62
7
  6
CONTINUOUS
  0
LAYER
  5
11B
100
AcDbSymbolTableRecord
100
AcDbLayerTableRecord
  2
画層205
 70
    0
 62
7
  6
CONTINUOUS
  0
LAYER
  5
11C
100
AcDbSymbolTableRecord
100
AcDbLayerTableRecord
  2
画層206
 70
    0
 62
7
  6
CONTINUOUS
  0
LAYER
  5
11D
100
AcDbSymbolTableRecord
100
AcDbLayerTableRecord
  2
画層207
 70
    0
 62
7
  6
CONTINUOUS
  0
LAYER
  5
11E
100
AcDbSymbolTableRecord
100
AcDbLayerTableRecord
  2
画層208
 70
    0
 62
7
  6
CONTINUOUS
  0
LAYER
  5
11F
100
AcDbSymbolTableRecord
100
AcDbLayerTableRecord
  2
画層209
 70
    0
 62
7
  6
CONTINUOUS
  0
LAYER
  5
120
100
AcDbSymbolTableRecord
100
AcDbLayerTableRecord
  2
画層210
 70
    0
 62
7
  6
CONTINUOUS
  0
LAYER
  5
121
100
AcDbSymbolTableRecord
100
AcDbLayerTableRecord
  2
画層211
 70
    0
 62
7
  6
CONTINUOUS
  0
LAYER
  5
122
100
AcDbSymbolTableRecord
100
AcDbLayerTableRecord
  2
画層212
 70
    0
 62
7
  6
CONTINUOUS
  0
LAYER
  5
123
100
AcDbSymbolTableRecord
100
AcDbLayerTableRecord
  2
画層213
 70
    0
 62
7
  6
CONTINUOUS
  0
LAYER
  5
124
100
AcDbSymbolTableRecord
100
AcDbLayerTableRecord
  2
画層214
 70
    0
 62
7
  6
CONTINUOUS
  0
LAYER
  5
125
100
AcDbSymbolTableRecord
100
AcDbLayerTableRecord
  2
画層215
 70
    0
 62
7
  6
CONTINUOUS
  0
LAYER
  5
126
100
AcDbSymbolTableRecord
100
AcDbLayerTableRecord
  2
画層216
 70
    0
 62
7
  6
CONTINUOUS
  0
LAYER
  5
127
100
AcDbSymbolTableRecord
100
AcDbLayerTableRecord
  2
画層217
 70
    0
 62
7
  6
CONTINUOUS
  0
LAYER
  5
128
100
AcDbSymbolTableRecord
100
AcDbLayerTableRecord
  2
画層218
 70
    0
 62
7
  6
CONTINUOUS
  0
LAYER
  5
129
100
AcDbSymbolTableRecord
100
AcDbLayerTableRecord
  2
画層219
 70
    0
 62
7
  6
CONTINUOUS
  0
LAYER
  5
12A
100
AcDbSymbolTableRecord
100
AcDbLayerTableRecord
  2
画層220
 70
    0
 62
7
  6
CONTINUOUS
  0
LAYER
  5
12B
100
AcDbSymbolTableRecord
100
AcDbLayerTableRecord
  2
画層221
 70
    0
 62
7
  6
CONTINUOUS
  0
LAYER
  5
12C
100
AcDbSymbolTableRecord
100
AcDbLayerTableRecord
  2
画層222
 70
    0
 62
7
  6
CONTINUOUS
  0
LAYER
  5
12D
100
AcDbSymbolTableRecord
100
AcDbLayerTableRecord
  2
画層223
 70
    0
 62
7
  6
CONTINUOUS
  0
LAYER
  5
12E
100
AcDbSymbolTableRecord
100
AcDbLayerTableRecord
  2
画層224
 70
    0
 62
7
  6
CONTINUOUS
  0
LAYER
  5
12F
100
AcDbSymbolTableRecord
100
AcDbLayerTableRecord
  2
画層225
 70
    0
 62
7
  6
CONTINUOUS
  0
LAYER
  5
130
100
AcDbSymbolTableRecord
100
AcDbLayerTableRecord
  2
画層226
 70
    0
 62
7
  6
CONTINUOUS
  0
LAYER
  5
131
100
AcDbSymbolTableRecord
100
AcDbLayerTableRecord
  2
画層227
 70
    0
 62
7
  6
CONTINUOUS
  0
LAYER
  5
132
100
AcDbSymbolTableRecord
100
AcDbLayerTableRecord
  2
画層228
 70
    0
 62
7
  6
CONTINUOUS
  0
LAYER
  5
133
100
AcDbSymbolTableRecord
100
AcDbLayerTableRecord
  2
画層229
 70
    0
 62
7
  6
CONTINUOUS
  0
LAYER
  5
134
100
AcDbSymbolTableRecord
100
AcDbLayerTableRecord
  2
画層230
 70
    0
 62
7
  6
CONTINUOUS
  0
LAYER
  5
135
100
AcDbSymbolTableRecord
100
AcDbLayerTableRecord
  2
画層231
 70
    0
 62
7
  6
CONTINUOUS
  0
LAYER
  5
136
100
AcDbSymbolTableRecord
100
AcDbLayerTableRecord
  2
画層232
 70
    0
 62
7
  6
CONTINUOUS
  0
LAYER
  5
137
100
AcDbSymbolTableRecord
100
AcDbLayerTableRecord
  2
画層233
 70
    0
 62
7
  6
CONTINUOUS
  0
LAYER
  5
138
100
AcDbSymbolTableRecord
100
AcDbLayerTableRecord
  2
画層234
 70
    0
 62
7
  6
CONTINUOUS
  0
LAYER
  5
139
100
AcDbSymbolTableRecord
100
AcDbLayerTableRecord
  2
画層235
 70
    0
 62
7
  6
CONTINUOUS
  0
LAYER
  5
13A
100
AcDbSymbolTableRecord
100
AcDbLayerTableRecord
  2
画層236
 70
    0
 62
7
  6
CONTINUOUS
  0
LAYER
  5
13B
100
AcDbSymbolTableRecord
100
AcDbLayerTableRecord
  2
画層237
 70
    0
 62
7
  6
CONTINUOUS
  0
LAYER
  5
13C
100
AcDbSymbolTableRecord
100
AcDbLayerTableRecord
  2
画層238
 70
    0
 62
7
  6
CONTINUOUS
  0
LAYER
  5
13D
100
AcDbSymbolTableRecord
100
AcDbLayerTableRecord
  2
画層239
 70
    0
 62
7
  6
CONTINUOUS
  0
LAYER
  5
13E
100
AcDbSymbolTableRecord
100
AcDbLayerTableRecord
  2
画層240
 70
    0
 62
7
  6
CONTINUOUS
  0
LAYER
  5
13F
100
AcDbSymbolTableRecord
100
AcDbLayerTableRecord
  2
画層241
 70
    0
 62
7
  6
CONTINUOUS
  0
LAYER
  5
140
100
AcDbSymbolTableRecord
100
AcDbLayerTableRecord
  2
画層242
 70
    0
 62
7
  6
CONTINUOUS
  0
LAYER
  5
141
100
AcDbSymbolTableRecord
100
AcDbLayerTableRecord
  2
画層243
 70
    0
 62
7
  6
CONTINUOUS
  0
LAYER
  5
142
100
AcDbSymbolTableRecord
100
AcDbLayerTableRecord
  2
画層244
 70
    0
 62
7
  6
CONTINUOUS
  0
LAYER
  5
143
100
AcDbSymbolTableRecord
100
AcDbLayerTableRecord
  2
画層245
 70
    0
 62
7
  6
CONTINUOUS
  0
LAYER
  5
144
100
AcDbSymbolTableRecord
100
AcDbLayerTableRecord
  2
画層246
 70
    0
 62
7
  6
CONTINUOUS
  0
LAYER
  5
145
100
AcDbSymbolTableRecord
100
AcDbLayerTableRecord
  2
画層247
 70
    0
 62
7
  6
CONTINUOUS
  0
LAYER
  5
146
100
AcDbSymbolTableRecord
100
AcDbLayerTableRecord
  2
画層248
 70
    0
 62
7
  6
CONTINUOUS
  0
LAYER
  5
147
100
AcDbSymbolTableRecord
100
AcDbLayerTableRecord
  2
画層249
 70
    0
 62
7
  6
CONTINUOUS
  0
LAYER
  5
148
100
AcDbSymbolTableRecord
100
AcDbLayerTableRecord
  2
画層250
 70
    0
 62
7
  6
CONTINUOUS
  0
LAYER
  5
149
100
AcDbSymbolTableRecord
100
AcDbLayerTableRecord
  2
画層251
 70
    0
 62
7
  6
CONTINUOUS
  0
LAYER
  5
14A
100
AcDbSymbolTableRecord
100
AcDbLayerTableRecord
  2
画層252
 70
    0
 62
7
  6
CONTINUOUS
  0
LAYER
  5
14B
100
AcDbSymbolTableRecord
100
AcDbLayerTableRecord
  2
画層253
 70
    0
 62
7
  6
CONTINUOUS
  0
LAYER
  5
14C
100
AcDbSymbolTableRecord
100
AcDbLayerTableRecord
  2
画層254
 70
    0
 62
7
  6
CONTINUOUS
  0
LAYER
  5
14D
100
AcDbSymbolTableRecord
100
AcDbLayerTableRecord
  2
画層255
 70
    0
 62
7
  6
CONTINUOUS
  0
ENDTAB
  0
TABLE
  2
STYLE
  5
4
100
AcDbSymbolTable
 70
     1
  0
STYLE
  5
14E
100
AcDbSymbolTableRecord
100
AcDbTextStyleTableRecord
  2
Standard
 70
     0
 40
0.0
 41
1.0
 50
0.0
 71
     0
 42
3.2
  3
TXT
  4
BIGFONT
  0
STYLE
  5
14F
100
AcDbSymbolTableRecord
100
AcDbTextStyleTableRecord
  2
Font_0
 70
     0
 40
0.0
 41
1.0
 50
0.0
 71
     0
 42
3.2
  3
MS Gothic.ttf
  4

1001
ACAD
1000
MS Gothic
1071
  32817
  0
STYLE
  5
150
100
AcDbSymbolTableRecord
100
AcDbTextStyleTableRecord
  2
Font_1
 70
     0
 40
0.0
 41
1.0
 50
0.0
 71
     0
 42
3.2
  3
MS Gothic.ttf
  4

1001
ACAD
1000
@MS Gothic
1071
  32817
  0
ENDTAB
  0
TABLE
  2
VIEW
  5
5
100
AcDbSymbolTable
 70
     0
  0
ENDTAB
  0
TABLE
  2
UCS
  5
6
100
AcDbSymbolTable
 70
     0
  0
ENDTAB
  0
TABLE
  2
APPID
  5
7
100
AcDbSymbolTable
 70
     1
  0
APPID
  5
151
100
AcDbSymbolTableRecord
100
AcDbRegAppTableRecord
  2
ACAD
 70
     0
  0
ENDTAB
  0
TABLE
  2
DIMSTYLE
  5
8
100
AcDbSymbolTable
 70
     1
  0
DIMSTYLE
105
2A
100
AcDbSymbolTableRecord
100
AcDbDimStyleTableRecord
  2
STANDARD
 70
     0
  3

  4

  5

  6

  7

 40
1.0
 41
2.5
 42
2.0
 43
7.0
 44
1.25
 45
0.0
 46
0.0
 47
0.0
 48
0.0
 71
     0
 72
     0
 73
     0
 74
     0
 75
     0
 76
     0
 77
     1
 78
     0
140
2.5
141
2.5
142
0.0
143
0.0394
144
1.0
145
0.0
146
1.0
147
1.0
170
     0
171
     2
172
     0
173
     0
174
     1
175
     0
176
     0
177
     0
178
     0
270
     2
271
     2
272
     4
273
     2
274
     2
275
     0
280
     0
281
     0
282
     0
283
     1
284
     0
285
     0
286
     0
287
     3
288
     0
  0
ENDTAB
  0
TABLE
  2
BLOCK_RECORD
  5
9
100
AcDbSymbolTable
 70
     0
  0
BLOCK_RECORD
  5
152
100
AcDbSymbolTableRecord
100
AcDbBlockTableRecord
  2
*MODEL_SPACE
  0
BLOCK_RECORD
  5
153
100
AcDbSymbolTableRecord
100
AcDbBlockTableRecord
  2
*PAPER_SPACE
  0
BLOCK_RECORD
  5
154
100
AcDbSymbolTableRecord
100
AcDbBlockTableRecord
  2
0
  0
BLOCK_RECORD
  5
155
100
AcDbSymbolTableRecord
100
AcDbBlockTableRecord
  2
A4
  0
BLOCK_RECORD
  5
156
100
AcDbSymbolTableRecord
100
AcDbBlockTableRecord
  2
NOTE
  0
BLOCK_RECORD
  5
157
100
AcDbSymbolTableRecord
100
AcDbBlockTableRecord
  2
BASE
  0
BLOCK_RECORD
  5
158
100
AcDbSymbolTableRecord
100
AcDbBlockTableRecord
  2
LIST
  0
BLOCK_RECORD
  5
159
100
AcDbSymbolTableRecord
100
AcDbBlockTableRecord
  2
A4ｹﾏｮﾘ
  0
BLOCK_RECORD
  5
15A
100
AcDbSymbolTableRecord
100
AcDbBlockTableRecord
  2
JAME
  0
BLOCK_RECORD
  5
15B
100
AcDbSymbolTableRecord
100
AcDbBlockTableRecord
  2
GENAXEH
  0
BLOCK_RECORD
  5
15C
100
AcDbSymbolTableRecord
100
AcDbBlockTableRecord
  2
A$C36D836D4
  0
BLOCK_RECORD
  5
15D
100
AcDbSymbolTableRecord
100
AcDbBlockTableRecord
  2
A$C520435C5
  0
BLOCK_RECORD
  5
15E
100
AcDbSymbolTableRecord
100
AcDbBlockTableRecord
  2
A$C60F9129D
  0
BLOCK_RECORD
  5
15F
100
AcDbSymbolTableRecord
100
AcDbBlockTableRecord
  2
A
  0
BLOCK_RECORD
  5
160
100
AcDbSymbolTableRecord
100
AcDbBlockTableRecord
  2
B
  0
BLOCK_RECORD
  5
161
100
AcDbSymbolTableRecord
100
AcDbBlockTableRecord
  2
C
  0
BLOCK_RECORD
  5
162
100
AcDbSymbolTableRecord
100
AcDbBlockTableRecord
  2
D
  0
BLOCK_RECORD
  5
163
100
AcDbSymbolTableRecord
100
AcDbBlockTableRecord
  2
A4ｹﾏｮﾘ_JAME_
  0
ENDTAB
  0
ENDSEC
  0
SECTION
  2
BLOCKS
  0
BLOCK
  5
165
100
AcDbEntity
  8
0
100
AcDbBlockBegin
2
*MODEL_SPACE
 70
     0
 10
0.0
 20
0.0
 30
0.0
  3
*MODEL_SPACE
  1

  0
ENDBLK
  5
166
100
AcDbEntity
  8
0
100
AcDbBlockEnd
  0
BLOCK
  5
167
100
AcDbEntity
 67
     1
  8
0
100
AcDbBlockBegin
  2
*PAPER_SPACE
 70
     0
 10
0.0
 20
0.0
 30
0.0
  3
*PAPER_SPACE
  1

  0
ENDBLK
  5
168
100
AcDbEntity
 67
     1
  8
0
100
AcDbBlockEnd
  0
BLOCK
  5
169
100
AcDbEntity
  8
0
100
AcDbBlockBegin
  2
0
 70
    0
 10
0
 20
0
 30
0.0
  3
0
  1

  0
LINE
  5
16A
100
AcDbEntity
  8
0
100
AcDbLine
  6
BYLAYER
 10
1
 20
1
 11
97.85
 21
1
  0
LINE
  5
16B
100
AcDbEntity
  8
0
100
AcDbLine
  6
BYLAYER
 10
1
 20
201
 11
1
 21
1
  0
LINE
  5
16C
100
AcDbEntity
  8
0
100
AcDbLine
  6
BYLAYER
 10
1
 20
1
 11
1
 21
35
  0
LINE
  5
16D
100
AcDbEntity
  8
0
100
AcDbLine
  6
BYLAYER
 10
1
 20
7
 11
290
 21
7
  0
LINE
  5
16E
100
AcDbEntity
  8
0
100
AcDbLine
  6
BYLAYER
 10
1
 20
13
 11
290
 21
13
  0
LINE
  5
16F
100
AcDbEntity
  8
0
100
AcDbLine
  6
BYLAYER
 10
97.85
 20
19
 11
290
 21
19
  0
LINE
  5
170
100
AcDbEntity
  8
0
100
AcDbLine
  6
BYLAYER
 10
98
 20
25
 11
290
 21
25
  0
LINE
  5
171
100
AcDbEntity
  8
0
100
AcDbLine
  6
BYLAYER
 10
98
 20
31
 11
290
 21
31
  0
LINE
  5
172
100
AcDbEntity
  8
0
100
AcDbLine
  6
BYLAYER
 10
214
 20
37
 11
214
 21
1
  0
LINE
  5
173
100
AcDbEntity
  8
0
100
AcDbLine
  6
BYLAYER
 10
233
 20
37
 11
233
 21
1
  0
LINE
  5
174
100
AcDbEntity
  8
0
100
AcDbLine
  6
BYLAYER
 10
196.025
 20
31
 11
196.025
 21
1
  0
LINE
  5
175
100
AcDbEntity
  8
0
100
AcDbLine
  6
BYLAYER
 10
196.025
 20
31
 11
290
 21
31
  0
LINE
  5
176
100
AcDbEntity
  8
0
100
AcDbLine
  6
BYLAYER
 10
196.025
 20
1
 11
290
 21
1
  0
LINE
  5
177
100
AcDbEntity
  8
0
100
AcDbLine
  6
BYLAYER
 10
196.15
 20
37
 11
196.15
 21
1
  0
LINE
  5
178
100
AcDbEntity
  8
0
100
AcDbLine
  6
BYLAYER
 10
195.85
 20
37
 11
195.85
 21
1
  0
LINE
  5
179
100
AcDbEntity
  8
0
100
AcDbLine
  6
BYLAYER
 10
98.15
 20
37
 11
98.15
 21
1
  0
LINE
  5
17A
100
AcDbEntity
  8
0
100
AcDbLine
  6
BYLAYER
 10
98.15
 20
31
 11
195.85
 21
31
  0
LINE
  5
17B
100
AcDbEntity
  8
0
100
AcDbLine
  6
BYLAYER
 10
98.15
 20
1
 11
195.85
 21
1
  0
LINE
  5
17C
100
AcDbEntity
  8
0
100
AcDbLine
  6
BYLAYER
 10
97.85
 20
37
 11
97.85
 21
1
  0
LINE
  5
17D
100
AcDbEntity
  8
0
100
AcDbLine
  6
BYLAYER
 10
145
 20
37
 11
145
 21
1
  0
LINE
  5
17E
100
AcDbEntity
  8
0
100
AcDbLine
  6
BYLAYER
 10
115
 20
37
 11
115
 21
1
  0
LINE
  5
17F
100
AcDbEntity
  8
0
100
AcDbLine
  6
BYLAYER
 10
164
 20
37
 11
164
 21
1
  0
LINE
  5
180
100
AcDbEntity
  8
0
100
AcDbLine
  6
BYLAYER
 10
49
 20
13
 11
49
 21
1
  0
LINE
  5
181
100
AcDbEntity
  8
0
100
AcDbLine
  6
BYLAYER
 10
14
 20
13
 11
14
 21
1
  0
LINE
  5
182
100
AcDbEntity
  8
0
100
AcDbLine
  6
BYLAYER
 10
63
 20
13
 11
63
 21
1
  0
TEXT
  5
183
100
AcDbEntity
  8
0
100
AcDbText
  6
BYLAYER
 10
3
 20
7.72940914028269
 40
3
  1
TEL
  7
Font_0
100
AcDbText
  0
TEXT
  5
184
100
AcDbEntity
  8
0
100
AcDbText
  6
BYLAYER
 10
51
 20
7.91176142535337
 40
3
  1
FAX
  7
Font_0
100
AcDbText
  0
TEXT
  5
185
100
AcDbEntity
  8
0
100
AcDbText
  6
BYLAYER
 10
16.5400336288223
 20
8.09411371042404
 40
3
  1
(04)3322627
  7
Font_0
100
AcDbText
  0
TEXT
  5
186
100
AcDbEntity
  8
0
100
AcDbText
  6
BYLAYER
 10
67
 20
8.09411371042404
 40
3
  1
(04)3322629
  7
Font_0
100
AcDbText
  0
LINE
  5
187
100
AcDbEntity
  8
0
100
AcDbLine
  6
BYLAYER
 10
1
 20
37
 11
290
 21
37
  0
TEXT
  5
188
100
AcDbEntity
  8
0
100
AcDbText
  6
BYLAYER
 10
40.6536662502908
 20
8.06055328395253
 40
3
  1
~8
  7
Font_0
100
AcDbText
  0
TEXT
  5
189
100
AcDbEntity
  8
0
100
AcDbText
  6
BYLAYER
 10
99.7036913346956
 20
32.2639399057443
 40
4
  1
･D ｺﾞ
  7
Font_0
100
AcDbText
  0
TEXT
  5
18A
100
AcDbEntity
  8
0
100
AcDbText
  6
BYLAYER
 10
99.7036913346956
 20
25.6992573518645
 40
4
  1
ｮﾖ ｹ�
  7
Font_0
100
AcDbText
  0
TEXT
  5
18B
100
AcDbEntity
  8
0
100
AcDbText
  6
BYLAYER
 10
99.8861871848885
 20
19.8639838602288
 40
4
  1
ﾃｸ ｹﾏ
  7
Font_0
100
AcDbText
  0
TEXT
  5
18C
100
AcDbEntity
  8
0
100
AcDbText
  6
BYLAYER
 10
99.8861871848885
 20
13.8463581030321
 40
4
  1
ｾ� ｺﾘ
  7
Font_0
100
AcDbText
  0
TEXT
  5
18D
100
AcDbEntity
  8
0
100
AcDbText
  6
BYLAYER
 10
100.068683035081
 20
7.82873284267693
 40
4
  1
ｫ~ ｦW
  7
Font_0
100
AcDbText
  0
TEXT
  5
18E
100
AcDbEntity
  8
0
100
AcDbText
  6
BYLAYER
 10
100.068683035081
 20
1.99345935104124
 40
4
  1
ｹﾏ ｸｹ
  7
Font_0
100
AcDbText
  0
TEXT
  5
18F
100
AcDbEntity
  8
0
100
AcDbText
  6
BYLAYER
 10
146.605123404095
 20
31.8992353746223
 40
4
  1
ｧ� ｽ�
  7
Font_0
100
AcDbText
  0
TEXT
  5
190
100
AcDbEntity
  8
0
100
AcDbText
  6
BYLAYER
 10
146.605123404095
 20
25.8816096174256
 40
4
  1
､� ｨﾒ
  7
Font_0
100
AcDbText
  0
TEXT
  5
191
100
AcDbEntity
  8
0
100
AcDbText
  6
BYLAYER
 10
146.787619254287
 20
20.0463361257899
 40
4
  1
ｼﾆ ｶq
  7
Font_0
100
AcDbText
  0
TEXT
  5
192
100
AcDbEntity
  8
0
100
AcDbText
  6
BYLAYER
 10
146.97011510448
 20
14.0287103685931
 40
4
  1
ｳ� ｦ�
  7
Font_0
100
AcDbText
  0
TEXT
  5
193
100
AcDbEntity
  8
0
100
AcDbText
  6
BYLAYER
 10
146.422627553902
 20
8.01108510823795
 40
4
  1
ｪ揵ｱｳBｲz
  7
Font_0
100
AcDbText
  0
TEXT
  5
194
100
AcDbEntity
  8
0
100
AcDbText
  6
BYLAYER
 10
146.605123404095
 20
2.17581161660226
 40
4
  1
ｻsｹﾏ､魘ﾁ
  7
Font_0
100
AcDbText
  0
TEXT
  5
195
100
AcDbEntity
  8
0
100
AcDbText
  6
BYLAYER
 10
197.77841370095
 20
32.2399819360484
 40
4
  1
､� ｴﾁ
  7
Font_0
100
AcDbText
  0
TEXT
  5
196
100
AcDbEntity
  8
0
100
AcDbText
  6
BYLAYER
 10
215.423238216157
 20
32.0275605512105
 40
4
  1
ｭt
  7
Font_0
100
AcDbText
  0
TEXT
  5
197
100
AcDbEntity
  8
0
100
AcDbText
  6
BYLAYER
 10
221.375709026727
 20
31.815139655317
 40
4
  1
ｳd
  7
Font_0
100
AcDbText
  0
TEXT
  5
198
100
AcDbEntity
  8
0
100
AcDbText
  6
BYLAYER
 10
227.328179837297
 20
31.815139655317
 40
4
  1
､H
  7
Font_0
100
AcDbText
  0
TEXT
  5
199
100
AcDbEntity
  8
0
100
AcDbText
  6
BYLAYER
 10
239.020533541933
 20
32.0275605512105
 40
4
  1
ｧ�
  7
Font_0
100
AcDbText
  0
TEXT
  5
19A
100
AcDbEntity
  8
0
100
AcDbText
  6
BYLAYER
 10
251.98841615305
 20
32.0275605512105
 40
4
  1
ｧ�
  7
Font_0
100
AcDbText
  0
TEXT
  5
19B
100
AcDbEntity
  8
0
100
AcDbText
  6
BYLAYER
 10
264.531122227431
 20
32.0275605512105
 40
4
  1
､ｺ
  7
Font_0
100
AcDbText
  0
TEXT
  5
19C
100
AcDbEntity
  8
0
100
AcDbText
  6
BYLAYER
 10
276.436064552298
 20
31.815139655317
 40
4
  1
ｮe
  7
Font_0
100
AcDbText
  0
TEXT
  5
19D
100
AcDbEntity
  8
0
100
AcDbText
  6
BYLAYER
 10
23.0468952754036
 20
24.3731292136772
 40
7
  1
ｫﾘｷﾔ､uｷ~ｪﾑ･ｳｭｭ､ｽ･q
  7
Font_0
100
AcDbText
  0
TEXT
  5
19E
100
AcDbEntity
  8
0
100
AcDbText
  6
BYLAYER
 10
22.2780828500217
 20
15.9228468305838
 40
3
  1
CHIEN YU INDUSTRIAL CO.,LTD.
  7
Font_0
100
AcDbText
  0
CIRCLE
  5
19F
100
AcDbEntity
  8
0
100
AcDbCircle
  6
BYLAYER
 10
11.1054905349494
 20
25.350263158651
 40
9.36463111331499
  0
CIRCLE
  5
1A0
100
AcDbEntity
  8
0
100
AcDbCircle
  6
BYLAYER
 10
11.1054905349494
 20
25.350263158651
 40
7.62237416200057
  0
ARC
  5
1A1
100
AcDbEntity
  8
0
100
AcDbCircle
  6
BYLAYER
 10
11.1054905349494
 20
25.350263158651
 40
4.41008790801462
100
AcDbArc
 50
90
 51
0
  0
LINE
  5
1A2
100
AcDbEntity
  8
0
100
AcDbLine
  6
BYLAYER
 10
11.1054905349494
 20
29.7603510666656
 11
16.2233703294355
 21
29.7603510666656
  0
LINE
  5
1A3
100
AcDbEntity
  8
0
100
AcDbLine
  6
BYLAYER
 10
15.515578442964
 20
25.350263158651
 11
16.4411524483498
 21
25.350263158651
  0
TEXT
  5
1A4
100
AcDbEntity
  8
0
100
AcDbText
  6
BYLAYER
 10
8.49210581170386
 20
22.8477388856442
 40
5
  1
Y
  7
Font_0
100
AcDbText
  0
ARC
  5
1A5
100
AcDbEntity
  8
0
100
AcDbCircle
  6
BYLAYER
 10
11.5745216067836
 20
33.8983997393573
 40
0.704372460813671
100
AcDbArc
 50
83.8529806316668
 51
239.250071636948
  0
ARC
  5
1A6
100
AcDbEntity
  8
0
100
AcDbCircle
  6
BYLAYER
 10
7.23761506796891
 20
32.9876821284788
 40
0.704372460813671
100
AcDbArc
 50
113.852980631667
 51
269.250071636948
  0
ARC
  5
1A7
100
AcDbEntity
  8
0
100
AcDbCircle
  6
BYLAYER
 10
3.93710263695578
 20
30.0305242723769
 40
0.704372460813671
100
AcDbArc
 50
143.852980631667
 51
299.250071636948
  0
ARC
  5
1A8
100
AcDbEntity
  8
0
100
AcDbCircle
  6
BYLAYER
 10
2.55735395424305
 20
25.8192942304852
 40
0.704372460813671
100
AcDbArc
 50
173.852980631667
 51
329.250071636948
  0
ARC
  5
1A9
100
AcDbEntity
  8
0
100
AcDbCircle
  6
BYLAYER
 10
3.46807156512152
 20
21.4823876916705
 40
0.704372460813671
100
AcDbArc
 50
203.852980631667
 51
359.250071636948
  0
ARC
  5
1AA
100
AcDbEntity
  8
0
100
AcDbCircle
  6
BYLAYER
 10
6.42522942122351
 20
18.1818752606574
 40
0.704372460813671
100
AcDbArc
 50
233.852980631667
 51
29.2500716369476
  0
ARC
  5
1AB
100
AcDbEntity
  8
0
100
AcDbCircle
  6
BYLAYER
 10
10.6364594631151
 20
16.8021265779447
 40
0.704372460813671
100
AcDbArc
 50
263.852980631667
 51
59.2500716369476
  0
ARC
  5
1AC
100
AcDbEntity
  8
0
100
AcDbCircle
  6
BYLAYER
 10
14.9733660019298
 20
17.7128441888231
 40
0.704372460813671
100
AcDbArc
 50
293.852980631667
 51
89.2500716369476
  0
ARC
  5
1AD
100
AcDbEntity
  8
0
100
AcDbCircle
  6
BYLAYER
 10
18.273878432943
 20
20.6700020449251
 40
0.704372460813671
100
AcDbArc
 50
323.852980631667
 51
119.250071636948
  0
ARC
  5
1AE
100
AcDbEntity
  8
0
100
AcDbCircle
  6
BYLAYER
 10
19.6536271156557
 20
24.8812320868167
 40
0.704372460813671
100
AcDbArc
 50
353.852980631667
 51
149.250071636948
  0
ARC
  5
1AF
100
AcDbEntity
  8
0
100
AcDbCircle
  6
BYLAYER
 10
18.7429095047772
 20
29.2181386256314
 40
0.704372460813671
100
AcDbArc
 50
23.8529806316668
 51
179.250071636948
  0
ARC
  5
1B0
100
AcDbEntity
  8
0
100
AcDbCircle
  6
BYLAYER
 10
15.7857516486752
 20
32.5186510566446
 40
0.704372460813671
100
AcDbArc
 50
53.8529806316668
 51
209.250071636948
  0
LINE
  5
1B1
100
AcDbEntity
  8
0
100
AcDbLine
  6
BYLAYER
 10
1
 20
201
 11
290
 21
201
  0
LINE
  5
1B2
100
AcDbEntity
  8
0
100
AcDbLine
  6
BYLAYER
 10
290
 20
201
 11
290
 21
1
  0
ENDBLK
  5
1B3
100
AcDbEntity
  8
0
 67
     1
100
AcDbBlockEnd
  0
BLOCK
  5
1B4
100
AcDbEntity
  8
0
100
AcDbBlockBegin
  2
A4
 70
    0
 10
0
 20
0
 30
0.0
  3
A4
  1

  0
TEXT
  5
1B5
100
AcDbEntity
  8
0
100
AcDbText
  6
BYLAYER
 10
121.243373757434
 20
22.64898098486
 40
4.8
  1
ｿ� ｪ｢ ｵo
  7
Font_0
100
AcDbText
  0
TEXT
  5
1B6
100
AcDbEntity
  8
0
100
AcDbText
  6
BYLAYER
 10
175.643149157513
 20
16.5268633951276
 40
4.8
  1
M/M
  7
Font_0
100
AcDbText
  0
INSERT
  5
1B7
100
AcDbEntity
  8
0
100
AcDbBlockReference
  6
CONTINUOUS
  2
0
 10
2.77414193339833
 20
3.05830958210858
 30
0.0
  0
ENDBLK
  5
1B8
100
AcDbEntity
  8
0
 67
     1
100
AcDbBlockEnd
  0
BLOCK
  5
1B9
100
AcDbEntity
  8
0
100
AcDbBlockBegin
  2
NOTE
 70
    0
 10
0
 20
0
 30
0.0
  3
NOTE
  1

  0
LINE
  5
1BA
100
AcDbEntity
  8
0
100
AcDbLine
  6
BYLAYER
 10
0
 20
48
 11
244.5
 21
48
  0
LINE
  5
1BB
100
AcDbEntity
  8
0
100
AcDbLine
  6
BYLAYER
 10
0
 20
42
 11
244.5
 21
42
  0
LINE
  5
1BC
100
AcDbEntity
  8
0
100
AcDbLine
  6
BYLAYER
 10
0
 20
36
 11
244.5
 21
36
  0
LINE
  5
1BD
100
AcDbEntity
  8
0
100
AcDbLine
  6
BYLAYER
 10
0
 20
30
 11
244.5
 21
30
  0
LINE
  5
1BE
100
AcDbEntity
  8
0
100
AcDbLine
  6
BYLAYER
 10
0
 20
24
 11
244.5
 21
24
  0
LINE
  5
1BF
100
AcDbEntity
  8
0
100
AcDbLine
  6
BYLAYER
 10
0
 20
18
 11
244.5
 21
18
  0
LINE
  5
1C0
100
AcDbEntity
  8
0
100
AcDbLine
  6
BYLAYER
 10
0
 20
12
 11
244.5
 21
12
  0
LINE
  5
1C1
100
AcDbEntity
  8
0
100
AcDbLine
  6
BYLAYER
 10
0
 20
6
 11
244.5
 21
6
  0
LINE
  5
1C2
100
AcDbEntity
  8
0
100
AcDbLine
  6
BYLAYER
 62
3
 10
196.307106781187
 20
0.707106781186553
 11
211.192893218814
 21
0.707106781186553
  0
LINE
  5
1C3
100
AcDbEntity
  8
0
100
AcDbLine
  6
BYLAYER
 62
3
 10
196.307106781187
 20
6.70710678118655
 11
211.192893218814
 21
6.70710678118655
  0
LINE
  5
1C4
100
AcDbEntity
  8
0
100
AcDbLine
  6
BYLAYER
 62
3
 10
196.307106781187
 20
12.7071067811866
 11
211.192893218814
 21
12.7071067811866
  0
LINE
  5
1C5
100
AcDbEntity
  8
0
100
AcDbLine
  6
BYLAYER
 62
3
 10
196.307106781187
 20
18.7071067811866
 11
211.192893218814
 21
18.7071067811866
  0
LINE
  5
1C6
100
AcDbEntity
  8
0
100
AcDbLine
  6
BYLAYER
 62
3
 10
196.307106781187
 20
24.7071067811866
 11
211.192893218814
 21
24.7071067811866
  0
LINE
  5
1C7
100
AcDbEntity
  8
0
100
AcDbLine
  6
BYLAYER
 62
3
 10
196.307106781187
 20
30.7071067811865
 11
211.192893218814
 21
30.7071067811865
  0
LINE
  5
1C8
100
AcDbEntity
  8
0
100
AcDbLine
  6
BYLAYER
 62
3
 10
196.307106781187
 20
36.7071067811866
 11
211.192893218814
 21
36.7071067811866
  0
LINE
  5
1C9
100
AcDbEntity
  8
0
100
AcDbLine
  6
BYLAYER
 62
3
 10
65.9071067811866
 20
0.707106781186553
 11
80.7928932188135
 21
0.707106781186553
  0
LINE
  5
1CA
100
AcDbEntity
  8
0
100
AcDbLine
  6
BYLAYER
 62
3
 10
65.9071067811866
 20
6.70710678118655
 11
80.7928932188135
 21
6.70710678118655
  0
LINE
  5
1CB
100
AcDbEntity
  8
0
100
AcDbLine
  6
BYLAYER
 62
3
 10
65.9071067811866
 20
12.7071067811866
 11
80.7928932188135
 21
12.7071067811866
  0
LINE
  5
1CC
100
AcDbEntity
  8
0
100
AcDbLine
  6
BYLAYER
 62
3
 10
65.9071067811866
 20
18.7071067811866
 11
80.7928932188135
 21
18.7071067811866
  0
LINE
  5
1CD
100
AcDbEntity
  8
0
100
AcDbLine
  6
BYLAYER
 62
3
 10
65.9071067811866
 20
24.7071067811866
 11
80.7928932188135
 21
24.7071067811866
  0
LINE
  5
1CE
100
AcDbEntity
  8
0
100
AcDbLine
  6
BYLAYER
 62
3
 10
65.9071067811866
 20
30.7071067811865
 11
80.7928932188135
 21
30.7071067811865
  0
LINE
  5
1CF
100
AcDbEntity
  8
0
100
AcDbLine
  6
BYLAYER
 62
3
 10
65.9071067811866
 20
36.7071067811866
 11
80.7928932188135
 21
36.7071067811866
  0
LINE
  5
1D0
100
AcDbEntity
  8
0
100
AcDbLine
  6
BYLAYER
 10
65.2
 20
48
 11
65.2
 21
0
  0
LINE
  5
1D1
100
AcDbEntity
  8
0
100
AcDbLine
  6
BYLAYER
 10
32.6
 20
48
 11
32.6
 21
0
  0
LINE
  5
1D2
100
AcDbEntity
  8
0
100
AcDbLine
  6
BYLAYER
 10
16.3
 20
48
 11
16.3
 21
0
  0
LINE
  5
1D3
100
AcDbEntity
  8
0
100
AcDbLine
  6
BYLAYER
 10
48.9
 20
48
 11
48.9
 21
0
  0
LINE
  5
1D4
100
AcDbEntity
  8
0
100
AcDbLine
  6
BYLAYER
 62
3
 10
0.707106781186548
 20
0.707106781186553
 11
15.5928932188134
 21
0.707106781186553
  0
LINE
  5
1D5
100
AcDbEntity
  8
0
100
AcDbLine
  6
BYLAYER
 62
3
 10
0.707106781186548
 20
6.70710678118655
 11
15.5928932188134
 21
6.70710678118655
  0
LINE
  5
1D6
100
AcDbEntity
  8
0
100
AcDbLine
  6
BYLAYER
 62
3
 10
0.707106781186548
 20
12.7071067811866
 11
15.5928932188134
 21
12.7071067811866
  0
LINE
  5
1D7
100
AcDbEntity
  8
0
100
AcDbLine
  6
BYLAYER
 62
3
 10
0.707106781186548
 20
18.7071067811866
 11
15.5928932188134
 21
18.7071067811866
  0
LINE
  5
1D8
100
AcDbEntity
  8
0
100
AcDbLine
  6
BYLAYER
 62
3
 10
33.3071067811865
 20
0.707106781186553
 11
48.1928932188135
 21
0.707106781186553
  0
LINE
  5
1D9
100
AcDbEntity
  8
0
100
AcDbLine
  6
BYLAYER
 62
3
 10
33.3071067811865
 20
6.70710678118655
 11
48.1928932188135
 21
6.70710678118655
  0
LINE
  5
1DA
100
AcDbEntity
  8
0
100
AcDbLine
  6
BYLAYER
 62
3
 10
33.3071067811865
 20
12.7071067811866
 11
48.1928932188135
 21
12.7071067811866
  0
LINE
  5
1DB
100
AcDbEntity
  8
0
100
AcDbLine
  6
BYLAYER
 62
3
 10
33.3071067811865
 20
18.7071067811866
 11
48.1928932188135
 21
18.7071067811866
  0
LINE
  5
1DC
100
AcDbEntity
  8
0
100
AcDbLine
  6
BYLAYER
 62
3
 10
17.0071067811865
 20
0.707106781186553
 11
31.8928932188135
 21
0.707106781186553
  0
LINE
  5
1DD
100
AcDbEntity
  8
0
100
AcDbLine
  6
BYLAYER
 62
3
 10
17.0071067811865
 20
6.70710678118655
 11
31.8928932188135
 21
6.70710678118655
  0
LINE
  5
1DE
100
AcDbEntity
  8
0
100
AcDbLine
  6
BYLAYER
 62
3
 10
17.0071067811865
 20
12.7071067811866
 11
31.8928932188135
 21
12.7071067811866
  0
LINE
  5
1DF
100
AcDbEntity
  8
0
100
AcDbLine
  6
BYLAYER
 62
3
 10
17.0071067811865
 20
18.7071067811866
 11
31.8928932188135
 21
18.7071067811866
  0
LINE
  5
1E0
100
AcDbEntity
  8
0
100
AcDbLine
  6
BYLAYER
 62
3
 10
49.6071067811866
 20
0.707106781186553
 11
64.4928932188135
 21
0.707106781186553
  0
LINE
  5
1E1
100
AcDbEntity
  8
0
100
AcDbLine
  6
BYLAYER
 62
3
 10
49.6071067811866
 20
6.70710678118655
 11
64.4928932188135
 21
6.70710678118655
  0
LINE
  5
1E2
100
AcDbEntity
  8
0
100
AcDbLine
  6
BYLAYER
 62
3
 10
49.6071067811866
 20
12.7071067811866
 11
64.4928932188135
 21
12.7071067811866
  0
LINE
  5
1E3
100
AcDbEntity
  8
0
100
AcDbLine
  6
BYLAYER
 62
3
 10
49.6071067811866
 20
18.7071067811866
 11
64.4928932188135
 21
18.7071067811866
  0
LINE
  5
1E4
100
AcDbEntity
  8
0
100
AcDbLine
  6
BYLAYER
 62
3
 10
0.707106781186548
 20
24.7071067811866
 11
15.5928932188134
 21
24.7071067811866
  0
LINE
  5
1E5
100
AcDbEntity
  8
0
100
AcDbLine
  6
BYLAYER
 62
3
 10
0.707106781186548
 20
30.7071067811865
 11
15.5928932188134
 21
30.7071067811865
  0
LINE
  5
1E6
100
AcDbEntity
  8
0
100
AcDbLine
  6
BYLAYER
 62
3
 10
0.707106781186548
 20
36.7071067811866
 11
15.5928932188134
 21
36.7071067811866
  0
TEXT
  5
1E7
100
AcDbEntity
  8
0
100
AcDbText
  6
BYLAYER
 10
5.67126064773777
 20
43.5
 40
3
  1
､u･O
  7
Font_0
100
AcDbText
  0
LINE
  5
1E8
100
AcDbEntity
  8
0
100
AcDbLine
  6
BYLAYER
 62
3
 10
33.3071067811865
 20
24.7071067811866
 11
48.1928932188135
 21
24.7071067811866
  0
LINE
  5
1E9
100
AcDbEntity
  8
0
100
AcDbLine
  6
BYLAYER
 62
3
 10
33.3071067811865
 20
30.7071067811865
 11
48.1928932188135
 21
30.7071067811865
  0
LINE
  5
1EA
100
AcDbEntity
  8
0
100
AcDbLine
  6
BYLAYER
 62
3
 10
33.3071067811865
 20
36.7071067811866
 11
48.1928932188135
 21
36.7071067811866
  0
LINE
  5
1EB
100
AcDbEntity
  8
0
100
AcDbLine
  6
BYLAYER
 62
3
 10
17.0071067811865
 20
24.7071067811866
 11
31.8928932188135
 21
24.7071067811866
  0
LINE
  5
1EC
100
AcDbEntity
  8
0
100
AcDbLine
  6
BYLAYER
 62
3
 10
17.0071067811865
 20
30.7071067811865
 11
31.8928932188135
 21
30.7071067811865
  0
LINE
  5
1ED
100
AcDbEntity
  8
0
100
AcDbLine
  6
BYLAYER
 62
3
 10
17.0071067811865
 20
36.7071067811866
 11
31.8928932188135
 21
36.7071067811866
  0
TEXT
  5
1EE
100
AcDbEntity
  8
0
100
AcDbText
  6
BYLAYER
 10
21.3781148184937
 20
43.5
 40
3
  1
ｽsｸｹ
  7
Font_0
100
AcDbText
  0
TEXT
  5
1EF
100
AcDbEntity
  8
0
100
AcDbText
  6
BYLAYER
 10
39.5
 20
43.5
 40
3
  1
A
  7
Font_0
100
AcDbText
  0
LINE
  5
1F0
100
AcDbEntity
  8
0
100
AcDbLine
  6
BYLAYER
 62
3
 10
49.6071067811866
 20
24.7071067811866
 11
64.4928932188135
 21
24.7071067811866
  0
LINE
  5
1F1
100
AcDbEntity
  8
0
100
AcDbLine
  6
BYLAYER
 62
3
 10
49.6071067811866
 20
30.7071067811865
 11
64.4928932188135
 21
30.7071067811865
  0
LINE
  5
1F2
100
AcDbEntity
  8
0
100
AcDbLine
  6
BYLAYER
 62
3
 10
49.6071067811866
 20
36.7071067811866
 11
64.4928932188135
 21
36.7071067811866
  0
TEXT
  5
1F3
100
AcDbEntity
  8
0
100
AcDbText
  6
BYLAYER
 10
56
 20
43.5
 40
3
  1
B
  7
Font_0
100
AcDbText
  0
TEXT
  5
1F4
100
AcDbEntity
  8
0
100
AcDbText
  6
BYLAYER
 10
72.5
 20
43.5
 40
3
  1
C
  7
Font_0
100
AcDbText
  0
LINE
  5
1F5
100
AcDbEntity
  8
0
100
AcDbLine
  6
BYLAYER
 10
163
 20
48
 11
163
 21
0
  0
LINE
  5
1F6
100
AcDbEntity
  8
0
100
AcDbLine
  6
BYLAYER
 10
146.7
 20
48
 11
146.7
 21
0
  0
LINE
  5
1F7
100
AcDbEntity
  8
0
100
AcDbLine
  6
BYLAYER
 10
179.3
 20
48
 11
179.3
 21
0
  0
LINE
  5
1F8
100
AcDbEntity
  8
0
100
AcDbLine
  6
BYLAYER
 10
195.6
 20
48
 11
195.6
 21
0
  0
LINE
  5
1F9
100
AcDbEntity
  8
0
100
AcDbLine
  6
BYLAYER
 10
81.5
 20
48
 11
81.5
 21
0
  0
LINE
  5
1FA
100
AcDbEntity
  8
0
100
AcDbLine
  6
BYLAYER
 10
114.1
 20
48
 11
114.1
 21
0
  0
LINE
  5
1FB
100
AcDbEntity
  8
0
100
AcDbLine
  6
BYLAYER
 10
97.8
 20
48
 11
97.8
 21
0
  0
LINE
  5
1FC
100
AcDbEntity
  8
0
100
AcDbLine
  6
BYLAYER
 10
130.4
 20
48
 11
130.4
 21
0
  0
LINE
  5
1FD
100
AcDbEntity
  8
0
100
AcDbLine
  6
BYLAYER
 62
3
 10
131.107106781186
 20
0.707106781186553
 11
145.992893218813
 21
0.707106781186553
  0
LINE
  5
1FE
100
AcDbEntity
  8
0
100
AcDbLine
  6
BYLAYER
 62
3
 10
131.107106781186
 20
6.70710678118655
 11
145.992893218813
 21
6.70710678118655
  0
LINE
  5
1FF
100
AcDbEntity
  8
0
100
AcDbLine
  6
BYLAYER
 62
3
 10
131.107106781186
 20
12.7071067811866
 11
145.992893218813
 21
12.7071067811866
  0
LINE
  5
200
100
AcDbEntity
  8
0
100
AcDbLine
  6
BYLAYER
 62
3
 10
131.107106781186
 20
18.7071067811866
 11
145.992893218813
 21
18.7071067811866
  0
LINE
  5
201
100
AcDbEntity
  8
0
100
AcDbLine
  6
BYLAYER
 62
3
 10
98.5071067811866
 20
0.707106781186553
 11
113.392893218813
 21
0.707106781186553
  0
LINE
  5
202
100
AcDbEntity
  8
0
100
AcDbLine
  6
BYLAYER
 62
3
 10
98.5071067811866
 20
6.70710678118655
 11
113.392893218813
 21
6.70710678118655
  0
LINE
  5
203
100
AcDbEntity
  8
0
100
AcDbLine
  6
BYLAYER
 62
3
 10
98.5071067811866
 20
12.7071067811866
 11
113.392893218813
 21
12.7071067811866
  0
LINE
  5
204
100
AcDbEntity
  8
0
100
AcDbLine
  6
BYLAYER
 62
3
 10
98.5071067811866
 20
18.7071067811866
 11
113.392893218813
 21
18.7071067811866
  0
LINE
  5
205
100
AcDbEntity
  8
0
100
AcDbLine
  6
BYLAYER
 62
3
 10
82.2071067811865
 20
0.707106781186553
 11
97.0928932188135
 21
0.707106781186553
  0
LINE
  5
206
100
AcDbEntity
  8
0
100
AcDbLine
  6
BYLAYER
 62
3
 10
82.2071067811865
 20
6.70710678118655
 11
97.0928932188135
 21
6.70710678118655
  0
LINE
  5
207
100
AcDbEntity
  8
0
100
AcDbLine
  6
BYLAYER
 62
3
 10
82.2071067811865
 20
12.7071067811866
 11
97.0928932188135
 21
12.7071067811866
  0
LINE
  5
208
100
AcDbEntity
  8
0
100
AcDbLine
  6
BYLAYER
 62
3
 10
82.2071067811865
 20
18.7071067811866
 11
97.0928932188135
 21
18.7071067811866
  0
LINE
  5
209
100
AcDbEntity
  8
0
100
AcDbLine
  6
BYLAYER
 62
3
 10
114.807106781187
 20
0.707106781186553
 11
129.692893218813
 21
0.707106781186553
  0
LINE
  5
20A
100
AcDbEntity
  8
0
100
AcDbLine
  6
BYLAYER
 62
3
 10
114.807106781187
 20
6.70710678118655
 11
129.692893218813
 21
6.70710678118655
  0
LINE
  5
20B
100
AcDbEntity
  8
0
100
AcDbLine
  6
BYLAYER
 62
3
 10
114.807106781187
 20
12.7071067811866
 11
129.692893218813
 21
12.7071067811866
  0
LINE
  5
20C
100
AcDbEntity
  8
0
100
AcDbLine
  6
BYLAYER
 62
3
 10
114.807106781187
 20
18.7071067811866
 11
129.692893218813
 21
18.7071067811866
  0
LINE
  5
20D
100
AcDbEntity
  8
0
100
AcDbLine
  6
BYLAYER
 62
3
 10
163.707106781186
 20
0.707106781186553
 11
178.592893218813
 21
0.707106781186553
  0
LINE
  5
20E
100
AcDbEntity
  8
0
100
AcDbLine
  6
BYLAYER
 62
3
 10
163.707106781186
 20
6.70710678118655
 11
178.592893218813
 21
6.70710678118655
  0
LINE
  5
20F
100
AcDbEntity
  8
0
100
AcDbLine
  6
BYLAYER
 62
3
 10
163.707106781186
 20
12.7071067811866
 11
178.592893218813
 21
12.7071067811866
  0
LINE
  5
210
100
AcDbEntity
  8
0
100
AcDbLine
  6
BYLAYER
 62
3
 10
163.707106781186
 20
18.7071067811866
 11
178.592893218813
 21
18.7071067811866
  0
LINE
  5
211
100
AcDbEntity
  8
0
100
AcDbLine
  6
BYLAYER
 62
3
 10
147.407106781187
 20
0.707106781186553
 11
162.292893218814
 21
0.707106781186553
  0
LINE
  5
212
100
AcDbEntity
  8
0
100
AcDbLine
  6
BYLAYER
 62
3
 10
147.407106781187
 20
6.70710678118655
 11
162.292893218814
 21
6.70710678118655
  0
LINE
  5
213
100
AcDbEntity
  8
0
100
AcDbLine
  6
BYLAYER
 62
3
 10
147.407106781187
 20
12.7071067811866
 11
162.292893218814
 21
12.7071067811866
  0
LINE
  5
214
100
AcDbEntity
  8
0
100
AcDbLine
  6
BYLAYER
 62
3
 10
147.407106781187
 20
18.7071067811866
 11
162.292893218814
 21
18.7071067811866
  0
LINE
  5
215
100
AcDbEntity
  8
0
100
AcDbLine
  6
BYLAYER
 62
3
 10
180.007106781186
 20
0.707106781186553
 11
194.892893218813
 21
0.707106781186553
  0
LINE
  5
216
100
AcDbEntity
  8
0
100
AcDbLine
  6
BYLAYER
 62
3
 10
180.007106781186
 20
6.70710678118655
 11
194.892893218813
 21
6.70710678118655
  0
LINE
  5
217
100
AcDbEntity
  8
0
100
AcDbLine
  6
BYLAYER
 62
3
 10
180.007106781186
 20
12.7071067811866
 11
194.892893218813
 21
12.7071067811866
  0
LINE
  5
218
100
AcDbEntity
  8
0
100
AcDbLine
  6
BYLAYER
 62
3
 10
180.007106781186
 20
18.7071067811866
 11
194.892893218813
 21
18.7071067811866
  0
LINE
  5
219
100
AcDbEntity
  8
0
100
AcDbLine
  6
BYLAYER
 62
3
 10
131.107106781186
 20
24.7071067811866
 11
145.992893218813
 21
24.7071067811866
  0
LINE
  5
21A
100
AcDbEntity
  8
0
100
AcDbLine
  6
BYLAYER
 62
3
 10
131.107106781186
 20
30.7071067811865
 11
145.992893218813
 21
30.7071067811865
  0
LINE
  5
21B
100
AcDbEntity
  8
0
100
AcDbLine
  6
BYLAYER
 62
3
 10
131.107106781186
 20
36.7071067811866
 11
145.992893218813
 21
36.7071067811866
  0
LINE
  5
21C
100
AcDbEntity
  8
0
100
AcDbLine
  6
BYLAYER
 62
3
 10
98.5071067811866
 20
24.7071067811866
 11
113.392893218813
 21
24.7071067811866
  0
LINE
  5
21D
100
AcDbEntity
  8
0
100
AcDbLine
  6
BYLAYER
 62
3
 10
98.5071067811866
 20
30.7071067811865
 11
113.392893218813
 21
30.7071067811865
  0
LINE
  5
21E
100
AcDbEntity
  8
0
100
AcDbLine
  6
BYLAYER
 62
3
 10
98.5071067811866
 20
36.7071067811866
 11
113.392893218813
 21
36.7071067811866
  0
LINE
  5
21F
100
AcDbEntity
  8
0
100
AcDbLine
  6
BYLAYER
 62
3
 10
82.2071067811865
 20
24.7071067811866
 11
97.0928932188135
 21
24.7071067811866
  0
LINE
  5
220
100
AcDbEntity
  8
0
100
AcDbLine
  6
BYLAYER
 62
3
 10
82.2071067811865
 20
30.7071067811865
 11
97.0928932188135
 21
30.7071067811865
  0
LINE
  5
221
100
AcDbEntity
  8
0
100
AcDbLine
  6
BYLAYER
 62
3
 10
82.2071067811865
 20
36.7071067811866
 11
97.0928932188135
 21
36.7071067811866
  0
TEXT
  5
222
100
AcDbEntity
  8
0
100
AcDbText
  6
BYLAYER
 10
89
 20
43.5
 40
3
  1
D
  7
Font_0
100
AcDbText
  0
TEXT
  5
223
100
AcDbEntity
  8
0
100
AcDbText
  6
BYLAYER
 10
105.3
 20
43.5
 40
3
  1
E
  7
Font_0
100
AcDbText
  0
LINE
  5
224
100
AcDbEntity
  8
0
100
AcDbLine
  6
BYLAYER
 62
3
 10
114.807106781187
 20
24.7071067811866
 11
129.692893218813
 21
24.7071067811866
  0
LINE
  5
225
100
AcDbEntity
  8
0
100
AcDbLine
  6
BYLAYER
 62
3
 10
114.807106781187
 20
30.7071067811865
 11
129.692893218813
 21
30.7071067811865
  0
LINE
  5
226
100
AcDbEntity
  8
0
100
AcDbLine
  6
BYLAYER
 62
3
 10
114.807106781187
 20
36.7071067811866
 11
129.692893218813
 21
36.7071067811866
  0
TEXT
  5
227
100
AcDbEntity
  8
0
100
AcDbText
  6
BYLAYER
 10
121.8
 20
43.5
 40
3
  1
F
  7
Font_0
100
AcDbText
  0
TEXT
  5
228
100
AcDbEntity
  8
0
100
AcDbText
  6
BYLAYER
 10
137.8
 20
43.5
 40
3
  1
G
  7
Font_0
100
AcDbText
  0
LINE
  5
229
100
AcDbEntity
  8
0
100
AcDbLine
  6
BYLAYER
 62
3
 10
163.707106781186
 20
24.7071067811866
 11
178.592893218813
 21
24.7071067811866
  0
LINE
  5
22A
100
AcDbEntity
  8
0
100
AcDbLine
  6
BYLAYER
 62
3
 10
163.707106781186
 20
30.7071067811865
 11
178.592893218813
 21
30.7071067811865
  0
LINE
  5
22B
100
AcDbEntity
  8
0
100
AcDbLine
  6
BYLAYER
 62
3
 10
163.707106781186
 20
36.7071067811866
 11
178.592893218813
 21
36.7071067811866
  0
LINE
  5
22C
100
AcDbEntity
  8
0
100
AcDbLine
  6
BYLAYER
 62
3
 10
147.407106781187
 20
24.7071067811866
 11
162.292893218814
 21
24.7071067811866
  0
LINE
  5
22D
100
AcDbEntity
  8
0
100
AcDbLine
  6
BYLAYER
 62
3
 10
147.407106781187
 20
30.7071067811865
 11
162.292893218814
 21
30.7071067811865
  0
LINE
  5
22E
100
AcDbEntity
  8
0
100
AcDbLine
  6
BYLAYER
 62
3
 10
147.407106781187
 20
36.7071067811866
 11
162.292893218814
 21
36.7071067811866
  0
TEXT
  5
22F
100
AcDbEntity
  8
0
100
AcDbText
  6
BYLAYER
 10
153.5
 20
43.5
 40
3
  1
H
  7
Font_0
100
AcDbText
  0
TEXT
  5
230
100
AcDbEntity
  8
0
100
AcDbText
  6
BYLAYER
 10
171.5
 20
43.5
 40
3
  1
I
  7
Font_0
100
AcDbText
  0
LINE
  5
231
100
AcDbEntity
  8
0
100
AcDbLine
  6
BYLAYER
 62
3
 10
180.007106781186
 20
24.7071067811866
 11
194.892893218813
 21
24.7071067811866
  0
LINE
  5
232
100
AcDbEntity
  8
0
100
AcDbLine
  6
BYLAYER
 62
3
 10
180.007106781186
 20
30.7071067811865
 11
194.892893218813
 21
30.7071067811865
  0
LINE
  5
233
100
AcDbEntity
  8
0
100
AcDbLine
  6
BYLAYER
 62
3
 10
180.007106781186
 20
36.7071067811866
 11
194.892893218813
 21
36.7071067811866
  0
TEXT
  5
234
100
AcDbEntity
  8
0
100
AcDbText
  6
BYLAYER
 10
186.6
 20
43.5
 40
3
  1
J
  7
Font_0
100
AcDbText
  0
TEXT
  5
235
100
AcDbEntity
  8
0
100
AcDbText
  6
BYLAYER
 10
202.5
 20
43.5
 40
3
  1
K
  7
Font_0
100
AcDbText
  0
LINE
  5
236
100
AcDbEntity
  8
0
100
AcDbLine
  6
BYLAYER
 10
244.5
 20
48
 11
244.5
 21
0
  0
LINE
  5
237
100
AcDbEntity
  8
0
100
AcDbLine
  6
BYLAYER
 10
211.9
 20
48
 11
211.9
 21
0
  0
LINE
  5
238
100
AcDbEntity
  8
0
100
AcDbLine
  6
BYLAYER
 10
228.2
 20
48
 11
228.2
 21
0
  0
LINE
  5
239
100
AcDbEntity
  8
0
100
AcDbLine
  6
BYLAYER
 62
3
 10
228.907106781187
 20
0.707106781186553
 11
243.792893218814
 21
0.707106781186553
  0
LINE
  5
23A
100
AcDbEntity
  8
0
100
AcDbLine
  6
BYLAYER
 62
3
 10
228.907106781187
 20
6.70710678118655
 11
243.792893218814
 21
6.70710678118655
  0
LINE
  5
23B
100
AcDbEntity
  8
0
100
AcDbLine
  6
BYLAYER
 62
3
 10
228.907106781187
 20
12.7071067811866
 11
243.792893218814
 21
12.7071067811866
  0
LINE
  5
23C
100
AcDbEntity
  8
0
100
AcDbLine
  6
BYLAYER
 62
3
 10
228.907106781187
 20
18.7071067811866
 11
243.792893218814
 21
18.7071067811866
  0
LINE
  5
23D
100
AcDbEntity
  8
0
100
AcDbLine
  6
BYLAYER
 62
3
 10
212.607106781186
 20
0.707106781186553
 11
227.492893218814
 21
0.707106781186553
  0
LINE
  5
23E
100
AcDbEntity
  8
0
100
AcDbLine
  6
BYLAYER
 62
3
 10
212.607106781186
 20
6.70710678118655
 11
227.492893218814
 21
6.70710678118655
  0
LINE
  5
23F
100
AcDbEntity
  8
0
100
AcDbLine
  6
BYLAYER
 62
3
 10
212.607106781186
 20
12.7071067811866
 11
227.492893218814
 21
12.7071067811866
  0
LINE
  5
240
100
AcDbEntity
  8
0
100
AcDbLine
  6
BYLAYER
 62
3
 10
212.607106781186
 20
18.7071067811866
 11
227.492893218814
 21
18.7071067811866
  0
LINE
  5
241
100
AcDbEntity
  8
0
100
AcDbLine
  6
BYLAYER
 62
3
 10
228.907106781187
 20
24.7071067811866
 11
243.792893218814
 21
24.7071067811866
  0
LINE
  5
242
100
AcDbEntity
  8
0
100
AcDbLine
  6
BYLAYER
 62
3
 10
228.907106781187
 20
30.7071067811865
 11
243.792893218814
 21
30.7071067811865
  0
LINE
  5
243
100
AcDbEntity
  8
0
100
AcDbLine
  6
BYLAYER
 62
3
 10
228.907106781187
 20
36.7071067811866
 11
243.792893218814
 21
36.7071067811866
  0
LINE
  5
244
100
AcDbEntity
  8
0
100
AcDbLine
  6
BYLAYER
 62
3
 10
212.607106781186
 20
24.7071067811866
 11
227.492893218814
 21
24.7071067811866
  0
LINE
  5
245
100
AcDbEntity
  8
0
100
AcDbLine
  6
BYLAYER
 62
3
 10
212.607106781186
 20
30.7071067811865
 11
227.492893218814
 21
30.7071067811865
  0
LINE
  5
246
100
AcDbEntity
  8
0
100
AcDbLine
  6
BYLAYER
 62
3
 10
212.607106781186
 20
36.7071067811866
 11
227.492893218814
 21
36.7071067811866
  0
TEXT
  5
247
100
AcDbEntity
  8
0
100
AcDbText
  6
BYLAYER
 10
219
 20
43.5
 40
3
  1
L
  7
Font_0
100
AcDbText
  0
TEXT
  5
248
100
AcDbEntity
  8
0
100
AcDbText
  6
BYLAYER
 10
233.270544856686
 20
43.5
 40
3
  1
ｫﾈ､�
  7
Font_0
100
AcDbText
  0
ENDBLK
  5
249
100
AcDbEntity
  8
0
 67
     1
100
AcDbBlockEnd
  0
BLOCK
  5
24A
100
AcDbEntity
  8
0
100
AcDbBlockBegin
  2
BASE
 70
    0
 10
0
 20
0
 30
0.0
  3
BASE
  1

  0
LINE
  5
24B
100
AcDbEntity
  8
0
100
AcDbLine
  6
BYLAYER
 10
0
 20
36
 11
278.4
 21
36
  0
LINE
  5
24C
100
AcDbEntity
  8
0
100
AcDbLine
  6
BYLAYER
 10
0
 20
12
 11
278.4
 21
12
  0
LINE
  5
24D
100
AcDbEntity
  8
0
100
AcDbLine
  6
BYLAYER
 10
0
 20
6
 11
278.4
 21
6
  0
LINE
  5
24E
100
AcDbEntity
  8
0
100
AcDbLine
  6
BYLAYER
 10
0
 20
0
 11
278.4
 21
0
  0
LINE
  5
24F
100
AcDbEntity
  8
0
100
AcDbLine
  6
BYLAYER
 10
278.4
 20
186
 11
0
 21
186
  0
LINE
  5
250
100
AcDbEntity
  8
0
100
AcDbLine
  6
BYLAYER
 10
96.85
 20
30
 11
278.4
 21
30
  0
LINE
  5
251
100
AcDbEntity
  8
0
100
AcDbLine
  6
BYLAYER
 10
96.85
 20
24
 11
278.4
 21
24
  0
LINE
  5
252
100
AcDbEntity
  8
0
100
AcDbLine
  6
BYLAYER
 10
96.85
 20
18
 11
278.4
 21
18
  0
LINE
  5
253
100
AcDbEntity
  8
0
100
AcDbLine
  6
BYLAYER
 10
0
 20
0
 11
0
 21
186
  0
TEXT
  5
254
100
AcDbEntity
  8
0
100
AcDbText
  6
BYLAYER
 10
22.1680110084321
 20
15.7553550725962
 40
2.8
  1
CAM YORK INDUSTRIAL CO.,LTD.
  7
Font_0
100
AcDbText
  0
TEXT
  5
255
100
AcDbEntity
  8
0
100
AcDbText
  6
BYLAYER
 10
22.0468952754036
 20
26
 40
7
  1
ｫﾘｷﾔ､uｷ~ｪﾑ･ｳｭｭ､ｽ･q
  7
Font_0
100
AcDbText
  0
TEXT
  5
256
100
AcDbEntity
  8
0
100
AcDbText
  6
BYLAYER
 10
63.8643398403977
 20
7.09411371042404
 40
2.8
  1
(04)3322629
  7
Font_0
100
AcDbText
  0
LINE
  5
257
100
AcDbEntity
  8
0
100
AcDbLine
  6
BYLAYER
 10
10.1054905349494
 20
28.7603510666656
 11
15.2233703294355
 21
28.7603510666656
  0
CIRCLE
  5
258
100
AcDbEntity
  8
0
100
AcDbCircle
  6
BYLAYER
 10
10.1054905349494
 20
24.350263158651
 40
9.36463111331499
  0
CIRCLE
  5
259
100
AcDbEntity
  8
0
100
AcDbCircle
  6
BYLAYER
 10
10.1054905349494
 20
24.350263158651
 40
7.62237416200057
  0
ARC
  5
25A
100
AcDbEntity
  8
0
100
AcDbCircle
  6
BYLAYER
 10
10.1054905349494
 20
24.350263158651
 40
4.41008790801462
100
AcDbArc
 50
90
 51
0
  0
LINE
  5
25B
100
AcDbEntity
  8
0
100
AcDbLine
  6
BYLAYER
 10
13
 20
12
 11
13
 21
0
  0
TEXT
  5
25C
100
AcDbEntity
  8
0
100
AcDbText
  6
BYLAYER
 10
2.6
 20
7.3
 40
3
  1
TEL
  7
Font_0
100
AcDbText
  0
TEXT
  5
25D
100
AcDbEntity
  8
0
100
AcDbText
  6
BYLAYER
 10
3.5
 20
1.5
 40
3
  1
ｳﾆｵ�
  7
Font_0
 72
1
 11
6.5
 21
3
100
AcDbText
 73
2
  0
ARC
  5
25E
100
AcDbEntity
  8
0
100
AcDbCircle
  6
BYLAYER
 10
10.5745216067836
 20
32.8983997393573
 40
0.704372460813671
100
AcDbArc
 50
83.8529806316668
 51
239.250071636948
  0
ARC
  5
25F
100
AcDbEntity
  8
0
100
AcDbCircle
  6
BYLAYER
 10
6.23761506796892
 20
31.9876821284788
 40
0.704372460813671
100
AcDbArc
 50
113.852980631667
 51
269.250071636948
  0
ARC
  5
260
100
AcDbEntity
  8
0
100
AcDbCircle
  6
BYLAYER
 10
2.46807156512152
 20
20.4823876916705
 40
0.704372460813671
100
AcDbArc
 50
203.852980631667
 51
359.250071636948
  0
ARC
  5
261
100
AcDbEntity
  8
0
100
AcDbCircle
  6
BYLAYER
 10
9.63645946311512
 20
15.8021265779447
 40
0.704372460813671
100
AcDbArc
 50
263.852980631667
 51
59.2500716369476
  0
ARC
  5
262
100
AcDbEntity
  8
0
100
AcDbCircle
  6
BYLAYER
 10
5.4252294212235
 20
17.1818752606574
 40
0.704372460813671
100
AcDbArc
 50
233.852980631667
 51
29.2500716369476
  0
ARC
  5
263
100
AcDbEntity
  8
0
100
AcDbCircle
  6
BYLAYER
 10
1.55735395424306
 20
24.8192942304852
 40
0.704372460813671
100
AcDbArc
 50
173.852980631667
 51
329.250071636948
  0
ARC
  5
264
100
AcDbEntity
  8
0
100
AcDbCircle
  6
BYLAYER
 10
2.93710263695578
 20
29.0305242723768
 40
0.704372460813671
100
AcDbArc
 50
143.852980631667
 51
299.250071636948
  0
TEXT
  5
265
100
AcDbEntity
  8
0
100
AcDbText
  6
BYLAYER
 10
7.49210581170385
 20
21.8477388856442
 40
5
  1
Y
  7
Font_0
100
AcDbText
  0
TEXT
  5
266
100
AcDbEntity
  8
0
100
AcDbText
  6
BYLAYER
 10
42.3478047909238
 20
7.2
 40
2.8
  1
~8
  7
Font_0
100
AcDbText
  0
TEXT
  5
267
100
AcDbEntity
  8
0
100
AcDbText
  6
BYLAYER
 10
13.8764304985659
 20
7.2
 40
2.8
  1
(04)3322627
  7
Font_0
100
AcDbText
  0
TEXT
  5
268
100
AcDbEntity
  8
0
100
AcDbText
  6
BYLAYER
 10
51
 20
7.2
 40
3
  1
FAX
  7
Font_0
100
AcDbText
  0
LINE
  5
269
100
AcDbEntity
  8
0
100
AcDbLine
  6
BYLAYER
 10
48
 20
12
 11
48
 21
6
  0
LINE
  5
26A
100
AcDbEntity
  8
0
100
AcDbLine
  6
BYLAYER
 10
62
 20
12
 11
62
 21
6
  0
ARC
  5
26B
100
AcDbEntity
  8
0
100
AcDbCircle
  6
BYLAYER
 10
14.7857516486752
 20
31.5186510566446
 40
0.704372460813671
100
AcDbArc
 50
53.8529806316668
 51
209.250071636948
  0
ARC
  5
26C
100
AcDbEntity
  8
0
100
AcDbCircle
  6
BYLAYER
 10
17.273878432943
 20
19.6700020449251
 40
0.704372460813671
100
AcDbArc
 50
323.852980631667
 51
119.250071636948
  0
ARC
  5
26D
100
AcDbEntity
  8
0
100
AcDbCircle
  6
BYLAYER
 10
13.9733660019298
 20
16.7128441888231
 40
0.704372460813671
100
AcDbArc
 50
293.852980631667
 51
89.2500716369476
  0
LINE
  5
26E
100
AcDbEntity
  8
0
100
AcDbLine
  6
BYLAYER
 10
14.515578442964
 20
24.350263158651
 11
15.4411524483498
 21
24.350263158651
  0
ARC
  5
26F
100
AcDbEntity
  8
0
100
AcDbCircle
  6
BYLAYER
 10
18.6536271156557
 20
23.8812320868167
 40
0.704372460813671
100
AcDbArc
 50
353.852980631667
 51
149.250071636948
  0
ARC
  5
270
100
AcDbEntity
  8
0
100
AcDbCircle
  6
BYLAYER
 10
17.7429095047772
 20
28.2181386256314
 40
0.704372460813671
100
AcDbArc
 50
23.8529806316668
 51
179.250071636948
  0
TEXT
  5
271
100
AcDbEntity
  8
0
100
AcDbText
  6
BYLAYER
 10
100.4
 20
7.4
 40
3
  1
ｫ~ ｦW
  7
Font_0
100
AcDbText
  0
LINE
  5
272
100
AcDbEntity
  8
0
100
AcDbLine
  6
BYLAYER
 10
144
 20
36
 11
144
 21
0
  0
LINE
  5
273
100
AcDbEntity
  8
0
100
AcDbLine
  6
BYLAYER
 10
114
 20
36
 11
114
 21
0
  0
LINE
  5
274
100
AcDbEntity
  8
0
100
AcDbLine
  6
BYLAYER
 10
97.15
 20
36
 11
97.15
 21
0
  0
LINE
  5
275
100
AcDbEntity
  8
0
100
AcDbLine
  6
BYLAYER
 10
96.85
 20
36
 11
96.85
 21
0
  0
TEXT
  5
276
100
AcDbEntity
  8
0
100
AcDbText
  6
BYLAYER
 10
100.4
 20
1.6
 40
3
  1
ｹﾏ ｸｹ
  7
Font_0
100
AcDbText
  0
TEXT
  5
277
100
AcDbEntity
  8
0
100
AcDbText
  6
BYLAYER
 10
100.4
 20
31.6
 40
3
  1
･D ｺﾞ
  7
Font_0
100
AcDbText
  0
TEXT
  5
278
100
AcDbEntity
  8
0
100
AcDbText
  6
BYLAYER
 10
100.4
 20
19.6
 40
3
  1
ﾃｸ ｹﾏ
  7
Font_0
100
AcDbText
  0
TEXT
  5
279
100
AcDbEntity
  8
0
100
AcDbText
  6
BYLAYER
 10
100.4
 20
13.8
 40
3
  1
ｾ� ｺﾘ
  7
Font_0
100
AcDbText
  0
TEXT
  5
27A
100
AcDbEntity
  8
0
100
AcDbText
  6
BYLAYER
 10
100.4
 20
25.4
 40
3
  1
ｮﾖ ｹ�
  7
Font_0
100
AcDbText
  0
LINE
  5
27B
100
AcDbEntity
  8
0
100
AcDbLine
  6
BYLAYER
 10
195.15
 20
36
 11
195.15
 21
0
  0
LINE
  5
27C
100
AcDbEntity
  8
0
100
AcDbLine
  6
BYLAYER
 10
194.85
 20
36
 11
194.85
 21
0
  0
LINE
  5
27D
100
AcDbEntity
  8
0
100
AcDbLine
  6
BYLAYER
 10
195.025
 20
36
 11
195.025
 21
0
  0
LINE
  5
27E
100
AcDbEntity
  8
0
100
AcDbLine
  6
BYLAYER
 10
163
 20
36
 11
163
 21
0
  0
TEXT
  5
27F
100
AcDbEntity
  8
0
100
AcDbText
  6
BYLAYER
 10
146.967830348543
 20
7.5
 40
3
  1
ｪ揵ｱｳBｲz
  7
Font_0
100
AcDbText
  0
TEXT
  5
280
100
AcDbEntity
  8
0
100
AcDbText
  6
BYLAYER
 10
146.967830348543
 20
1.5
 40
3
  1
ｻsｹﾏ､魘ﾁ
  7
Font_0
100
AcDbText
  0
TEXT
  5
281
100
AcDbEntity
  8
0
100
AcDbText
  6
BYLAYER
 10
148.5
 20
31.5
 40
3
  1
ｧ� ｽ�
  7
Font_0
100
AcDbText
  0
TEXT
  5
282
100
AcDbEntity
  8
0
100
AcDbText
  6
BYLAYER
 10
148.5
 20
19.5
 40
3
  1
ｼﾆ ｶq
  7
Font_0
100
AcDbText
  0
TEXT
  5
283
100
AcDbEntity
  8
0
100
AcDbText
  6
BYLAYER
 10
148.5
 20
13.5
 40
3
  1
ｳ� ｦ�
  7
Font_0
100
AcDbText
  0
TEXT
  5
284
100
AcDbEntity
  8
0
100
AcDbText
  6
BYLAYER
 10
148.5
 20
25.5
 40
3
  1
､� ｨﾒ
  7
Font_0
100
AcDbText
  0
TEXT
  5
285
100
AcDbEntity
  8
0
100
AcDbText
  6
BYLAYER
 10
200.830454348633
 20
31.5
 40
3
  1
､魘ﾁ
  7
Font_0
100
AcDbText
  0
LINE
  5
286
100
AcDbEntity
  8
0
100
AcDbLine
  6
BYLAYER
 10
278.4
 20
186
 11
278.4
 21
0
  0
LINE
  5
287
100
AcDbEntity
  8
0
100
AcDbLine
  6
BYLAYER
 10
269.7178125
 20
135.285
 11
269.7178125
 21
151.27125
  0
LINE
  5
288
100
AcDbEntity
  8
0
100
AcDbLine
  6
BYLAYER
 10
261.035625
 20
135.285
 11
261.035625
 21
151.27125
  0
LINE
  5
289
100
AcDbEntity
  8
0
100
AcDbLine
  6
BYLAYER
 10
252.3534375
 20
135.285
 11
252.3534375
 21
151.27125
  0
LINE
  5
28A
100
AcDbEntity
  8
0
100
AcDbLine
  6
BYLAYER
 10
243.67125
 20
135.285
 11
243.67125
 21
180.4875
  0
LINE
  5
28B
100
AcDbEntity
  8
0
100
AcDbLine
  6
BYLAYER
 10
221.07
 20
135.285
 11
221.07
 21
180.4875
  0
LINE
  5
28C
100
AcDbEntity
  8
0
100
AcDbLine
  6
BYLAYER
 10
216.66
 20
135.285
 11
216.66
 21
186
  0
LINE
  5
28D
100
AcDbEntity
  8
0
100
AcDbLine
  6
BYLAYER
 10
213
 20
36
 11
213
 21
0
  0
LINE
  5
28E
100
AcDbEntity
  8
0
100
AcDbLine
  6
BYLAYER
 10
232
 20
36
 11
232
 21
0
  0
TEXT
  5
28F
100
AcDbEntity
  8
0
100
AcDbText
  6
BYLAYER
 10
235
 20
31.5
 40
3
  1
ｧ�   ｧ�   ､ｺ   ｮe
  7
Font_0
100
AcDbText
  0
TEXT
  5
290
100
AcDbEntity
  8
0
100
AcDbText
  6
BYLAYER
 10
218.659856969007
 20
31.5
 40
3
  1
ｭtｳd､H
  7
Font_0
100
AcDbText
  0
LINE
  5
291
100
AcDbEntity
  8
0
100
AcDbLine
  6
BYLAYER
 10
278.4
 20
139.695
 11
221.07
 21
139.695
  0
LINE
  5
292
100
AcDbEntity
  8
0
100
AcDbLine
  6
BYLAYER
 10
278.4
 20
135.285
 11
216.66
 21
135.285
  0
TEXT
  5
293
100
AcDbEntity
  8
0
100
AcDbText
  6
BYLAYER
 10
246.15416478566
 20
128.207003496756
 40
2
  1
projection ｲﾄ､Tｨ､ｧ�ｼv
  7
Font_0
100
AcDbText
  0
LINE
  5
294
100
AcDbEntity
  8
0
100
AcDbLine
  6
BYLAYER
 10
278.4
 20
113.78625
 11
243.67125
 21
113.78625
  0
TEXT
  5
295
100
AcDbEntity
  8
0
100
AcDbText
  6
BYLAYER
 10
271.4339125
 20
144.733125
 40
1.5
  1
100･H､W
  7
Font_0
 72
1
 11
274.0589125
 21
145.483125
100
AcDbText
 73
2
  0
TEXT
  5
296
100
AcDbEntity
  8
0
100
AcDbText
  6
BYLAYER
 10
272.1839125
 20
136.74
 40
1.5
  1
±10'
  7
Font_0
 72
1
 11
274.0589125
 21
137.49
100
AcDbText
 73
2
  0
MTEXT
  5
297
100
AcDbEntity
  8
0
100
AcDbMText
 10
232.37065
 20
145.483125
 40
2
 41
  0.0
  1
､ｽｺﾙ､ﾘ､o (ｪﾗ)\Pｧｨｦｨｨ､､ｧｵuﾃ荀@､�
 71
5
  7
Font_0
  0
TEXT
  5
298
100
AcDbEntity
  8
0
100
AcDbText
  6
BYLAYER
 10
217.365
 20
147.778125
 40
3
  1
ｪｽｨ､ｫﾗ
  7
Font_1
 50
270
 11
218.865
 21
147.778125
100
AcDbText
 73
2
  0
TEXT
  5
299
100
AcDbEntity
  8
0
100
AcDbText
  6
BYLAYER
 10
227.87065
 20
135.99
 40
3
  1
ｨ､ｫﾗｮt
  7
Font_0
 72
1
 11
232.37065
 21
137.49
100
AcDbText
 73
2
  0
LINE
  5
29A
100
AcDbEntity
  8
0
100
AcDbLine
  6
BYLAYER
 10
254.802068029839
 20
115.173423624616
 11
254.802068029839
 21
126.198423624616
  0
LINE
  5
29B
100
AcDbEntity
  8
0
100
AcDbLine
  6
BYLAYER
 10
243.67125
 20
113.78625
 11
243.67125
 21
135.285
  0
CIRCLE
  5
29C
100
AcDbEntity
  8
0
100
AcDbCircle
  6
BYLAYER
 10
254.802068029839
 20
120.685923624616
 40
4.41
  0
LINE
  5
29D
100
AcDbEntity
  8
0
100
AcDbLine
  6
BYLAYER
 10
249.289568029839
 20
120.685923624616
 11
260.314568029839
 21
120.685923624616
  0
CIRCLE
  5
29E
100
AcDbEntity
  8
0
100
AcDbCircle
  6
BYLAYER
 10
254.802068029839
 20
120.685923624616
 40
2.205
  0
LINE
  5
29F
100
AcDbEntity
  8
0
100
AcDbLine
  6
BYLAYER
 10
263.194180551461
 20
120.685923624616
 11
274.770430551461
 21
120.685923624616
  0
LWPOLYLINE
  5
2A0
100
AcDbEntity
  8
0
100
AcDbPolyline
  6
BYLAYER
370
0
 90
     4
 70
     1
 10
264.296680551461
  20
118.480923624616
 10
273.667930551461
  20
116.275923624616
 10
273.667930551461
  20
125.095923624616
 10
264.296680551461
  20
122.890923624616
  0
TEXT
  5
2A1
100
AcDbEntity
  8
0
100
AcDbText
  6
BYLAYER
 10
245.828721587618
 20
131.605971951227
 40
2
  1
Third angle
  7
Font_0
100
AcDbText
  0
MTEXT
  5
2A2
100
AcDbEntity
  8
0
100
AcDbMText
 10
256.6945375
 20
145.483125
 40
1.5
 41
  0.0
  1
10･H､W\P50･H､U
 71
5
  7
Font_0
  0
TEXT
  5
2A3
100
AcDbEntity
  8
0
100
AcDbText
  6
BYLAYER
 10
246.13735
 20
136.74
 40
1.5
  1
±1°
  7
Font_0
 72
1
 11
248.01235
 21
137.49
100
AcDbText
 73
2
  0
TEXT
  5
2A4
100
AcDbEntity
  8
0
100
AcDbText
  6
BYLAYER
 10
254.8195375
 20
136.74
 40
1.5
  1
±30'
  7
Font_0
 72
1
 11
256.6945375
 21
137.49
100
AcDbText
 73
2
  0
TEXT
  5
2A5
100
AcDbEntity
  8
0
100
AcDbText
  6
BYLAYER
 10
245.76235
 20
144.733125
 40
1.5
  1
10･H､U
  7
Font_0
 72
1
 11
248.01235
 21
145.483125
100
AcDbText
 73
2
  0
TEXT
  5
2A6
100
AcDbEntity
  8
0
100
AcDbText
  6
BYLAYER
 10
263.501725
 20
136.74
 40
1.5
  1
±20'
  7
Font_0
 72
1
 11
265.376725
 21
137.49
100
AcDbText
 73
2
  0
MTEXT
  5
2A7
100
AcDbEntity
  8
0
100
AcDbMText
 10
265.376725
 20
145.483125
 40
1.5
 41
  0.0
  1
50･H､W\P100･H､U
 71
5
  7
Font_0
  0
LINE
  5
2A8
100
AcDbEntity
  8
0
100
AcDbLine
  6
BYLAYER
 10
221.07
 20
155.68125
 11
278.4
 21
155.68125
  0
LINE
  5
2A9
100
AcDbEntity
  8
0
100
AcDbLine
  6
BYLAYER
 10
221.07
 20
160.09125
 11
278.4
 21
160.09125
  0
LINE
  5
2AA
100
AcDbEntity
  8
0
100
AcDbLine
  6
BYLAYER
 10
221.07
 20
164.50125
 11
278.4
 21
164.50125
  0
LINE
  5
2AB
100
AcDbEntity
  8
0
100
AcDbLine
  6
BYLAYER
 10
221.07
 20
168.91125
 11
278.4
 21
168.91125
  0
LINE
  5
2AC
100
AcDbEntity
  8
0
100
AcDbLine
  6
BYLAYER
 10
221.07
 20
173.32125
 11
278.4
 21
173.32125
  0
LINE
  5
2AD
100
AcDbEntity
  8
0
100
AcDbLine
  6
BYLAYER
 10
216.66
 20
151.27125
 11
278.4
 21
151.27125
  0
LINE
  5
2AE
100
AcDbEntity
  8
0
100
AcDbLine
  6
BYLAYER
 10
216.66
 20
180.4875
 11
278.4
 21
180.4875
  0
TEXT
  5
2AF
100
AcDbEntity
  8
0
100
AcDbText
  6
BYLAYER
 10
269.1119
 20
175.154375
 40
3.5
  1
ｲﾊｯﾅ
  7
Font_0
 72
1
 11
272.6119
 21
176.904375
100
AcDbText
 73
2
  0
LINE
  5
2B0
100
AcDbEntity
  8
0
100
AcDbLine
  6
BYLAYER
 10
243.67125
 20
173.32125
 11
232.06971689676
 21
180.4875
  0
TEXT
  5
2B1
100
AcDbEntity
  8
0
100
AcDbText
  6
BYLAYER
 10
230.03
 20
181.49375
 40
3.5
  1
ｦｨ ｫ~ ､ｧ ｴｶ ｳq ､ｽ ｮt
  7
Font_0
 72
1
 11
247.53
 21
183.24375
100
AcDbText
 73
2
  0
TEXT
  5
2B2
100
AcDbEntity
  8
0
100
AcDbText
  6
BYLAYER
 10
228.24565
 20
170.36625
 40
1.5
  1
1･H､W~4･H､U
  7
Font_0
 72
1
 11
232.37065
 21
171.11625
100
AcDbText
 73
2
  0
TEXT
  5
2B3
100
AcDbEntity
  8
0
100
AcDbText
  6
BYLAYER
 10
227.49565
 20
161.54625
 40
1.5
  1
16･H､W~63･H､U
  7
Font_0
 72
1
 11
232.37065
 21
162.29625
100
AcDbText
 73
2
  0
TEXT
  5
2B4
100
AcDbEntity
  8
0
100
AcDbText
  6
BYLAYER
 10
227.12065
 20
157.13625
 40
1.5
  1
63･H､W~250･H､U
  7
Font_0
 72
1
 11
232.37065
 21
157.88625
100
AcDbText
 73
2
  0
TEXT
  5
2B5
100
AcDbEntity
  8
0
100
AcDbText
  6
BYLAYER
 10
226.37065
 20
152.72625
 40
1.5
  1
250･H､W~1000･H､U
  7
Font_0
 72
1
 11
232.37065
 21
153.47625
100
AcDbText
 73
2
  0
MTEXT
  5
2B6
100
AcDbEntity
  8
0
100
AcDbMText
 10
218.865
 20
168.879375
 40
3
 41
  0.0
  1
ｪﾗ
 71
4
  7
Font_1
 11
-1.83690953073357E-16
 21
-1
  0
TEXT
  5
2B7
100
AcDbEntity
  8
0
100
AcDbText
  6
BYLAYER
 10
227.87065
 20
165.95625
 40
1.5
  1
4･H､W~16･H､U
  7
Font_0
 72
1
 11
232.37065
 21
166.70625
100
AcDbText
 73
2
  0
TEXT
  5
2B8
100
AcDbEntity
  8
0
100
AcDbText
  6
BYLAYER
 10
221.354797302298
 20
174.015263609177
 40
1.7
  1
､ｽｺﾙ､ﾘ､oｹｺ､ﾀm/m
  7
Font_0
100
AcDbText
  0
TEXT
  5
2B9
100
AcDbEntity
  8
0
100
AcDbText
  6
BYLAYER
 10
237.865638127741
 20
177.454836298923
 40
1.7
  1
ｵ･ｯﾅ
  7
Font_0
100
AcDbText
  0
LINE
  5
2BA
100
AcDbEntity
  8
0
100
AcDbLine
  6
BYLAYER
 10
266.82375
 20
151.27125
 11
266.82375
 21
180.4875
  0
LINE
  5
2BB
100
AcDbEntity
  8
0
100
AcDbLine
  6
BYLAYER
 10
255.2475
 20
151.27125
 11
255.2475
 21
180.4875
  0
TEXT
  5
2BC
100
AcDbEntity
  8
0
100
AcDbText
  6
BYLAYER
 10
247.2094
 20
170.36625
 40
1.5
  1
±0.05
  7
Font_0
 72
1
 11
249.4594
 21
171.11625
100
AcDbText
 73
2
  0
TEXT
  5
2BD
100
AcDbEntity
  8
0
100
AcDbText
  6
BYLAYER
 10
258.78565
 20
170.36625
 40
1.5
  1
±0.10
  7
Font_0
 72
1
 11
261.03565
 21
171.11625
100
AcDbText
 73
2
  0
TEXT
  5
2BE
100
AcDbEntity
  8
0
100
AcDbText
  6
BYLAYER
 10
270.3619
 20
170.36625
 40
1.5
  1
±0.30
  7
Font_0
 72
1
 11
272.6119
 21
171.11625
100
AcDbText
 73
2
  0
TEXT
  5
2BF
100
AcDbEntity
  8
0
100
AcDbText
  6
BYLAYER
 10
258.78565
 20
165.95625
 40
1.5
  1
±0.20
  7
Font_0
 72
1
 11
261.03565
 21
166.70625
100
AcDbText
 73
2
  0
TEXT
  5
2C0
100
AcDbEntity
  8
0
100
AcDbText
  6
BYLAYER
 10
258.78565
 20
161.54625
 40
1.5
  1
±0.30
  7
Font_0
 72
1
 11
261.03565
 21
162.29625
100
AcDbText
 73
2
  0
TEXT
  5
2C1
100
AcDbEntity
  8
0
100
AcDbText
  6
BYLAYER
 10
258.78565
 20
157.13625
 40
1.5
  1
±0.50
  7
Font_0
 72
1
 11
261.03565
 21
157.88625
100
AcDbText
 73
2
  0
TEXT
  5
2C2
100
AcDbEntity
  8
0
100
AcDbText
  6
BYLAYER
 10
258.78565
 20
152.72625
 40
1.5
  1
±0.80
  7
Font_0
 72
1
 11
261.03565
 21
153.47625
100
AcDbText
 73
2
  0
TEXT
  5
2C3
100
AcDbEntity
  8
0
100
AcDbText
  6
BYLAYER
 10
247.2094
 20
157.13625
 40
1.5
  1
±0.20
  7
Font_0
 72
1
 11
249.4594
 21
157.88625
100
AcDbText
 73
2
  0
TEXT
  5
2C4
100
AcDbEntity
  8
0
100
AcDbText
  6
BYLAYER
 10
247.2094
 20
152.72625
 40
1.5
  1
±0.30
  7
Font_0
 72
1
 11
249.4594
 21
153.47625
100
AcDbText
 73
2
  0
TEXT
  5
2C5
100
AcDbEntity
  8
0
100
AcDbText
  6
BYLAYER
 10
247.2094
 20
165.95625
 40
1.5
  1
±0.07
  7
Font_0
 72
1
 11
249.4594
 21
166.70625
100
AcDbText
 73
2
  0
TEXT
  5
2C6
100
AcDbEntity
  8
0
100
AcDbText
  6
BYLAYER
 10
247.2094
 20
161.54625
 40
1.5
  1
±0.10
  7
Font_0
 72
1
 11
249.4594
 21
162.29625
100
AcDbText
 73
2
  0
TEXT
  5
2C7
100
AcDbEntity
  8
0
100
AcDbText
  6
BYLAYER
 10
270.3619
 20
152.72625
 40
1.5
  1
±2.00
  7
Font_0
 72
1
 11
272.6119
 21
153.47625
100
AcDbText
 73
2
  0
TEXT
  5
2C8
100
AcDbEntity
  8
0
100
AcDbText
  6
BYLAYER
 10
270.3619
 20
157.13625
 40
1.5
  1
±1.20
  7
Font_0
 72
1
 11
272.6119
 21
157.88625
100
AcDbText
 73
2
  0
TEXT
  5
2C9
100
AcDbEntity
  8
0
100
AcDbText
  6
BYLAYER
 10
270.3619
 20
161.54625
 40
1.5
  1
±0.70
  7
Font_0
 72
1
 11
272.6119
 21
162.29625
100
AcDbText
 73
2
  0
TEXT
  5
2CA
100
AcDbEntity
  8
0
100
AcDbText
  6
BYLAYER
 10
270.3619
 20
165.95625
 40
1.5
  1
±0.50
  7
Font_0
 72
1
 11
272.6119
 21
166.70625
100
AcDbText
 73
2
  0
TEXT
  5
2CB
100
AcDbEntity
  8
0
100
AcDbText
  6
BYLAYER
 10
257.5356
 20
175.154375
 40
3.5
  1
､､ｯﾅ
  7
Font_0
 72
1
 11
261.0356
 21
176.904375
100
AcDbText
 73
2
  0
TEXT
  5
2CC
100
AcDbEntity
  8
0
100
AcDbText
  6
BYLAYER
 10
245.9594
 20
175.154375
 40
3.5
  1
ｲﾓｯﾅ
  7
Font_0
 72
1
 11
249.4594
 21
176.904375
100
AcDbText
 73
2
  0
ENDBLK
  5
2CD
100
AcDbEntity
  8
0
 67
     1
100
AcDbBlockEnd
  0
BLOCK
  5
2CE
100
AcDbEntity
  8
0
100
AcDbBlockBegin
  2
LIST
 70
    0
 10
0
 20
0
 30
0.0
  3
LIST
  1

  0
LINE
  5
2CF
100
AcDbEntity
  8
TEXT
100
AcDbLine
  6
BYLAYER
 10
-2.84E-14
 20
48
 11
83.2499999999999
 21
48
  0
LINE
  5
2D0
100
AcDbEntity
  8
TEXT
100
AcDbLine
  6
BYLAYER
 10
-2.84E-14
 20
42
 11
83.2499999999999
 21
42
  0
LINE
  5
2D1
100
AcDbEntity
  8
TEXT
100
AcDbLine
  6
BYLAYER
 10
-2.84E-14
 20
36
 11
83.2499999999999
 21
36
  0
LINE
  5
2D2
100
AcDbEntity
  8
TEXT
100
AcDbLine
  6
BYLAYER
 10
-2.84E-14
 20
30
 11
83.2499999999999
 21
30
  0
LINE
  5
2D3
100
AcDbEntity
  8
TEXT
100
AcDbLine
  6
BYLAYER
 10
-2.84E-14
 20
24
 11
83.2499999999999
 21
24
  0
LINE
  5
2D4
100
AcDbEntity
  8
TEXT
100
AcDbLine
  6
BYLAYER
 10
-2.84E-14
 20
18
 11
83.2499999999999
 21
18
  0
LINE
  5
2D5
100
AcDbEntity
  8
TEXT
100
AcDbLine
  6
BYLAYER
 10
-2.84E-14
 20
12
 11
83.2499999999999
 21
12
  0
LINE
  5
2D6
100
AcDbEntity
  8
TEXT
100
AcDbLine
  6
BYLAYER
 10
-2.84E-14
 20
5.99999999999997
 11
83.2499999999999
 21
6
  0
TEXT
  5
2D7
100
AcDbEntity
  8
TEXT
100
AcDbText
  6
BYLAYER
 10
8.82499999999999
 20
18.7071067811865
 40
3.5
  1
C
  7
Font_0
 72
1
 11
9.69999999999999
 21
18.7071067811865
100
AcDbText
  0
LINE
  5
2D8
100
AcDbEntity
  8
TEXT
100
AcDbLine
  6
BYLAYER
 10
0
 20
48
 11
0
 21
0
  0
TEXT
  5
2D9
100
AcDbEntity
  8
TEXT
100
AcDbText
  6
BYLAYER
 10
8.82499999999999
 20
6.70710678118655
 40
3.5
  1
A
  7
Font_0
 72
1
 11
9.69999999999999
 21
6.70710678118655
100
AcDbText
  0
TEXT
  5
2DA
100
AcDbEntity
  8
TEXT
100
AcDbText
  6
BYLAYER
 10
6.49999999999997
 20
0.707106781186553
 40
3.5
  1
ｶｵｦｸ
  7
Font_0
 72
1
 11
9.99999999999997
 21
0.707106781186553
100
AcDbText
  0
TEXT
  5
2DB
100
AcDbEntity
  8
TEXT
100
AcDbText
  6
BYLAYER
 10
8.82499999999999
 20
12.7071067811866
 40
3.5
  1
B
  7
Font_0
 72
1
 11
9.69999999999999
 21
12.7071067811866
100
AcDbText
  0
TEXT
  5
2DC
100
AcDbEntity
  8
TEXT
100
AcDbText
  6
BYLAYER
 10
8.82499999999999
 20
42.7071067811866
 40
3.5
  1
G
  7
Font_0
 72
1
 11
9.69999999999999
 21
42.7071067811866
100
AcDbText
  0
TEXT
  5
2DD
100
AcDbEntity
  8
TEXT
100
AcDbText
  6
BYLAYER
 10
8.82499999999999
 20
30.7071067811865
 40
3.5
  1
E
  7
Font_0
 72
1
 11
9.69999999999999
 21
30.7071067811865
100
AcDbText
  0
TEXT
  5
2DE
100
AcDbEntity
  8
TEXT
100
AcDbText
  6
BYLAYER
 10
8.82499999999999
 20
24.7071067811866
 40
3.5
  1
D
  7
Font_0
 72
1
 11
9.69999999999999
 21
24.7071067811866
100
AcDbText
  0
TEXT
  5
2DF
100
AcDbEntity
  8
TEXT
100
AcDbText
  6
BYLAYER
 10
8.82499999999999
 20
36.7071067811866
 40
3.5
  1
F
  7
Font_0
 72
1
 11
9.69999999999999
 21
36.7071067811866
100
AcDbText
  0
TEXT
  5
2E0
100
AcDbEntity
  8
TEXT
100
AcDbText
  6
BYLAYER
 10
77.3935238436447
 20
18.7071067811866
 40
3.5
  1
1
  7
Font_0
 72
1
 11
78.2685238436447
 21
18.7071067811866
100
AcDbText
  0
TEXT
  5
2E1
100
AcDbEntity
  8
TEXT
100
AcDbText
  6
BYLAYER
 10
20.7
 20
18.7071067811866
 40
3.5
  1
A
  7
Font_0
100
AcDbText
  0
LINE
  5
2E2
100
AcDbEntity
  8
TEXT
100
AcDbLine
  6
BYLAYER
 10
73.8870476872896
 20
48
 11
73.8870476872896
 21
-1.42E-14
  0
LINE
  5
2E3
100
AcDbEntity
  8
TEXT
100
AcDbLine
  6
BYLAYER
 10
20
 20
48
 11
20
 21
0
  0
TEXT
  5
2E4
100
AcDbEntity
  8
TEXT
100
AcDbText
  6
BYLAYER
 10
75.0685238436447
 20
0.707106781186553
 40
3.5
  1
ｼﾆｶq
  7
Font_0
 72
1
 11
78.5685238436447
 21
0.707106781186553
100
AcDbText
  0
TEXT
  5
2E5
100
AcDbEntity
  8
TEXT
100
AcDbText
  6
BYLAYER
 10
37.4837220734968
 20
0.707106781186553
 40
3.5
  1
ｹﾏ       ｸｹ
  7
Font_0
 72
1
 11
47.1087220734968
 21
0.707106781186553
100
AcDbText
  0
TEXT
  5
2E6
100
AcDbEntity
  8
TEXT
100
AcDbText
  6
BYLAYER
 10
20.7
 20
6.70710678118656
 40
3.5
  1
A
  7
Font_0
100
AcDbText
  0
TEXT
  5
2E7
100
AcDbEntity
  8
TEXT
100
AcDbText
  6
BYLAYER
 10
20.7
 20
12.7071067811866
 40
3.5
  1
A
  7
Font_0
100
AcDbText
  0
TEXT
  5
2E8
100
AcDbEntity
  8
TEXT
100
AcDbText
  6
BYLAYER
 10
77.3935238436447
 20
6.70710678118656
 40
3.5
  1
1
  7
Font_0
 72
1
 11
78.2685238436447
 21
6.70710678118656
100
AcDbText
  0
TEXT
  5
2E9
100
AcDbEntity
  8
TEXT
100
AcDbText
  6
BYLAYER
 10
77.3935238436447
 20
12.7071067811866
 40
3.5
  1
1
  7
Font_0
 72
1
 11
78.2685238436447
 21
12.7071067811866
100
AcDbText
  0
TEXT
  5
2EA
100
AcDbEntity
  8
TEXT
100
AcDbText
  6
BYLAYER
 10
20.7
 20
42.7071067811866
 40
3.5
  1
A
  7
Font_0
100
AcDbText
  0
TEXT
  5
2EB
100
AcDbEntity
  8
TEXT
100
AcDbText
  6
BYLAYER
 10
20.7
 20
30.7071067811865
 40
3.5
  1
A
  7
Font_0
100
AcDbText
  0
TEXT
  5
2EC
100
AcDbEntity
  8
TEXT
100
AcDbText
  6
BYLAYER
 10
20.7
 20
24.7071067811866
 40
3.5
  1
A
  7
Font_0
100
AcDbText
  0
TEXT
  5
2ED
100
AcDbEntity
  8
TEXT
100
AcDbText
  6
BYLAYER
 10
20.7
 20
36.7071067811866
 40
3.5
  1
A
  7
Font_0
100
AcDbText
  0
TEXT
  5
2EE
100
AcDbEntity
  8
TEXT
100
AcDbText
  6
BYLAYER
 10
77.3935238436447
 20
42.7071067811866
 40
3.5
  1
1
  7
Font_0
 72
1
 11
78.2685238436447
 21
42.7071067811866
100
AcDbText
  0
TEXT
  5
2EF
100
AcDbEntity
  8
TEXT
100
AcDbText
  6
BYLAYER
 10
77.3935238436447
 20
30.7071067811865
 40
3.5
  1
1
  7
Font_0
 72
1
 11
78.2685238436447
 21
30.7071067811865
100
AcDbText
  0
TEXT
  5
2F0
100
AcDbEntity
  8
TEXT
100
AcDbText
  6
BYLAYER
 10
77.3935238436447
 20
24.7071067811866
 40
3.5
  1
1
  7
Font_0
 72
1
 11
78.2685238436447
 21
24.7071067811866
100
AcDbText
  0
TEXT
  5
2F1
100
AcDbEntity
  8
TEXT
100
AcDbText
  6
BYLAYER
 10
77.3935238436447
 20
36.7071067811866
 40
3.5
  1
1
  7
Font_0
 72
1
 11
78.2685238436447
 21
36.7071067811866
100
AcDbText
  0
ENDBLK
  5
2F2
100
AcDbEntity
  8
0
 67
     1
100
AcDbBlockEnd
  0
BLOCK
  5
2F3
100
AcDbEntity
  8
0
100
AcDbBlockBegin
  2
A4ｹﾏｮﾘ
 70
    0
 10
0
 20
0
 30
0.0
  3
A4ｹﾏｮﾘ
  1

  0
POINT
  5
2F4
100
AcDbEntity
  8
7475A
100
AcDbPoint
 10
289
 20
0
  0
LINE
  5
2F5
100
AcDbEntity
  8
0
100
AcDbLine
  6
BYLAYER
 10
0
 20
12
 11
278.4
 21
12
  0
LINE
  5
2F6
100
AcDbEntity
  8
0
100
AcDbLine
  6
BYLAYER
 10
0
 20
6
 11
278.4
 21
6
  0
LINE
  5
2F7
100
AcDbEntity
  8
0
100
AcDbLine
  6
BYLAYER
 10
96.85
 20
30
 11
278.4
 21
30
  0
LINE
  5
2F8
100
AcDbEntity
  8
0
100
AcDbLine
  6
BYLAYER
 10
96.85
 20
24
 11
278.4
 21
24
  0
LINE
  5
2F9
100
AcDbEntity
  8
0
100
AcDbLine
  6
BYLAYER
 10
96.85
 20
18
 11
278.4
 21
18
  0
TEXT
  5
2FA
100
AcDbEntity
  8
0
100
AcDbText
  6
BYLAYER
 10
22.1680110084321
 20
15.7553550725962
 40
2.8
  1
CAM YORK INDUSTRIAL CO.,LTD.
  7
Font_0
100
AcDbText
  0
TEXT
  5
2FB
100
AcDbEntity
  8
0
100
AcDbText
  6
BYLAYER
 10
22.0468952754036
 20
26
 40
7
  1
ｫﾘｷﾔ､uｷ~ｪﾑ･ｳｭｭ､ｽ･q
  7
Font_0
100
AcDbText
  0
TEXT
  5
2FC
100
AcDbEntity
  8
0
100
AcDbText
  6
BYLAYER
 10
63.8643398403977
 20
7.09411371042404
 40
2.8
  1
(04)3322629
  7
Font_0
100
AcDbText
  0
LINE
  5
2FD
100
AcDbEntity
  8
0
100
AcDbLine
  6
BYLAYER
 10
10.1054905349494
 20
28.7603510666656
 11
15.2233703294355
 21
28.7603510666656
  0
CIRCLE
  5
2FE
100
AcDbEntity
  8
0
100
AcDbCircle
  6
BYLAYER
 10
10.1054905349494
 20
24.350263158651
 40
9.36463111331499
  0
CIRCLE
  5
2FF
100
AcDbEntity
  8
0
100
AcDbCircle
  6
BYLAYER
 10
10.1054905349494
 20
24.350263158651
 40
7.62237416200057
  0
ARC
  5
300
100
AcDbEntity
  8
0
100
AcDbCircle
  6
BYLAYER
 10
10.1054905349494
 20
24.350263158651
 40
4.41008790801462
100
AcDbArc
 50
90
 51
0
  0
LINE
  5
301
100
AcDbEntity
  8
0
100
AcDbLine
  6
BYLAYER
 10
13
 20
12
 11
13
 21
0
  0
TEXT
  5
302
100
AcDbEntity
  8
0
100
AcDbText
  6
BYLAYER
 10
2.6
 20
7.3
 40
3
  1
TEL
  7
Font_0
100
AcDbText
  0
TEXT
  5
303
100
AcDbEntity
  8
0
100
AcDbText
  6
BYLAYER
 10
3.5
 20
1.5
 40
3
  1
ｳﾆｵ�
  7
Font_0
 72
1
 11
6.5
 21
3
100
AcDbText
 73
2
  0
ARC
  5
304
100
AcDbEntity
  8
0
100
AcDbCircle
  6
BYLAYER
 10
10.5745216067836
 20
32.8983997393573
 40
0.704372460813671
100
AcDbArc
 50
83.8529806316668
 51
239.250071636948
  0
ARC
  5
305
100
AcDbEntity
  8
0
100
AcDbCircle
  6
BYLAYER
 10
6.23761506796892
 20
31.9876821284788
 40
0.704372460813671
100
AcDbArc
 50
113.852980631667
 51
269.250071636948
  0
ARC
  5
306
100
AcDbEntity
  8
0
100
AcDbCircle
  6
BYLAYER
 10
2.46807156512152
 20
20.4823876916705
 40
0.704372460813671
100
AcDbArc
 50
203.852980631667
 51
359.250071636948
  0
ARC
  5
307
100
AcDbEntity
  8
0
100
AcDbCircle
  6
BYLAYER
 10
9.63645946311512
 20
15.8021265779447
 40
0.704372460813671
100
AcDbArc
 50
263.852980631667
 51
59.2500716369476
  0
ARC
  5
308
100
AcDbEntity
  8
0
100
AcDbCircle
  6
BYLAYER
 10
5.4252294212235
 20
17.1818752606574
 40
0.704372460813671
100
AcDbArc
 50
233.852980631667
 51
29.2500716369476
  0
ARC
  5
309
100
AcDbEntity
  8
0
100
AcDbCircle
  6
BYLAYER
 10
1.55735395424306
 20
24.8192942304852
 40
0.704372460813671
100
AcDbArc
 50
173.852980631667
 51
329.250071636948
  0
ARC
  5
30A
100
AcDbEntity
  8
0
100
AcDbCircle
  6
BYLAYER
 10
2.93710263695578
 20
29.0305242723768
 40
0.704372460813671
100
AcDbArc
 50
143.852980631667
 51
299.250071636948
  0
TEXT
  5
30B
100
AcDbEntity
  8
0
100
AcDbText
  6
BYLAYER
 10
7.49210581170385
 20
21.8477388856442
 40
5
  1
Y
  7
Font_0
100
AcDbText
  0
TEXT
  5
30C
100
AcDbEntity
  8
0
100
AcDbText
  6
BYLAYER
 10
42.3478047909238
 20
7.2
 40
2.8
  1
~8
  7
Font_0
100
AcDbText
  0
TEXT
  5
30D
100
AcDbEntity
  8
0
100
AcDbText
  6
BYLAYER
 10
13.8764304985659
 20
7.2
 40
2.8
  1
(04)3322627
  7
Font_0
100
AcDbText
  0
TEXT
  5
30E
100
AcDbEntity
  8
0
100
AcDbText
  6
BYLAYER
 10
51
 20
7.2
 40
3
  1
FAX
  7
Font_0
100
AcDbText
  0
LINE
  5
30F
100
AcDbEntity
  8
0
100
AcDbLine
  6
BYLAYER
 10
48
 20
12
 11
48
 21
6
  0
LINE
  5
310
100
AcDbEntity
  8
0
100
AcDbLine
  6
BYLAYER
 10
62
 20
12
 11
62
 21
6
  0
ARC
  5
311
100
AcDbEntity
  8
0
100
AcDbCircle
  6
BYLAYER
 10
14.7857516486752
 20
31.5186510566446
 40
0.704372460813671
100
AcDbArc
 50
53.8529806316668
 51
209.250071636948
  0
ARC
  5
312
100
AcDbEntity
  8
0
100
AcDbCircle
  6
BYLAYER
 10
17.273878432943
 20
19.6700020449251
 40
0.704372460813671
100
AcDbArc
 50
323.852980631667
 51
119.250071636948
  0
ARC
  5
313
100
AcDbEntity
  8
0
100
AcDbCircle
  6
BYLAYER
 10
13.9733660019298
 20
16.7128441888231
 40
0.704372460813671
100
AcDbArc
 50
293.852980631667
 51
89.2500716369476
  0
LINE
  5
314
100
AcDbEntity
  8
0
100
AcDbLine
  6
BYLAYER
 10
14.515578442964
 20
24.350263158651
 11
15.4411524483498
 21
24.350263158651
  0
ARC
  5
315
100
AcDbEntity
  8
0
100
AcDbCircle
  6
BYLAYER
 10
18.6536271156557
 20
23.8812320868167
 40
0.704372460813671
100
AcDbArc
 50
353.852980631667
 51
149.250071636948
  0
ARC
  5
316
100
AcDbEntity
  8
0
100
AcDbCircle
  6
BYLAYER
 10
17.7429095047772
 20
28.2181386256314
 40
0.704372460813671
100
AcDbArc
 50
23.8529806316668
 51
179.250071636948
  0
TEXT
  5
317
100
AcDbEntity
  8
0
100
AcDbText
  6
BYLAYER
 10
100.4
 20
7.4
 40
3
  1
ｫ~ ｦW
  7
Font_0
100
AcDbText
  0
LINE
  5
318
100
AcDbEntity
  8
0
100
AcDbLine
  6
BYLAYER
 10
144
 20
36
 11
144
 21
0
  0
LINE
  5
319
100
AcDbEntity
  8
0
100
AcDbLine
  6
BYLAYER
 10
114
 20
36
 11
114
 21
0
  0
TEXT
  5
31A
100
AcDbEntity
  8
0
100
AcDbText
  6
BYLAYER
 10
100.4
 20
1.6
 40
3
  1
ｹﾏ ｸｹ
  7
Font_0
100
AcDbText
  0
TEXT
  5
31B
100
AcDbEntity
  8
0
100
AcDbText
  6
BYLAYER
 10
100.4
 20
31.6
 40
3
  1
･D ｺﾞ
  7
Font_0
100
AcDbText
  0
TEXT
  5
31C
100
AcDbEntity
  8
0
100
AcDbText
  6
BYLAYER
 10
100.4
 20
19.6
 40
3
  1
ﾃｸ ｹﾏ
  7
Font_0
100
AcDbText
  0
TEXT
  5
31D
100
AcDbEntity
  8
0
100
AcDbText
  6
BYLAYER
 10
100.4
 20
13.8
 40
3
  1
ｾ� ｺﾘ
  7
Font_0
100
AcDbText
  0
TEXT
  5
31E
100
AcDbEntity
  8
0
100
AcDbText
  6
BYLAYER
 10
100.4
 20
25.4
 40
3
  1
ｮﾖ ｹ�
  7
Font_0
100
AcDbText
  0
LINE
  5
31F
100
AcDbEntity
  8
0
100
AcDbLine
  6
BYLAYER
 10
163
 20
36
 11
163
 21
0
  0
TEXT
  5
320
100
AcDbEntity
  8
0
100
AcDbText
  6
BYLAYER
 10
146.967830348543
 20
7.5
 40
3
  1
ｪ揵ｱｳBｲz
  7
Font_0
100
AcDbText
  0
TEXT
  5
321
100
AcDbEntity
  8
0
100
AcDbText
  6
BYLAYER
 10
146.967830348543
 20
1.5
 40
3
  1
ｻsｹﾏ､魘ﾁ
  7
Font_0
100
AcDbText
  0
TEXT
  5
322
100
AcDbEntity
  8
0
100
AcDbText
  6
BYLAYER
 10
148.5
 20
31.5
 40
3
  1
ｧ� ｽ�
  7
Font_0
100
AcDbText
  0
TEXT
  5
323
100
AcDbEntity
  8
0
100
AcDbText
  6
BYLAYER
 10
148.5
 20
19.5
 40
3
  1
ｼﾆ ｶq
  7
Font_0
100
AcDbText
  0
TEXT
  5
324
100
AcDbEntity
  8
0
100
AcDbText
  6
BYLAYER
 10
148.5
 20
13.5
 40
3
  1
ｳ� ｦ�
  7
Font_0
100
AcDbText
  0
TEXT
  5
325
100
AcDbEntity
  8
0
100
AcDbText
  6
BYLAYER
 10
148.5
 20
25.5
 40
3
  1
､� ｨﾒ
  7
Font_0
100
AcDbText
  0
TEXT
  5
326
100
AcDbEntity
  8
0
100
AcDbText
  6
BYLAYER
 10
200.830454348633
 20
31.5
 40
3
  1
､魘ﾁ
  7
Font_0
100
AcDbText
  0
LINE
  5
327
100
AcDbEntity
  8
0
100
AcDbLine
  6
BYLAYER
 10
269.7178125
 20
135.285
 11
269.7178125
 21
151.27125
  0
LINE
  5
328
100
AcDbEntity
  8
0
100
AcDbLine
  6
BYLAYER
 10
261.035625
 20
135.285
 11
261.035625
 21
151.27125
  0
LINE
  5
329
100
AcDbEntity
  8
0
100
AcDbLine
  6
BYLAYER
 10
252.3534375
 20
135.285
 11
252.3534375
 21
151.27125
  0
LINE
  5
32A
100
AcDbEntity
  8
0
100
AcDbLine
  6
BYLAYER
 10
243.67125
 20
135.285
 11
243.67125
 21
180.4875
  0
LINE
  5
32B
100
AcDbEntity
  8
0
100
AcDbLine
  6
BYLAYER
 10
221.07
 20
135.285
 11
221.07
 21
180.4875
  0
LINE
  5
32C
100
AcDbEntity
  8
0
100
AcDbLine
  6
BYLAYER
 10
216.66
 20
135.285
 11
216.66
 21
186
  0
LINE
  5
32D
100
AcDbEntity
  8
0
100
AcDbLine
  6
BYLAYER
 10
213
 20
36
 11
213
 21
0
  0
LINE
  5
32E
100
AcDbEntity
  8
0
100
AcDbLine
  6
BYLAYER
 10
232
 20
36
 11
232
 21
0
  0
TEXT
  5
32F
100
AcDbEntity
  8
0
100
AcDbText
  6
BYLAYER
 10
235
 20
31.5
 40
3
  1
ｧ�   ｧ�   ､ｺ   ｮe
  7
Font_0
100
AcDbText
  0
TEXT
  5
330
100
AcDbEntity
  8
0
100
AcDbText
  6
BYLAYER
 10
218.659856969007
 20
31.5
 40
3
  1
ｭtｳd､H
  7
Font_0
100
AcDbText
  0
LINE
  5
331
100
AcDbEntity
  8
0
100
AcDbLine
  6
BYLAYER
 10
278.4
 20
139.695
 11
221.07
 21
139.695
  0
LINE
  5
332
100
AcDbEntity
  8
0
100
AcDbLine
  6
BYLAYER
 10
278.4
 20
135.285
 11
216.66
 21
135.285
  0
TEXT
  5
333
100
AcDbEntity
  8
0
100
AcDbText
  6
BYLAYER
 10
246.15416478566
 20
128.207003496756
 40
2
  1
projection ｲﾄ､Tｨ､ｧ�ｼv
  7
Font_0
100
AcDbText
  0
LINE
  5
334
100
AcDbEntity
  8
0
100
AcDbLine
  6
BYLAYER
 10
278.4
 20
113.78625
 11
243.67125
 21
113.78625
  0
TEXT
  5
335
100
AcDbEntity
  8
0
100
AcDbText
  6
BYLAYER
 10
271.4339125
 20
144.733125
 40
1.5
  1
100･H､W
  7
Font_0
 72
1
 11
274.0589125
 21
145.483125
100
AcDbText
 73
2
  0
TEXT
  5
336
100
AcDbEntity
  8
0
100
AcDbText
  6
BYLAYER
 10
272.1839125
 20
136.74
 40
1.5
  1
±10'
  7
Font_0
 72
1
 11
274.0589125
 21
137.49
100
AcDbText
 73
2
  0
MTEXT
  5
337
100
AcDbEntity
  8
0
100
AcDbMText
 10
232.37065
 20
145.483125
 40
2
 41
  0.0
  1
､ｽｺﾙ､ﾘ､o (ｪﾗ)\Pｧｨｦｨｨ､､ｧｵuﾃ荀@､�
 71
5
  7
Font_0
  0
TEXT
  5
338
100
AcDbEntity
  8
0
100
AcDbText
  6
BYLAYER
 10
217.365
 20
147.778125
 40
3
  1
ｪｽｨ､ｫﾗ
  7
Font_1
 50
270
 11
218.865
 21
147.778125
100
AcDbText
 73
2
  0
TEXT
  5
339
100
AcDbEntity
  8
0
100
AcDbText
  6
BYLAYER
 10
227.87065
 20
135.99
 40
3
  1
ｨ､ｫﾗｮt
  7
Font_0
 72
1
 11
232.37065
 21
137.49
100
AcDbText
 73
2
  0
LINE
  5
33A
100
AcDbEntity
  8
0
100
AcDbLine
  6
BYLAYER
 10
254.802068029839
 20
115.173423624616
 11
254.802068029839
 21
126.198423624616
  0
LINE
  5
33B
100
AcDbEntity
  8
0
100
AcDbLine
  6
BYLAYER
 10
243.67125
 20
113.78625
 11
243.67125
 21
135.285
  0
CIRCLE
  5
33C
100
AcDbEntity
  8
0
100
AcDbCircle
  6
BYLAYER
 10
254.802068029839
 20
120.685923624616
 40
4.41
  0
LINE
  5
33D
100
AcDbEntity
  8
0
100
AcDbLine
  6
BYLAYER
 10
249.289568029839
 20
120.685923624616
 11
260.314568029839
 21
120.685923624616
  0
CIRCLE
  5
33E
100
AcDbEntity
  8
0
100
AcDbCircle
  6
BYLAYER
 10
254.802068029839
 20
120.685923624616
 40
2.205
  0
LINE
  5
33F
100
AcDbEntity
  8
0
100
AcDbLine
  6
BYLAYER
 10
263.194180551461
 20
120.685923624616
 11
274.770430551461
 21
120.685923624616
  0
LWPOLYLINE
  5
340
100
AcDbEntity
  8
0
100
AcDbPolyline
  6
BYLAYER
370
0
 90
     4
 70
     1
 10
264.296680551461
  20
118.480923624616
 10
273.667930551461
  20
116.275923624616
 10
273.667930551461
  20
125.095923624616
 10
264.296680551461
  20
122.890923624616
  0
TEXT
  5
341
100
AcDbEntity
  8
0
100
AcDbText
  6
BYLAYER
 10
245.828721587618
 20
131.605971951227
 40
2
  1
Third angle
  7
Font_0
100
AcDbText
  0
MTEXT
  5
342
100
AcDbEntity
  8
0
100
AcDbMText
 10
256.6945375
 20
145.483125
 40
1.5
 41
  0.0
  1
10･H､W\P50･H､U
 71
5
  7
Font_0
  0
TEXT
  5
343
100
AcDbEntity
  8
0
100
AcDbText
  6
BYLAYER
 10
246.13735
 20
136.74
 40
1.5
  1
±1°
  7
Font_0
 72
1
 11
248.01235
 21
137.49
100
AcDbText
 73
2
  0
TEXT
  5
344
100
AcDbEntity
  8
0
100
AcDbText
  6
BYLAYER
 10
254.8195375
 20
136.74
 40
1.5
  1
±30'
  7
Font_0
 72
1
 11
256.6945375
 21
137.49
100
AcDbText
 73
2
  0
TEXT
  5
345
100
AcDbEntity
  8
0
100
AcDbText
  6
BYLAYER
 10
245.76235
 20
144.733125
 40
1.5
  1
10･H､U
  7
Font_0
 72
1
 11
248.01235
 21
145.483125
100
AcDbText
 73
2
  0
TEXT
  5
346
100
AcDbEntity
  8
0
100
AcDbText
  6
BYLAYER
 10
263.501725
 20
136.74
 40
1.5
  1
±20'
  7
Font_0
 72
1
 11
265.376725
 21
137.49
100
AcDbText
 73
2
  0
MTEXT
  5
347
100
AcDbEntity
  8
0
100
AcDbMText
 10
265.376725
 20
145.483125
 40
1.5
 41
  0.0
  1
50･H､W\P100･H､U
 71
5
  7
Font_0
  0
LINE
  5
348
100
AcDbEntity
  8
0
100
AcDbLine
  6
BYLAYER
 10
221.07
 20
155.68125
 11
278.4
 21
155.68125
  0
LINE
  5
349
100
AcDbEntity
  8
0
100
AcDbLine
  6
BYLAYER
 10
221.07
 20
160.09125
 11
278.4
 21
160.09125
  0
LINE
  5
34A
100
AcDbEntity
  8
0
100
AcDbLine
  6
BYLAYER
 10
221.07
 20
164.50125
 11
278.4
 21
164.50125
  0
LINE
  5
34B
100
AcDbEntity
  8
0
100
AcDbLine
  6
BYLAYER
 10
221.07
 20
168.91125
 11
278.4
 21
168.91125
  0
LINE
  5
34C
100
AcDbEntity
  8
0
100
AcDbLine
  6
BYLAYER
 10
221.07
 20
173.32125
 11
278.4
 21
173.32125
  0
LINE
  5
34D
100
AcDbEntity
  8
0
100
AcDbLine
  6
BYLAYER
 10
216.66
 20
151.27125
 11
278.4
 21
151.27125
  0
LINE
  5
34E
100
AcDbEntity
  8
0
100
AcDbLine
  6
BYLAYER
 10
216.66
 20
180.4875
 11
278.4
 21
180.4875
  0
TEXT
  5
34F
100
AcDbEntity
  8
0
100
AcDbText
  6
BYLAYER
 10
269.1119
 20
175.154375
 40
3.5
  1
ｲﾊｯﾅ
  7
Font_0
 72
1
 11
272.6119
 21
176.904375
100
AcDbText
 73
2
  0
LINE
  5
350
100
AcDbEntity
  8
0
100
AcDbLine
  6
BYLAYER
 10
243.67125
 20
173.32125
 11
232.06971689676
 21
180.4875
  0
TEXT
  5
351
100
AcDbEntity
  8
0
100
AcDbText
  6
BYLAYER
 10
230.03
 20
181.49375
 40
3.5
  1
ｦｨ ｫ~ ､ｧ ｴｶ ｳq ､ｽ ｮt
  7
Font_0
 72
1
 11
247.53
 21
183.24375
100
AcDbText
 73
2
  0
TEXT
  5
352
100
AcDbEntity
  8
0
100
AcDbText
  6
BYLAYER
 10
228.24565
 20
170.36625
 40
1.5
  1
1･H､W~4･H､U
  7
Font_0
 72
1
 11
232.37065
 21
171.11625
100
AcDbText
 73
2
  0
TEXT
  5
353
100
AcDbEntity
  8
0
100
AcDbText
  6
BYLAYER
 10
227.49565
 20
161.54625
 40
1.5
  1
16･H､W~63･H､U
  7
Font_0
 72
1
 11
232.37065
 21
162.29625
100
AcDbText
 73
2
  0
TEXT
  5
354
100
AcDbEntity
  8
0
100
AcDbText
  6
BYLAYER
 10
227.12065
 20
157.13625
 40
1.5
  1
63･H､W~250･H､U
  7
Font_0
 72
1
 11
232.37065
 21
157.88625
100
AcDbText
 73
2
  0
TEXT
  5
355
100
AcDbEntity
  8
0
100
AcDbText
  6
BYLAYER
 10
226.37065
 20
152.72625
 40
1.5
  1
250･H､W~1000･H､U
  7
Font_0
 72
1
 11
232.37065
 21
153.47625
100
AcDbText
 73
2
  0
MTEXT
  5
356
100
AcDbEntity
  8
0
100
AcDbMText
 10
218.865
 20
168.879375
 40
3
 41
  0.0
  1
ｪﾗ
 71
4
  7
Font_1
 11
-1.83690953073357E-16
 21
-1
  0
TEXT
  5
357
100
AcDbEntity
  8
0
100
AcDbText
  6
BYLAYER
 10
227.87065
 20
165.95625
 40
1.5
  1
4･H､W~16･H､U
  7
Font_0
 72
1
 11
232.37065
 21
166.70625
100
AcDbText
 73
2
  0
TEXT
  5
358
100
AcDbEntity
  8
0
100
AcDbText
  6
BYLAYER
 10
221.354797302298
 20
174.015263609177
 40
1.7
  1
､ｽｺﾙ､ﾘ､oｹｺ､ﾀm/m
  7
Font_0
100
AcDbText
  0
TEXT
  5
359
100
AcDbEntity
  8
0
100
AcDbText
  6
BYLAYER
 10
237.865638127741
 20
177.454836298923
 40
1.7
  1
ｵ･ｯﾅ
  7
Font_0
100
AcDbText
  0
LINE
  5
35A
100
AcDbEntity
  8
0
100
AcDbLine
  6
BYLAYER
 10
266.82375
 20
151.27125
 11
266.82375
 21
180.4875
  0
LINE
  5
35B
100
AcDbEntity
  8
0
100
AcDbLine
  6
BYLAYER
 10
255.2475
 20
151.27125
 11
255.2475
 21
180.4875
  0
TEXT
  5
35C
100
AcDbEntity
  8
0
100
AcDbText
  6
BYLAYER
 10
247.2094
 20
170.36625
 40
1.5
  1
±0.05
  7
Font_0
 72
1
 11
249.4594
 21
171.11625
100
AcDbText
 73
2
  0
TEXT
  5
35D
100
AcDbEntity
  8
0
100
AcDbText
  6
BYLAYER
 10
258.78565
 20
170.36625
 40
1.5
  1
±0.10
  7
Font_0
 72
1
 11
261.03565
 21
171.11625
100
AcDbText
 73
2
  0
TEXT
  5
35E
100
AcDbEntity
  8
0
100
AcDbText
  6
BYLAYER
 10
270.3619
 20
170.36625
 40
1.5
  1
±0.30
  7
Font_0
 72
1
 11
272.6119
 21
171.11625
100
AcDbText
 73
2
  0
TEXT
  5
35F
100
AcDbEntity
  8
0
100
AcDbText
  6
BYLAYER
 10
258.78565
 20
165.95625
 40
1.5
  1
±0.20
  7
Font_0
 72
1
 11
261.03565
 21
166.70625
100
AcDbText
 73
2
  0
TEXT
  5
360
100
AcDbEntity
  8
0
100
AcDbText
  6
BYLAYER
 10
258.78565
 20
161.54625
 40
1.5
  1
±0.30
  7
Font_0
 72
1
 11
261.03565
 21
162.29625
100
AcDbText
 73
2
  0
TEXT
  5
361
100
AcDbEntity
  8
0
100
AcDbText
  6
BYLAYER
 10
258.78565
 20
157.13625
 40
1.5
  1
±0.50
  7
Font_0
 72
1
 11
261.03565
 21
157.88625
100
AcDbText
 73
2
  0
TEXT
  5
362
100
AcDbEntity
  8
0
100
AcDbText
  6
BYLAYER
 10
258.78565
 20
152.72625
 40
1.5
  1
±0.80
  7
Font_0
 72
1
 11
261.03565
 21
153.47625
100
AcDbText
 73
2
  0
TEXT
  5
363
100
AcDbEntity
  8
0
100
AcDbText
  6
BYLAYER
 10
247.2094
 20
157.13625
 40
1.5
  1
±0.20
  7
Font_0
 72
1
 11
249.4594
 21
157.88625
100
AcDbText
 73
2
  0
TEXT
  5
364
100
AcDbEntity
  8
0
100
AcDbText
  6
BYLAYER
 10
247.2094
 20
152.72625
 40
1.5
  1
±0.30
  7
Font_0
 72
1
 11
249.4594
 21
153.47625
100
AcDbText
 73
2
  0
TEXT
  5
365
100
AcDbEntity
  8
0
100
AcDbText
  6
BYLAYER
 10
247.2094
 20
165.95625
 40
1.5
  1
±0.07
  7
Font_0
 72
1
 11
249.4594
 21
166.70625
100
AcDbText
 73
2
  0
TEXT
  5
366
100
AcDbEntity
  8
0
100
AcDbText
  6
BYLAYER
 10
247.2094
 20
161.54625
 40
1.5
  1
±0.10
  7
Font_0
 72
1
 11
249.4594
 21
162.29625
100
AcDbText
 73
2
  0
TEXT
  5
367
100
AcDbEntity
  8
0
100
AcDbText
  6
BYLAYER
 10
270.3619
 20
152.72625
 40
1.5
  1
±2.00
  7
Font_0
 72
1
 11
272.6119
 21
153.47625
100
AcDbText
 73
2
  0
TEXT
  5
368
100
AcDbEntity
  8
0
100
AcDbText
  6
BYLAYER
 10
270.3619
 20
157.13625
 40
1.5
  1
±1.20
  7
Font_0
 72
1
 11
272.6119
 21
157.88625
100
AcDbText
 73
2
  0
TEXT
  5
369
100
AcDbEntity
  8
0
100
AcDbText
  6
BYLAYER
 10
270.3619
 20
161.54625
 40
1.5
  1
±0.70
  7
Font_0
 72
1
 11
272.6119
 21
162.29625
100
AcDbText
 73
2
  0
TEXT
  5
36A
100
AcDbEntity
  8
0
100
AcDbText
  6
BYLAYER
 10
270.3619
 20
165.95625
 40
1.5
  1
±0.50
  7
Font_0
 72
1
 11
272.6119
 21
166.70625
100
AcDbText
 73
2
  0
TEXT
  5
36B
100
AcDbEntity
  8
0
100
AcDbText
  6
BYLAYER
 10
257.5356
 20
175.154375
 40
3.5
  1
､､ｯﾅ
  7
Font_0
 72
1
 11
261.0356
 21
176.904375
100
AcDbText
 73
2
  0
TEXT
  5
36C
100
AcDbEntity
  8
0
100
AcDbText
  6
BYLAYER
 10
245.9594
 20
175.154375
 40
3.5
  1
ｲﾓｯﾅ
  7
Font_0
 72
1
 11
249.4594
 21
176.904375
100
AcDbText
 73
2
  0
LWPOLYLINE
  5
36D
100
AcDbEntity
  8
0
100
AcDbPolyline
  6
BYLAYER
370
20
 90
     4
 70
     1
 10
0
  20
0
 10
0
  20
186
 10
278.4
  20
186
 10
278.4
  20
0
  0
LWPOLYLINE
  5
36E
100
AcDbEntity
  8
0
100
AcDbPolyline
  6
BYLAYER
370
20
 90
     2
 10
0
  20
36
 10
278.4
  20
36
  0
LWPOLYLINE
  5
36F
100
AcDbEntity
  8
0
100
AcDbPolyline
  6
BYLAYER
370
20
 90
     2
 10
195.15
  20
36
 10
195.15
  20
0
  0
LWPOLYLINE
  5
370
100
AcDbEntity
  8
0
100
AcDbPolyline
  6
BYLAYER
370
20
 90
     2
 10
96.85
  20
36
 10
96.85
  20
0
  0
ENDBLK
  5
371
100
AcDbEntity
  8
0
 67
     1
100
AcDbBlockEnd
  0
BLOCK
  5
372
100
AcDbEntity
  8
0
100
AcDbBlockBegin
  2
JAME
 70
    0
 10
0
 20
0
 30
0.0
  3
JAME
  1

  0
TEXT
  5
373
100
AcDbEntity
  8
0
100
AcDbText
  6
BYLAYER
 10
200.830454348633
 20
31.5
 40
3
  1
､魘ﾁ
  7
Font_0
100
AcDbText
  0
LINE
  5
374
100
AcDbEntity
  8
0
100
AcDbLine
  6
BYLAYER
 10
0
 20
12
 11
278.4
 21
12
  0
LINE
  5
375
100
AcDbEntity
  8
0
100
AcDbLine
  6
BYLAYER
 10
0
 20
6
 11
278.4
 21
6
  0
LINE
  5
376
100
AcDbEntity
  8
0
100
AcDbLine
  6
BYLAYER
 10
0
 20
0
 11
278.4
 21
0
  0
LINE
  5
377
100
AcDbEntity
  8
0
100
AcDbLine
  6
BYLAYER
 10
96.85
 20
30
 11
278.4
 21
30
  0
LINE
  5
378
100
AcDbEntity
  8
0
100
AcDbLine
  6
BYLAYER
 10
96.85
 20
24
 11
278.4
 21
24
  0
LINE
  5
379
100
AcDbEntity
  8
0
100
AcDbLine
  6
BYLAYER
 10
96.85
 20
18
 11
278.4
 21
18
  0
LWPOLYLINE
  5
37A
100
AcDbEntity
  8
0
100
AcDbPolyline
  6
BYLAYER
370
0
 90
     2
 70
     1
 10
0
  20
36
 10
278.4
  20
36
  0
LWPOLYLINE
  5
37B
100
AcDbEntity
  8
0
100
AcDbPolyline
  6
BYLAYER
 90
     2
 70
     1
 10
278.4
  20
186
 10
0
  20
186
  0
LINE
  5
37C
100
AcDbEntity
  8
0
100
AcDbLine
  6
BYLAYER
 10
0
 20
0
 11
0
 21
186
  0
TEXT
  5
37D
100
AcDbEntity
  8
0
100
AcDbText
  6
BYLAYER
 10
63.8643398403977
 20
7.09411371042404
 40
2.8
  1
(04)23322629
  7
Font_0
100
AcDbText
  0
TEXT
  5
37E
100
AcDbEntity
  8
0
100
AcDbText
  6
BYLAYER
 10
22.1680110084321
 20
15.7553550725962
 40
2.8
  1
CAM YORK INDUSTRIAL CO.,LTD.
  7
Font_0
100
AcDbText
  0
TEXT
  5
37F
100
AcDbEntity
  8
0
100
AcDbText
  6
BYLAYER
 10
22.0468952754036
 20
26
 40
7
  1
ｫﾘｷﾔ､uｷ~ｪﾑ･ｳｭｭ､ｽ･q
  7
Font_0
100
AcDbText
  0
ARC
  5
380
100
AcDbEntity
  8
0
100
AcDbCircle
  6
BYLAYER
 10
5.4252294212235
 20
17.1818752606574
 40
0.704372460813671
100
AcDbArc
 50
233.852980631667
 51
29.2500716369477
  0
TEXT
  5
381
100
AcDbEntity
  8
0
100
AcDbText
  6
BYLAYER
 10
3.5
 20
1.5
 40
3
  1
ｳﾆｵ�
  7
Font_0
 72
1
 11
6.5
 21
3
100
AcDbText
 73
2
  0
TEXT
  5
382
100
AcDbEntity
  8
0
100
AcDbText
  6
BYLAYER
 10
2.6
 20
7.3
 40
3
  1
TEL
  7
Font_0
100
AcDbText
  0
ARC
  5
383
100
AcDbEntity
  8
0
100
AcDbCircle
  6
BYLAYER
 10
10.1054905349494
 20
24.350263158651
 40
4.41008790801462
100
AcDbArc
 50
90
 51
0
  0
CIRCLE
  5
384
100
AcDbEntity
  8
0
100
AcDbCircle
  6
BYLAYER
 10
10.1054905349494
 20
24.350263158651
 40
7.62237416200057
  0
CIRCLE
  5
385
100
AcDbEntity
  8
0
100
AcDbCircle
  6
BYLAYER
 10
10.1054905349494
 20
24.350263158651
 40
9.36463111331499
  0
ARC
  5
386
100
AcDbEntity
  8
0
100
AcDbCircle
  6
BYLAYER
 10
6.23761506796892
 20
31.9876821284788
 40
0.704372460813671
100
AcDbArc
 50
113.852980631667
 51
269.250071636948
  0
ARC
  5
387
100
AcDbEntity
  8
0
100
AcDbCircle
  6
BYLAYER
 10
2.46807156512152
 20
20.4823876916705
 40
0.704372460813671
100
AcDbArc
 50
203.852980631667
 51
359.250071636948
  0
ARC
  5
388
100
AcDbEntity
  8
0
100
AcDbCircle
  6
BYLAYER
 10
1.55735395424306
 20
24.8192942304852
 40
0.704372460813671
100
AcDbArc
 50
173.852980631667
 51
329.250071636948
  0
ARC
  5
389
100
AcDbEntity
  8
0
100
AcDbCircle
  6
BYLAYER
 10
2.93710263695578
 20
29.0305242723768
 40
0.704372460813671
100
AcDbArc
 50
143.852980631667
 51
299.250071636948
  0
LINE
  5
38A
100
AcDbEntity
  8
0
100
AcDbLine
  6
BYLAYER
 10
62
 20
12
 11
62
 21
6
  0
TEXT
  5
38B
100
AcDbEntity
  8
0
100
AcDbText
  6
BYLAYER
 10
51.8
 20
7.2
 40
3
  1
FAX
  7
Font_0
100
AcDbText
  0
LINE
  5
38C
100
AcDbEntity
  8
0
100
AcDbLine
  6
BYLAYER
 10
49.4
 20
12
 11
49.4
 21
6
  0
TEXT
  5
38D
100
AcDbEntity
  8
0
100
AcDbText
  6
BYLAYER
 10
43.3478047909238
 20
7.2
 40
2.8
  1
~8
  7
Font_0
100
AcDbText
  0
LINE
  5
38E
100
AcDbEntity
  8
0
100
AcDbLine
  6
BYLAYER
 10
11.8
 20
12
 11
11.8
 21
0
  0
TEXT
  5
38F
100
AcDbEntity
  8
0
100
AcDbText
  6
BYLAYER
 10
12.8764304985659
 20
7.2
 40
2.8
  1
(04)23322627
  7
Font_0
100
AcDbText
  0
ARC
  5
390
100
AcDbEntity
  8
0
100
AcDbCircle
  6
BYLAYER
 10
14.7857516486752
 20
31.5186510566446
 40
0.704372460813671
100
AcDbArc
 50
53.8529806316668
 51
209.250071636948
  0
ARC
  5
391
100
AcDbEntity
  8
0
100
AcDbCircle
  6
BYLAYER
 10
10.5745216067836
 20
32.8983997393573
 40
0.704372460813671
100
AcDbArc
 50
83.8529806316668
 51
239.250071636948
  0
ARC
  5
392
100
AcDbEntity
  8
0
100
AcDbCircle
  6
BYLAYER
 10
13.9733660019298
 20
16.7128441888231
 40
0.704372460813671
100
AcDbArc
 50
293.852980631667
 51
89.2500716369476
  0
ARC
  5
393
100
AcDbEntity
  8
0
100
AcDbCircle
  6
BYLAYER
 10
9.63645946311512
 20
15.8021265779447
 40
0.704372460813671
100
AcDbArc
 50
263.852980631667
 51
59.2500716369476
  0
ARC
  5
394
100
AcDbEntity
  8
0
100
AcDbCircle
  6
BYLAYER
 10
17.273878432943
 20
19.6700020449251
 40
0.704372460813671
100
AcDbArc
 50
323.852980631667
 51
119.250071636948
  0
LINE
  5
395
100
AcDbEntity
  8
0
100
AcDbLine
  6
BYLAYER
 10
14.515578442964
 20
24.350263158651
 11
15.4411524483498
 21
24.350263158651
  0
LINE
  5
396
100
AcDbEntity
  8
0
100
AcDbLine
  6
BYLAYER
 10
10.1054905349494
 20
28.7603510666656
 11
15.2233703294355
 21
28.7603510666656
  0
TEXT
  5
397
100
AcDbEntity
  8
0
100
AcDbText
  6
BYLAYER
 10
7.49210581170385
 20
21.8477388856442
 40
5
  1
Y
  7
Font_0
100
AcDbText
  0
ARC
  5
398
100
AcDbEntity
  8
0
100
AcDbCircle
  6
BYLAYER
 10
18.6536271156557
 20
23.8812320868167
 40
0.704372460813671
100
AcDbArc
 50
353.852980631667
 51
149.250071636947
  0
ARC
  5
399
100
AcDbEntity
  8
0
100
AcDbCircle
  6
BYLAYER
 10
17.7429095047772
 20
28.2181386256314
 40
0.704372460813671
100
AcDbArc
 50
23.8529806316668
 51
179.250071636948
  0
LINE
  5
39A
100
AcDbEntity
  8
0
100
AcDbLine
  6
BYLAYER
 10
114
 20
36
 11
114
 21
0
  0
TEXT
  5
39B
100
AcDbEntity
  8
0
100
AcDbText
  6
BYLAYER
 10
100.4
 20
7.4
 40
3
  1
ｫ~ ｦW
  7
Font_0
100
AcDbText
  0
LINE
  5
39C
100
AcDbEntity
  8
0
100
AcDbLine
  6
BYLAYER
 10
97.15
 20
36
 11
97.15
 21
0
  0
LINE
  5
39D
100
AcDbEntity
  8
0
100
AcDbLine
  6
BYLAYER
 10
96.85
 20
36
 11
96.85
 21
0
  0
LWPOLYLINE
  5
39E
100
AcDbEntity
  8
0
100
AcDbPolyline
  6
BYLAYER
370
0
 90
     4
 10
96.85
  20
36
 10
96.85
  20
0
 10
97.15
  20
0
 10
97.15
  20
36
  0
TEXT
  5
39F
100
AcDbEntity
  8
0
100
AcDbText
  6
BYLAYER
 10
100.4
 20
1.6
 40
3
  1
ｹﾏ ｸｹ
  7
Font_0
100
AcDbText
  0
TEXT
  5
3A0
100
AcDbEntity
  8
0
100
AcDbText
  6
BYLAYER
 10
100.4
 20
31.6
 40
3
  1
･D ｺﾞ
  7
Font_0
100
AcDbText
  0
TEXT
  5
3A1
100
AcDbEntity
  8
0
100
AcDbText
  6
BYLAYER
 10
100.4
 20
19.6
 40
3
  1
ﾃｸ ｹﾏ
  7
Font_0
100
AcDbText
  0
TEXT
  5
3A2
100
AcDbEntity
  8
0
100
AcDbText
  6
BYLAYER
 10
100.4
 20
25.4
 40
3
  1
ｮﾖ ｹ�
  7
Font_0
100
AcDbText
  0
TEXT
  5
3A3
100
AcDbEntity
  8
0
100
AcDbText
  6
BYLAYER
 10
100.316862435203
 20
13.8
 40
3
  1
ｾ� ｺﾘ
  7
Font_0
100
AcDbText
  0
LINE
  5
3A4
100
AcDbEntity
  8
0
100
AcDbLine
  6
BYLAYER
 10
195.15
 20
36
 11
195.15
 21
0
  0
LINE
  5
3A5
100
AcDbEntity
  8
0
100
AcDbLine
  6
BYLAYER
 10
194.85
 20
36
 11
194.85
 21
0
  0
LINE
  5
3A6
100
AcDbEntity
  8
0
100
AcDbLine
  6
BYLAYER
 10
195.025
 20
36
 11
195.025
 21
0
  0
TEXT
  5
3A7
100
AcDbEntity
  8
0
100
AcDbText
  6
BYLAYER
 10
146.967830348543
 20
7.5
 40
3
  1
ｻsｹﾏ､魘ﾁ
  7
Font_0
100
AcDbText
  0
LINE
  5
3A8
100
AcDbEntity
  8
0
100
AcDbLine
  6
BYLAYER
 10
163
 20
36
 11
163
 21
0
  0
LINE
  5
3A9
100
AcDbEntity
  8
0
100
AcDbLine
  6
BYLAYER
 10
144
 20
36
 11
144
 21
0
  0
TEXT
  5
3AA
100
AcDbEntity
  8
0
100
AcDbText
  6
BYLAYER
 10
147.076922819997
 20
1.5
 40
3
  1
ｹqｸ｣ｽsｸｹ
  7
Font_0
100
AcDbText
  0
TEXT
  5
3AB
100
AcDbEntity
  8
0
100
AcDbText
  6
BYLAYER
 10
148.5
 20
31.5
 40
3
  1
ｧ� ｽ�
  7
Font_0
100
AcDbText
  0
TEXT
  5
3AC
100
AcDbEntity
  8
0
100
AcDbText
  6
BYLAYER
 10
148.5
 20
25.5
 40
3
  1
ｼﾆ ｶq
  7
Font_0
100
AcDbText
  0
TEXT
  5
3AD
100
AcDbEntity
  8
0
100
AcDbText
  6
BYLAYER
 10
148.5
 20
19.5
 40
3
  1
ｳ� ｦ�
  7
Font_0
100
AcDbText
  0
TEXT
  5
3AE
100
AcDbEntity
  8
0
100
AcDbText
  6
BYLAYER
 10
146.967830348543
 20
13.5
 40
3
  1
ｪ揵ｱｳBｲz
  7
Font_0
100
AcDbText
  0
LINE
  5
3AF
100
AcDbEntity
  8
0
100
AcDbLine
  6
BYLAYER
 10
278.4
 20
186
 11
278.4
 21
0
  0
TEXT
  5
3B0
100
AcDbEntity
  8
0
100
AcDbText
  6
BYLAYER
 10
235
 20
31.5
 40
3
  1
ｧ�   ｧ�   ､ｺ   ｮe
  7
Font_0
100
AcDbText
  0
LINE
  5
3B1
100
AcDbEntity
  8
0
100
AcDbLine
  6
BYLAYER
 10
232
 20
36
 11
232
 21
0
  0
LINE
  5
3B2
100
AcDbEntity
  8
0
100
AcDbLine
  6
BYLAYER
 10
213
 20
36
 11
213
 21
0
  0
TEXT
  5
3B3
100
AcDbEntity
  8
0
100
AcDbText
  6
BYLAYER
 10
218.659856969007
 20
31.5
 40
3
  1
ｭtｳd､H
  7
Font_0
100
AcDbText
  0
ENDBLK
  5
3B4
100
AcDbEntity
  8
0
 67
     1
100
AcDbBlockEnd
  0
BLOCK
  5
3B5
100
AcDbEntity
  8
0
100
AcDbBlockBegin
  2
GENAXEH
 70
    0
 10
0
 20
0
 30
0.0
  3
GENAXEH
  1

  0
LINE
  5
3B6
100
AcDbEntity
  8
0
100
AcDbLine
  6
BYLAYER
 10
-1
 20
0
 11
1
 21
0
  0
ENDBLK
  5
3B7
100
AcDbEntity
  8
0
 67
     1
100
AcDbBlockEnd
  0
BLOCK
  5
3B8
100
AcDbEntity
  8
0
100
AcDbBlockBegin
  2
A$C36D836D4
 70
    0
 10
0
 20
0
 30
0.0
  3
A$C36D836D4
  1

  0
LINE
  5
3B9
100
AcDbEntity
  8
BASE
100
AcDbLine
  6
BYLAYER
 10
-156.592114756201
 20
-85.2890618578437
 11
-73.3421147562014
 21
-85.2890618578437
  0
LINE
  5
3BA
100
AcDbEntity
  8
BASE
100
AcDbLine
  6
BYLAYER
 10
-156.592114756201
 20
-91.2890618578437
 11
-73.3421147562014
 21
-91.2890618578437
  0
LINE
  5
3BB
100
AcDbEntity
  8
BASE
100
AcDbLine
  6
BYLAYER
 10
-156.592114756201
 20
-97.2890618578437
 11
-73.3421147562014
 21
-97.2890618578437
  0
LINE
  5
3BC
100
AcDbEntity
  8
BASE
100
AcDbLine
  6
BYLAYER
 10
-156.592114756201
 20
-103.289061857844
 11
-73.3421147562014
 21
-103.289061857844
  0
LINE
  5
3BD
100
AcDbEntity
  8
BASE
100
AcDbLine
  6
BYLAYER
 10
-156.592114756201
 20
-109.289061857844
 11
-73.3421147562014
 21
-109.289061857844
  0
LINE
  5
3BE
100
AcDbEntity
  8
BASE
100
AcDbLine
  6
BYLAYER
 10
-156.592114756201
 20
-115.289061857844
 11
-73.3421147562014
 21
-115.289061857844
  0
LINE
  5
3BF
100
AcDbEntity
  8
BASE
100
AcDbLine
  6
BYLAYER
 10
-156.592114756201
 20
-121.289061857844
 11
-73.3421147562014
 21
-121.289061857844
  0
LINE
  5
3C0
100
AcDbEntity
  8
BASE
100
AcDbLine
  6
BYLAYER
 10
-156.592114756201
 20
-127.289061857844
 11
-73.3421147562014
 21
-127.289061857844
  0
LINE
  5
3C1
100
AcDbEntity
  8
BASE
100
AcDbLine
  6
BYLAYER
 10
-146.592114756201
 20
-85.2890618578437
 11
-146.592114756201
 21
-133.289061857844
  0
LINE
  5
3C2
100
AcDbEntity
  8
BASE
100
AcDbLine
  6
BYLAYER
 10
-156.592114756201
 20
-85.2890618578437
 11
-156.592114756201
 21
-133.289061857844
  0
LINE
  5
3C3
100
AcDbEntity
  8
BASE
100
AcDbLine
  6
BYLAYER
 10
-136.592114756201
 20
-85.2890618578437
 11
-136.592114756201
 21
-133.289061857844
  0
TEXT
  5
3C4
100
AcDbEntity
  8
BASE
100
AcDbText
  6
BYLAYER
 10
-152.287315422519
 20
-120.581955076657
 40
3.5
  1
B
  7
Font_0
 72
1
 11
-151.412315422519
 21
-120.581955076657
100
AcDbText
  0
TEXT
  5
3C5
100
AcDbEntity
  8
BASE
100
AcDbText
  6
BYLAYER
 10
-154.338363967876
 20
-132.581955076657
 40
3.5
  1
ｶｵｦｸ
  7
Font_0
 72
1
 11
-150.838363967876
 21
-132.581955076657
100
AcDbText
  0
TEXT
  5
3C6
100
AcDbEntity
  8
BASE
100
AcDbText
  6
BYLAYER
 10
-151.961433062886
 20
-126.581955076657
 40
3.5
  1
A
  7
Font_0
 72
1
 11
-151.086433062886
 21
-126.581955076657
100
AcDbText
  0
TEXT
  5
3C7
100
AcDbEntity
  8
0
100
AcDbText
  6
BYLAYER
 10
-125.857609278239
 20
-132.019757538773
 40
3.5
  1
ｹﾏ
  7
Font_0
 11
-125.857609278239
 21
-128.519757538773
100
AcDbText
 73
3
  0
TEXT
  5
3C8
100
AcDbEntity
  8
0
100
AcDbText
  6
BYLAYER
 10
-112.160031551964
 20
-132.156603581708
 40
3.5
  1
ｸｹ
  7
Font_0
 11
-112.160031551964
 21
-128.656603581708
100
AcDbText
 73
3
  0
TEXT
  5
3C9
100
AcDbEntity
  8
BASE
100
AcDbText
  6
BYLAYER
 10
-152.150339695197
 20
-114.581955076657
 40
3.5
  1
C
  7
Font_0
 72
1
 11
-151.275339695197
 21
-114.581955076657
100
AcDbText
  0
LINE
  5
3CA
100
AcDbEntity
  8
BASE
100
AcDbLine
  6
BYLAYER
 10
-92.7050670689118
 20
-85.2890618578437
 11
-92.7050670689118
 21
-133.289061857844
  0
LINE
  5
3CB
100
AcDbEntity
  8
BASE
100
AcDbLine
  6
BYLAYER
 10
-82.7050670689118
 20
-85.2890618578437
 11
-82.7050670689118
 21
-133.289061857844
  0
TEXT
  5
3CC
100
AcDbEntity
  8
0
100
AcDbText
  6
BYLAYER
 10
-91.2050670689118
 20
-132.72329119719
 40
3.5
  1
ｪｩ･ｻ
  7
Font_0
 72
1
 11
-87.7050670689118
 21
-130.97329119719
100
AcDbText
 73
2
  0
TEXT
  5
3CD
100
AcDbEntity
  8
BASE
100
AcDbText
  6
BYLAYER
 10
-81.5235909125566
 20
-132.581955076657
 40
3.5
  1
ｼﾆｶq
  7
Font_0
 72
1
 11
-78.0235909125566
 21
-132.581955076657
100
AcDbText
  0
TEXT
  5
3CE
100
AcDbEntity
  8
BASE
100
AcDbText
  6
BYLAYER
 10
-79.1985909125566
 20
-126.581955076657
 40
3.5
  1
1
  7
Font_0
 72
1
 11
-78.3235909125566
 21
-126.581955076657
100
AcDbText
  0
TEXT
  5
3CF
100
AcDbEntity
  8
BASE
100
AcDbText
  6
BYLAYER
 10
-79.1985909125566
 20
-120.581955076657
 40
3.5
  1
1
  7
Font_0
 72
1
 11
-78.3235909125566
 21
-120.581955076657
100
AcDbText
  0
TEXT
  5
3D0
100
AcDbEntity
  8
BASE
100
AcDbText
  6
BYLAYER
 10
-79.1985909125566
 20
-114.581955076657
 40
3.5
  1
1
  7
Font_0
 72
1
 11
-78.3235909125566
 21
-114.581955076657
100
AcDbText
  0
ENDBLK
  5
3D1
100
AcDbEntity
  8
0
 67
     1
100
AcDbBlockEnd
  0
BLOCK
  5
3D2
100
AcDbEntity
  8
0
100
AcDbBlockBegin
  2
A$C520435C5
 70
    0
 10
0
 20
0
 30
0.0
  3
A$C520435C5
  1

  0
LINE
  5
3D3
100
AcDbEntity
  8
CEN
100
AcDbLine
  6
BYLAYER
 10
42.4999999576461
 20
37.5000000875314
 11
42.4999999576461
 21
8.75313617E-8
  0
CIRCLE
  5
3D4
100
AcDbEntity
  8
BASE
100
AcDbCircle
  6
BYLAYER
 10
42.4999999576461
 20
42.5000000875313
 40
31.25
  0
CIRCLE
  5
3D5
100
AcDbEntity
  8
BASE
100
AcDbCircle
  6
BYLAYER
 10
42.4999999576461
 20
42.5000000875313
 40
8
  0
CIRCLE
  5
3D6
100
AcDbEntity
  8
BASE
100
AcDbCircle
  6
BYLAYER
 10
42.4999999576461
 20
42.5000000875313
 40
25.5
  0
CIRCLE
  5
3D7
100
AcDbEntity
  8
BASE
100
AcDbCircle
  6
BYLAYER
 10
42.4999999576461
 20
42.5000000875313
 40
28.5
  0
CIRCLE
  5
3D8
100
AcDbEntity
  8
BASE
100
AcDbCircle
  6
BYLAYER
 10
42.4999999576461
 20
42.5000000875313
 40
16.25
  0
CIRCLE
  5
3D9
100
AcDbEntity
  8
BASE
100
AcDbCircle
  6
BYLAYER
 10
42.4999999576461
 20
42.5000000875313
 40
14
  0
LINE
  5
3DA
100
AcDbEntity
  8
CEN
100
AcDbLine
  6
BYLAYER
 10
47.4999999576461
 20
42.5000000875313
 11
84.9999999576461
 21
42.5000000875313
  0
LINE
  5
3DB
100
AcDbEntity
  8
CEN
100
AcDbLine
  6
BYLAYER
 10
42.4999999576461
 20
47.5000000875313
 11
42.4999999576461
 21
85.0000000875314
  0
LINE
  5
3DC
100
AcDbEntity
  8
CEN
100
AcDbLine
  6
BYLAYER
 10
37.4999999576461
 20
42.5000000875313
 11
-4.23538893E-8
 21
42.5000000875313
  0
LINE
  5
3DD
100
AcDbEntity
  8
HIDDEN
100
AcDbLine
  6
BYLAYER
 10
40.4999999576461
 20
50.2459667799462
 11
40.4999999576461
 21
44.7360680650312
  0
LINE
  5
3DE
100
AcDbEntity
  8
HIDDEN
100
AcDbLine
  6
BYLAYER
 10
44.4999999576461
 20
50.2459667799462
 11
44.4999999576461
 21
44.7360680650312
  0
LINE
  5
3DF
100
AcDbEntity
  8
HIDDEN
100
AcDbLine
  6
BYLAYER
 10
41.2999999576461
 20
50.4094880608454
 11
41.2999999576461
 21
45.2495455045049
  0
LINE
  5
3E0
100
AcDbEntity
  8
HIDDEN
100
AcDbLine
  6
BYLAYER
 10
43.6999999576461
 20
50.4094880608454
 11
43.6999999576461
 21
45.2495455045049
  0
LINE
  5
3E1
100
AcDbEntity
  8
CEN
100
AcDbLine
  6
BYLAYER
 10
42.4999999576461
 20
40.0000000875313
 11
42.4999999576461
 21
45.0000000875313
  0
CIRCLE
  5
3E2
100
AcDbEntity
  8
BASE
100
AcDbCircle
  6
BYLAYER
 10
42.4999999576461
 20
42.5000000875313
 40
3
  0
LINE
  5
3E3
100
AcDbEntity
  8
CEN
100
AcDbLine
  6
BYLAYER
 10
39.9999999576461
 20
42.5000000875313
 11
44.9999999576461
 21
42.5000000875313
  0
ENDBLK
  5
3E4
100
AcDbEntity
  8
0
 67
     1
100
AcDbBlockEnd
  0
BLOCK
  5
3E5
100
AcDbEntity
  8
0
100
AcDbBlockBegin
  2
A$C60F9129D
 70
    0
 10
0
 20
0
 30
0.0
  3
A$C60F9129D
  1

  0
LINE
  5
3E6
100
AcDbEntity
  8
BASE
100
AcDbLine
  6
BYLAYER
 10
56.8497610654588
 20
24.5009881171584
 11
72.8497610654588
 21
24.5009881171584
  0
LINE
  5
3E7
100
AcDbEntity
  8
BASE
100
AcDbLine
  6
BYLAYER
 10
56.8497610654588
 20
31.5009881171584
 11
72.8497610654588
 21
31.5009881171584
  0
LINE
  5
3E8
100
AcDbEntity
  8
BASE
100
AcDbLine
  6
BYLAYER
 10
56.8497610654588
 20
6.50098811715838
 11
72.8497610654588
 21
6.50098811715838
  0
LINE
  5
3E9
100
AcDbEntity
  8
HIDDEN
100
AcDbLine
  6
BYLAYER
 10
56.8497610654588
 20
13.5009881171584
 11
72.8497610654588
 21
13.5009881171584
  0
LINE
  5
3EA
100
AcDbEntity
  8
DIM
100
AcDbLine
  6
BYLAYER
 62
0
370
  -2
 10
52.3497610654587
 20
10.5745178828921
 11
52.3497610654587
 21
4.15013925290424
  0
LINE
  5
3EB
100
AcDbEntity
  8
DIM
100
AcDbLine
  6
BYLAYER
 62
0
370
  -2
 10
56.3497610654587
 20
9.93848811715834
 11
56.3497610654587
 21
4.15013925290424
  0
LINE
  5
3EC
100
AcDbEntity
  8
DIM
100
AcDbLine
  6
BYLAYER
 62
0
370
  -2
 10
52.5297610654587
 20
4.33013925290423
 11
56.1697610654587
 21
4.33013925290423
  0
LINE
  5
3ED
100
AcDbEntity
  8
DIM
100
AcDbLine
  6
BYLAYER
 62
0
370
  -2
 10
56.3497610654587
 20
4.33013925290423
 11
88.2797610654587
 21
4.33013925290423
  0
SOLID
  5
3EE
100
AcDbEntity
  8
DIM
100
AcDbTrace
 10
52.3497610654587
 20
4.33013925290423
 30
0.0
 11
52.5297610654587
 21
4.30013925290423
 31
0.0
 12
52.5297610654587
 22
4.36013925290423
 32
0.0
 13
52.5297610654587
 23
4.36013925290423
 33
0.0
  0
SOLID
  5
3EF
100
AcDbEntity
  8
DIM
100
AcDbTrace
 10
56.1697610654587
 20
4.36013925290423
 30
0.0
 11
56.1697610654587
 21
4.30013925290423
 31
0.0
 12
56.3497610654587
 22
4.33013925290423
 32
0.0
 13
56.3497610654587
 23
4.33013925290423
 33
0.0
  0
TEXT
  5
3F0
100
AcDbEntity
  8
DIM
 62
0
100
AcDbText
  6
BYLAYER
 62
0
 10
88.8497610654587
 20
4.24013925290423
 40
0.18
  1
4.0000
  7
Font_0
 72
1
 11
89.1197610654587
 21
4.33013925290423
100
AcDbText
 73
2
  0
LINE
  5
3F1
100
AcDbEntity
  8
DIM
100
AcDbLine
  6
BYLAYER
 62
0
370
  -2
 10
52.3497610654587
 20
10.4384881171583
 11
52.3497610654587
 21
4.76934530979634E-7
  0
LINE
  5
3F2
100
AcDbEntity
  8
DIM
100
AcDbLine
  6
BYLAYER
 62
0
370
  -2
 10
73.3497610654587
 20
6.93848811715834
 11
73.3497610654587
 21
4.76934530979634E-7
  0
LINE
  5
3F3
100
AcDbEntity
  8
DIM
100
AcDbLine
  6
BYLAYER
 62
0
370
  -2
 10
52.5297610654587
 20
0.180000476934524
 11
62.3097610654587
 21
0.180000476934524
  0
LINE
  5
3F4
100
AcDbEntity
  8
DIM
100
AcDbLine
  6
BYLAYER
 62
0
370
  -2
 10
73.1697610654587
 20
0.180000476934524
 11
63.3897610654587
 21
0.180000476934524
  0
SOLID
  5
3F5
100
AcDbEntity
  8
DIM
100
AcDbTrace
 10
52.3497610654587
 20
0.180000476934524
 30
0.0
 11
52.5297610654587
 21
0.150000476934522
 31
0.0
 12
52.5297610654587
 22
0.210000476934525
 32
0.0
 13
52.5297610654587
 23
0.210000476934525
 33
0.0
  0
SOLID
  5
3F6
100
AcDbEntity
  8
DIM
100
AcDbTrace
 10
73.1697610654587
 20
0.210000476934525
 30
0.0
 11
73.1697610654587
 21
0.150000476934522
 31
0.0
 12
73.3497610654587
 22
0.180000476934524
 32
0.0
 13
73.3497610654587
 23
0.180000476934524
 33
0.0
  0
TEXT
  5
3F7
100
AcDbEntity
  8
DIM
 62
0
100
AcDbText
  6
BYLAYER
 62
0
 10
62.5347610654587
 20
0.0900004769345236
 40
0.18
  1
21.0000
  7
Font_0
 72
1
 11
62.8497610654587
 21
0.180000476934524
100
AcDbText
 73
2
  0
LINE
  5
3F8
100
AcDbEntity
  8
DIM
100
AcDbLine
  6
BYLAYER
 62
0
370
  -2
 10
65.3497610654587
 20
31.5634881171583
 11
65.3497610654587
 21
35.4088867475892
  0
LINE
  5
3F9
100
AcDbEntity
  8
DIM
100
AcDbLine
  6
BYLAYER
 62
0
370
  -2
 10
73.3497610654587
 20
31.0634881171583
 11
73.3497610654587
 21
35.4088867475892
  0
LINE
  5
3FA
100
AcDbEntity
  8
DIM
100
AcDbLine
  6
BYLAYER
 62
0
370
  -2
 10
65.5297610654587
 20
35.2288867475892
 11
68.8697610654587
 21
35.2288867475892
  0
LINE
  5
3FB
100
AcDbEntity
  8
DIM
100
AcDbLine
  6
BYLAYER
 62
0
370
  -2
 10
73.1697610654587
 20
35.2288867475892
 11
69.8297610654587
 21
35.2288867475892
  0
SOLID
  5
3FC
100
AcDbEntity
  8
DIM
100
AcDbTrace
 10
65.3497610654587
 20
35.2288867475892
 30
0.0
 11
65.5297610654587
 21
35.1988867475892
 31
0.0
 12
65.5297610654587
 22
35.2588867475892
 32
0.0
 13
65.5297610654587
 23
35.2588867475892
 33
0.0
  0
SOLID
  5
3FD
100
AcDbEntity
  8
DIM
100
AcDbTrace
 10
73.1697610654587
 20
35.2588867475892
 30
0.0
 11
73.1697610654587
 21
35.1988867475892
 31
0.0
 12
73.3497610654587
 22
35.2288867475892
 32
0.0
 13
73.3497610654587
 23
35.2288867475892
 33
0.0
  0
TEXT
  5
3FE
100
AcDbEntity
  8
DIM
 62
0
100
AcDbText
  6
BYLAYER
 62
0
 10
69.0797610654587
 20
35.1388867475892
 40
0.18
  1
8.0000
  7
Font_0
 72
1
 11
69.3497610654587
 21
35.2288867475892
100
AcDbText
 73
2
  0
LINE
  5
3FF
100
AcDbEntity
  8
BASE
100
AcDbLine
  6
BYLAYER
 10
52.3497610654588
 20
27.2289285856908
 11
52.3497610654588
 21
10.773047648626
  0
LINE
  5
400
100
AcDbEntity
  8
DIM
100
AcDbLine
  6
BYLAYER
 62
0
370
  -2
 10
54.2872610654587
 20
26.5009881171583
 11
48.3699477433158
 21
26.5009881171583
  0
LINE
  5
401
100
AcDbEntity
  8
DIM
100
AcDbLine
  6
BYLAYER
 62
0
370
  -2
 10
54.2872610654587
 20
11.5009881171583
 11
48.3699477433158
 21
11.5009881171583
  0
LINE
  5
402
100
AcDbEntity
  8
DIM
100
AcDbLine
  6
BYLAYER
 62
0
370
  -2
 10
48.5499477433158
 20
26.3209881171583
 11
48.5499477433158
 21
19.1809881171583
  0
LINE
  5
403
100
AcDbEntity
  8
DIM
100
AcDbLine
  6
BYLAYER
 62
0
370
  -2
 10
48.5499477433158
 20
11.6809881171583
 11
48.5499477433158
 21
18.8209881171583
  0
SOLID
  5
404
100
AcDbEntity
  8
DIM
100
AcDbTrace
 10
48.5199477433158
 20
26.3209881171583
 30
0.0
 11
48.5799477433158
 21
26.3209881171583
 31
0.0
 12
48.5499477433158
 22
26.5009881171583
 32
0.0
 13
48.5499477433158
 23
26.5009881171583
 33
0.0
  0
SOLID
  5
405
100
AcDbEntity
  8
DIM
100
AcDbTrace
 10
48.5499477433158
 20
11.5009881171583
 30
0.0
 11
48.5799477433158
 21
11.6809881171583
 31
0.0
 12
48.5199477433158
 22
11.6809881171583
 32
0.0
 13
48.5199477433158
 23
11.6809881171583
 33
0.0
  0
TEXT
  5
406
100
AcDbEntity
  8
DIM
 62
0
100
AcDbText
  6
BYLAYER
 62
0
 10
48.3699477433157
 20
18.9109881171583
 40
0.18
  1
Φ15
  7
Font_0
 72
1
 11
48.5499477433157
 21
19.0009881171583
100
AcDbText
 73
2
  0
LINE
  5
407
100
AcDbEntity
  8
CEN
100
AcDbLine
  6
BYLAYER
 10
14.9999989478504
 20
34.0009881171584
 11
14.9999989478504
 21
4.00098811715838
  0
LINE
  5
408
100
AcDbEntity
  8
DIM
100
AcDbLine
  6
BYLAYER
 62
0
370
  -2
 10
52.7872610654587
 20
28.0009881171583
 11
44.3126344211728
 21
28.0009881171583
  0
LINE
  5
409
100
AcDbEntity
  8
DIM
100
AcDbLine
  6
BYLAYER
 62
0
370
  -2
 10
52.7872610654587
 20
10.0009881171583
 11
44.3126344211728
 21
10.0009881171583
  0
LINE
  5
40A
100
AcDbEntity
  8
DIM
100
AcDbLine
  6
BYLAYER
 62
0
370
  -2
 10
44.4926344211728
 20
27.8209881171583
 11
44.4926344211728
 21
19.1809881171583
  0
LINE
  5
40B
100
AcDbEntity
  8
DIM
100
AcDbLine
  6
BYLAYER
 62
0
370
  -2
 10
44.4926344211728
 20
10.1809881171583
 11
44.4926344211728
 21
18.8209881171583
  0
SOLID
  5
40C
100
AcDbEntity
  8
DIM
100
AcDbTrace
 10
44.4626344211728
 20
27.8209881171583
 30
0.0
 11
44.5226344211728
 21
27.8209881171583
 31
0.0
 12
44.4926344211728
 22
28.0009881171583
 32
0.0
 13
44.4926344211728
 23
28.0009881171583
 33
0.0
  0
SOLID
  5
40D
100
AcDbEntity
  8
DIM
100
AcDbTrace
 10
44.4926344211728
 20
10.0009881171583
 30
0.0
 11
44.5226344211728
 21
10.1809881171583
 31
0.0
 12
44.4626344211728
 22
10.1809881171583
 32
0.0
 13
44.4626344211728
 23
10.1809881171583
 33
0.0
  0
TEXT
  5
40E
100
AcDbEntity
  8
DIM
 62
0
100
AcDbText
  6
BYLAYER
 62
0
 10
44.3126344211728
 20
18.9109881171583
 40
0.18
  1
Φ18
  7
Font_0
 72
1
 11
44.4926344211728
 21
19.0009881171583
100
AcDbText
 73
2
  0
LINE
  5
40F
100
AcDbEntity
  8
DIM
100
AcDbLine
  6
BYLAYER
 62
0
370
  -2
 10
18.304178717982
 20
14.0432567041127
 11
18.124178717982
 21
14.0432567041127
  0
LINE
  5
410
100
AcDbEntity
  8
DIM
100
AcDbLine
  6
BYLAYER
 62
0
370
  -2
 10
18.124178717982
 20
14.0432567041127
 11
18.028214151664
 21
14.1955419693598
  0
TEXT
  5
411
100
AcDbEntity
  8
DIM
 62
0
100
AcDbText
  6
BYLAYER
 62
0
 10
18.859178717982
 20
13.9532567041127
 40
0.18
  1
φ11.0000
  7
Font_0
 72
1
 11
19.264178717982
 21
14.0432567041127
100
AcDbText
 73
2
  0
SOLID
  5
412
100
AcDbEntity
  8
DIM
100
AcDbTrace
 10
17.9322495853459
 20
14.347827234607
 30
0.0
 11
18.0028332741228
 21
14.1795478749735
 31
0.0
 12
18.0535950292052
 22
14.2115360637462
 32
0.0
 13
18.0535950292052
 23
14.2115360637462
 33
0.0
  0
LINE
  5
413
100
AcDbEntity
  8
DIM
100
AcDbLine
  6
BYLAYER
 62
0
370
  -2
 10
14.9099989478502
 20
19.0009881171583
 11
15.0899989478502
 21
19.0009881171583
  0
LINE
  5
414
100
AcDbEntity
  8
DIM
100
AcDbLine
  6
BYLAYER
 62
0
370
  -2
 10
14.9999989478503
 20
18.9109881171583
 11
14.9999989478502
 21
19.0909881171583
  0
CIRCLE
  5
415
100
AcDbEntity
  8
BASE
100
AcDbCircle
  6
BYLAYER
 10
14.9999989478504
 20
19.0009881171584
 40
12.5
  0
CIRCLE
  5
416
100
AcDbEntity
  8
BASE
100
AcDbCircle
  6
BYLAYER
 10
14.9999989478504
 20
19.0009881171584
 40
9
  0
CIRCLE
  5
417
100
AcDbEntity
  8
BASE
100
AcDbCircle
  6
BYLAYER
 10
14.9999989478504
 20
19.0009881171584
 40
5.5
  0
CIRCLE
  5
418
100
AcDbEntity
  8
BASE
100
AcDbCircle
  6
BYLAYER
 10
14.9999989478504
 20
19.0009881171584
 40
7.5
  0
LINE
  5
419
100
AcDbEntity
  8
DIM
100
AcDbLine
  6
BYLAYER
 62
0
370
  -2
 10
9.605148122294
 20
30.756196786816
 11
9.78514812229399
 21
30.756196786816
  0
LINE
  5
41A
100
AcDbEntity
  8
DIM
100
AcDbLine
  6
BYLAYER
 62
0
370
  -2
 10
9.78514812229399
 20
30.756196786816
 11
9.85813981347599
 21
30.5916604290758
  0
TEXT
  5
41B
100
AcDbEntity
  8
DIM
 62
0
100
AcDbText
  6
BYLAYER
 62
0
 10
8.54014812229399
 20
30.6661967868159
 40
0.18
  1
φ25.0000
  7
Font_0
 72
1
 11
8.94514812229399
 21
30.7561967868159
100
AcDbText
 73
2
  0
SOLID
  5
41C
100
AcDbEntity
  8
DIM
100
AcDbTrace
 10
9.885562539766
 20
30.6038257109395
 30
0.0
 11
9.83071708718599
 21
30.5794951472122
 31
0.0
 12
9.931131504658
 22
30.4271240713357
 32
0.0
 13
9.931131504658
 23
30.4271240713357
 33
0.0
  0
LINE
  5
41D
100
AcDbEntity
  8
DIM
100
AcDbLine
  6
BYLAYER
 62
0
370
  -2
 10
14.9099989478503
 20
19.0009881171583
 11
15.0899989478503
 21
19.0009881171583
  0
LINE
  5
41E
100
AcDbEntity
  8
DIM
100
AcDbLine
  6
BYLAYER
 62
0
370
  -2
 10
14.9999989478504
 20
18.9109881171583
 11
14.9999989478504
 21
19.0909881171583
  0
LINE
  5
41F
100
AcDbEntity
  8
BASE
100
AcDbLine
  6
BYLAYER
 10
56.3497610654588
 20
7.00098811715838
 11
56.3497610654588
 21
10.0009881171584
  0
LINE
  5
420
100
AcDbEntity
  8
BASE
100
AcDbLine
  6
BYLAYER
 10
56.3497610654588
 20
7.00098811715838
 11
56.8497610654588
 21
6.50098811715838
  0
LINE
  5
421
100
AcDbEntity
  8
HIDDEN
100
AcDbLine
  6
BYLAYER
 10
56.3497610654588
 20
11.5009881171584
 11
56.3497610654588
 21
13.0009881171584
  0
LINE
  5
422
100
AcDbEntity
  8
HIDDEN
100
AcDbLine
  6
BYLAYER
 10
56.3497610654588
 20
13.0009881171584
 11
56.8497610654588
 21
13.5009881171584
  0
LINE
  5
423
100
AcDbEntity
  8
BASE
100
AcDbLine
  6
BYLAYER
 10
52.3497610654588
 20
10.5009881171584
 11
52.3497610654588
 21
10.773047648626
  0
LINE
  5
424
100
AcDbEntity
  8
BASE
100
AcDbLine
  6
BYLAYER
 10
52.8497610654588
 20
10.0009881171584
 11
52.3497610654588
 21
10.5009881171584
  0
LINE
  5
425
100
AcDbEntity
  8
HIDDEN
100
AcDbLine
  6
BYLAYER
 10
54.3497610654588
 20
11.5009881171584
 11
52.3497610654588
 21
10.773047648626
  0
LINE
  5
426
100
AcDbEntity
  8
BASE
100
AcDbLine
  6
BYLAYER
 10
52.8497610654588
 20
10.0009881171584
 11
56.3497610654588
 21
10.0009881171584
  0
LINE
  5
427
100
AcDbEntity
  8
HIDDEN
100
AcDbLine
  6
BYLAYER
 10
54.3497610654587
 20
11.5009881171584
 11
56.3497610654588
 21
11.5009881171584
  0
TEXT
  5
428
100
AcDbEntity
  8
DIM
100
AcDbText
  6
BYLAYER
 10
39.4059876884986
 20
36.6122833856465
 40
2
  1
M6x1.0x10L､ｺ､ｻｨ､ﾁｳｵｷ
  7
Font_0
 72
2
 11
59.4059876884986
 21
36.6122833856465
100
AcDbText
  0
LINE
  5
429
100
AcDbEntity
  8
CEN
100
AcDbLine
  6
BYLAYER
 10
-1.0521496279E-6
 20
19.0009881171584
 11
29.9999989478504
 21
19.0009881171584
  0
LINE
  5
42A
100
AcDbEntity
  8
HIDDEN
100
AcDbLine
  6
BYLAYER
 10
14.9999989478504
 20
24.5009881171584
 11
14.9999989478504
 21
31.5009881171584
  0
LINE
  5
42B
100
AcDbEntity
  8
HIDDEN
100
AcDbLine
  6
BYLAYER
 10
12.7999989478504
 20
24.0418213816098
 11
12.7999989478504
 21
31.3058651990313
  0
LINE
  5
42C
100
AcDbEntity
  8
HIDDEN
100
AcDbLine
  6
BYLAYER
 10
11.9999989478504
 20
23.6107603458048
 11
11.9999989478504
 21
31.13564921667
  0
LINE
  5
42D
100
AcDbEntity
  8
HIDDEN
100
AcDbLine
  6
BYLAYER
 10
17.1999989478504
 20
24.0418213816098
 11
17.1999989478504
 21
31.3058651990313
  0
LINE
  5
42E
100
AcDbEntity
  8
HIDDEN
100
AcDbLine
  6
BYLAYER
 10
17.9999989478504
 20
23.6107603458048
 11
17.9999989478504
 21
31.13564921667
  0
LINE
  5
42F
100
AcDbEntity
  8
CEN
100
AcDbLine
  6
BYLAYER
 10
65.3497610654588
 20
31.5009881171584
 11
65.3497610654588
 21
24.5009881171584
  0
LINE
  5
430
100
AcDbEntity
  8
BASE
100
AcDbLine
  6
BYLAYER
 10
62.3497610654588
 20
31.5009881171584
 11
62.3497610654588
 21
24.5009881171584
  0
LINE
  5
431
100
AcDbEntity
  8
BASE
100
AcDbLine
  6
BYLAYER
 10
68.3497610654588
 20
31.5009881171584
 11
68.3497610654588
 21
24.5009881171584
  0
LINE
  5
432
100
AcDbEntity
  8
BASE
100
AcDbLine
  6
BYLAYER
 10
56.8497610654588
 20
24.5009881171584
 11
56.3497610654588
 21
25.0009881171584
  0
LINE
  5
433
100
AcDbEntity
  8
DIM
100
AcDbLine
  6
BYLAYER
 62
0
370
  -2
 10
52.3497610654587
 20
27.1664285856907
 11
52.3497610654587
 21
23.0349796425414
  0
LINE
  5
434
100
AcDbEntity
  8
DIM
100
AcDbLine
  6
BYLAYER
 62
0
370
  -2
 10
56.3497610654587
 20
26.4384881171583
 11
56.3497610654587
 21
23.0349796425414
  0
LINE
  5
435
100
AcDbEntity
  8
DIM
100
AcDbLine
  6
BYLAYER
 62
0
370
  -2
 10
52.5297610654587
 20
23.2149796425414
 11
53.8697610654587
 21
23.2149796425414
  0
LINE
  5
436
100
AcDbEntity
  8
DIM
100
AcDbLine
  6
BYLAYER
 62
0
370
  -2
 10
56.1697610654587
 20
23.2149796425414
 11
54.8297610654587
 21
23.2149796425414
  0
SOLID
  5
437
100
AcDbEntity
  8
DIM
100
AcDbTrace
 10
52.3497610654587
 20
23.2149796425414
 30
0.0
 11
52.5297610654587
 21
23.1849796425414
 31
0.0
 12
52.5297610654587
 22
23.2449796425414
 32
0.0
 13
52.5297610654587
 23
23.2449796425414
 33
0.0
  0
SOLID
  5
438
100
AcDbEntity
  8
DIM
100
AcDbTrace
 10
56.1697610654587
 20
23.2449796425414
 30
0.0
 11
56.1697610654587
 21
23.1849796425414
 31
0.0
 12
56.3497610654587
 22
23.2149796425414
 32
0.0
 13
56.3497610654587
 23
23.2149796425414
 33
0.0
  0
TEXT
  5
439
100
AcDbEntity
  8
DIM
 62
0
100
AcDbText
  6
BYLAYER
 62
0
 10
54.0797610654587
 20
23.1249796425414
 40
0.18
  1
4.0000
  7
Font_0
 72
1
 11
54.3497610654587
 21
23.2149796425414
100
AcDbText
 73
2
  0
LINE
  5
43A
100
AcDbEntity
  8
BASE
100
AcDbLine
  6
BYLAYER
 10
56.3497610654588
 20
31.0009881171584
 11
56.3497610654588
 21
28.0009881171584
  0
LINE
  5
43B
100
AcDbEntity
  8
BASE
100
AcDbLine
  6
BYLAYER
 10
56.3497610654588
 20
31.0009881171584
 11
56.8497610654588
 21
31.5009881171584
  0
LINE
  5
43C
100
AcDbEntity
  8
BASE
100
AcDbLine
  6
BYLAYER
 10
52.3497610654588
 20
27.5009881171584
 11
52.3497610654588
 21
27.2289285856908
  0
LINE
  5
43D
100
AcDbEntity
  8
BASE
100
AcDbLine
  6
BYLAYER
 10
52.8497610654588
 20
28.0009881171584
 11
52.3497610654588
 21
27.5009881171584
  0
LINE
  5
43E
100
AcDbEntity
  8
BASE
100
AcDbLine
  6
BYLAYER
 10
52.8497610654588
 20
28.0009881171584
 11
56.3497610654588
 21
28.0009881171584
  0
LINE
  5
43F
100
AcDbEntity
  8
BASE
100
AcDbLine
  6
BYLAYER
 10
56.3497610654588
 20
26.5009881171584
 11
56.3497610654588
 21
25.0009881171584
  0
LINE
  5
440
100
AcDbEntity
  8
BASE
100
AcDbLine
  6
BYLAYER
 10
54.3497610654587
 20
26.5009881171584
 11
56.3497610654588
 21
26.5009881171584
  0
LINE
  5
441
100
AcDbEntity
  8
BASE
100
AcDbLine
  6
BYLAYER
 10
54.3497610654588
 20
26.5009881171584
 11
52.3497610654588
 21
27.2289285856908
  0
LINE
  5
442
100
AcDbEntity
  8
BASE
100
AcDbLine
  6
BYLAYER
 10
73.3497610654588
 20
25.0009881171584
 11
73.3497610654588
 21
13.0009881171584
  0
LINE
  5
443
100
AcDbEntity
  8
BASE
100
AcDbLine
  6
BYLAYER
 10
73.3497610654588
 20
7.00098811715838
 11
73.3497610654588
 21
13.0009881171584
  0
LINE
  5
444
100
AcDbEntity
  8
BASE
100
AcDbLine
  6
BYLAYER
 10
72.8497610654588
 20
6.50098811715838
 11
73.3497610654588
 21
7.00098811715838
  0
LINE
  5
445
100
AcDbEntity
  8
HIDDEN
100
AcDbLine
  6
BYLAYER
 10
72.8497610654588
 20
13.5009881171584
 11
73.3497610654588
 21
13.0009881171584
  0
LINE
  5
446
100
AcDbEntity
  8
BASE
100
AcDbLine
  6
BYLAYER
 10
72.8497610654588
 20
24.5009881171584
 11
73.3497610654588
 21
25.0009881171584
  0
LINE
  5
447
100
AcDbEntity
  8
BASE
100
AcDbLine
  6
BYLAYER
 10
72.8497610654588
 20
31.5009881171584
 11
73.3497610654588
 21
31.0009881171584
  0
LINE
  5
448
100
AcDbEntity
  8
BASE
100
AcDbLine
  6
BYLAYER
 10
73.3497610654588
 20
31.0009881171584
 11
73.3497610654588
 21
25.0009881171584
  0
ENDBLK
  5
449
100
AcDbEntity
  8
0
 67
     1
100
AcDbBlockEnd
  0
BLOCK
  5
44A
100
AcDbEntity
  8
0
100
AcDbBlockBegin
  2
A
 70
    0
 10
0
 20
0
 30
0.0
  3
A
  1

  0
TEXT
  5
44B
100
AcDbEntity
  8
0
100
AcDbText
  6
BYLAYER
 10
127.674651975441
 20
244.795661972877
 40
2.5
  1
a
  7
Font_0
100
AcDbText
  0
LWPOLYLINE
  5
44C
100
AcDbEntity
  8
0
100
AcDbPolyline
  6
BYLAYER
370
0
 90
     3
 70
     1
 10
126.71643944311
  20
244.632620693086
 10
129.71643944311
  20
244.632620693086
 10
128.21643944311
  20
247.230696904439
  0
ENDBLK
  5
44D
100
AcDbEntity
  8
0
 67
     1
100
AcDbBlockEnd
  0
BLOCK
  5
44E
100
AcDbEntity
  8
0
100
AcDbBlockBegin
  2
B
 70
    0
 10
0
 20
0
 30
0.0
  3
B
  1

  0
LWPOLYLINE
  5
44F
100
AcDbEntity
  8
0
100
AcDbPolyline
  6
BYLAYER
370
0
 90
     3
 70
     1
 10
131.70249874082
  20
244.288443720077
 10
135.28174293015
  20
244.288443720077
 10
133.492120835485
  20
247.388160114384
  0
TEXT
  5
450
100
AcDbEntity
  8
0
100
AcDbText
  6
BYLAYER
 10
132.758464625955
 20
244.383450143826
 40
2.5
  1
b
  7
Font_0
100
AcDbText
  0
ENDBLK
  5
451
100
AcDbEntity
  8
0
 67
     1
100
AcDbBlockEnd
  0
BLOCK
  5
452
100
AcDbEntity
  8
0
100
AcDbBlockBegin
  2
C
 70
    0
 10
0
 20
0
 30
0.0
  3
C
  1

  0
LWPOLYLINE
  5
453
100
AcDbEntity
  8
0
100
AcDbPolyline
  6
BYLAYER
370
0
 90
     3
 70
     1
 10
135.509916074992
  20
244.473484482901
 10
139.001038434513
  20
244.473484482901
 10
137.255477254752
  20
247.496885133966
  0
TEXT
  5
454
100
AcDbEntity
  8
0
100
AcDbText
  6
BYLAYER
 10
136.382181305809
 20
244.594791834341
 40
2.5
  1
c
  7
Font_0
100
AcDbText
  0
ENDBLK
  5
455
100
AcDbEntity
  8
0
 67
     1
100
AcDbBlockEnd
  0
BLOCK
  5
456
100
AcDbEntity
  8
0
100
AcDbBlockBegin
  2
D
 70
    0
 10
0
 20
0
 30
0.0
  3
D
  1

  0
LWPOLYLINE
  5
457
100
AcDbEntity
  8
0
100
AcDbPolyline
  6
BYLAYER
370
0
 90
     3
 70
     1
 10
140.763374439689
  20
244.465698913845
 10
144.291976798415
  20
244.465698913845
 10
142.527675619052
  20
247.521558196355
  0
TEXT
  5
458
100
AcDbEntity
  8
0
100
AcDbText
  6
BYLAYER
 10
141.593202675708
 20
244.519464650768
 40
2.5
  1
d
  7
Font_0
100
AcDbText
  0
ENDBLK
  5
459
100
AcDbEntity
  8
0
 67
     1
100
AcDbBlockEnd
  0
BLOCK
  5
45A
100
AcDbEntity
  8
0
100
AcDbBlockBegin
  2
A4ｹﾏｮﾘ_JAME_
 70
    0
 10
0
 20
0
 30
0.0
  3
A4ｹﾏｮﾘ_JAME_
  1

  0
POINT
  5
45B
100
AcDbEntity
  8
7475A
100
AcDbPoint
 10
289
 20
0
  0
TEXT
  5
45C
100
AcDbEntity
  8
0
100
AcDbText
  6
BYLAYER
 10
3.82484782096731
 20
38.4479746826859
 40
5
  1
ｦCｦL､魘ﾁ :
  7
Font_0
100
AcDbText
  0
LINE
  5
45D
100
AcDbEntity
  8
0
100
AcDbLine
  6
BYLAYER
 10
49.4
 20
12
 11
49.4
 21
6
  0
TEXT
  5
45E
100
AcDbEntity
  8
TEXT
100
AcDbText
  6
BYLAYER
 10
129
 20
19
 40
3.5
  1
JAME
  7
Font_0
100
AcDbText
  0
TEXT
  5
45F
100
AcDbEntity
  8
TEXT
100
AcDbText
  6
BYLAYER
 10
179
 20
7
 40
3.5
 41
0.8
  1
20020101
  7
Font_0
100
AcDbText
  0
TEXT
  5
460
100
AcDbEntity
  8
TEXT
100
AcDbText
  6
BYLAYER
 10
179
 20
19
 40
3.5
  1
M/M
  7
Font_0
100
AcDbText
  0
TEXT
  5
461
100
AcDbEntity
  8
TEXT
100
AcDbText
  6
BYLAYER
 10
179
 20
25
 40
3.5
  1
1
  7
Font_0
100
AcDbText
  0
INSERT
  5
462
100
AcDbEntity
  8
0
100
AcDbBlockReference
  6
CONTINUOUS
  2
JAME
 10
0
 20
0
 30
0.0
  0
ENDBLK
  5
463
100
AcDbEntity
  8
0
 67
     1
100
AcDbBlockEnd
  0
ENDSEC
  0
SECTION
  2
ENTITIES
  0
CIRCLE
  5
464
100
AcDbEntity
  8
0
100
AcDbCircle
  6
BYLAYER
 10
914.600344973157
 20
1159.71916992168
 40
7
  0
CIRCLE
  5
465
100
AcDbEntity
  8
0
100
AcDbCircle
  6
BYLAYER
 10
914.600344973157
 20
1159.71916992168
 40
15
  0
LINE
  5
466
100
AcDbEntity
  8
DIM
100
AcDbLine
  6
BYLAYER
 62
0
370
  -2
 10
709.508937504617
 20
1000.23346482902
 11
698.008937504617
 21
1000.23346482902
  0
LINE
  5
467
100
AcDbEntity
  8
DIM
100
AcDbLine
  6
BYLAYER
 62
0
370
  -2
 10
698.008937504617
 20
1000.23346482902
 11
686.953972568563
 21
1015.0850617012
  0
TEXT
  5
468
100
AcDbEntity
  8
DIM
 62
0
100
AcDbText
  6
BYLAYER
 62
0
 10
727.008937504617
 20
992.733464829023
 40
15
  1
4-φ8.5
  7
Font_0
 72
1
 11
753.258937504617
 21
1000.23346482902
100
AcDbText
 73
2
  0
SOLID
  5
469
100
AcDbEntity
  8
DIM
100
AcDbTrace
 10
680.087303905016
 20
1024.30996611615
 30
0.0
 11
685.416488499404
 21
1013.94061692394
 31
0.0
 12
688.491456637722
 22
1016.22950647845
 32
0.0
 13
688.491456637722
 23
1016.22950647845
 33
0.0
  0
LINE
  5
46A
100
AcDbEntity
  8
DIM
100
AcDbLine
  6
BYLAYER
 62
0
370
  -2
 10
895.716567324801
 20
1059.93157704303
 11
907.216567324801
 21
1059.93157704303
  0
LINE
  5
46B
100
AcDbEntity
  8
DIM
100
AcDbLine
  6
BYLAYER
 62
0
370
  -2
 10
907.216567324801
 20
1059.93157704303
 11
909.21344103817
 21
1086.91819969466
  0
TEXT
  5
46C
100
AcDbEntity
  8
DIM
 62
0
100
AcDbText
  6
BYLAYER
 62
0
 10
845.716567324801
 20
1052.43157704303
 40
15
  1
Φ125
  7
Font_0
 72
1
 11
864.466567324801
 21
1059.93157704303
100
AcDbText
 73
2
  0
SOLID
  5
46D
100
AcDbEntity
  8
DIM
100
AcDbTrace
 10
907.302000039059
 20
1087.05963667012
 30
0.0
 11
911.124882037281
 21
1086.7767627192
 31
0.0
 12
910.062062890942
 22
1098.38684568932
 32
0.0
 13
910.062062890942
 23
1098.38684568932
 33
0.0
  0
CIRCLE
  5
46E
100
AcDbEntity
  8
0
100
AcDbCircle
  6
BYLAYER
 10
677.549622007618
 20
1137.71916992168
 40
4.25
  0
LINE
  5
46F
100
AcDbEntity
  8
0
100
AcDbLine
  6
BYLAYER
 10
656.749622007618
 20
1251.50323531471
 11
588.349622007618
 21
1251.50323531471
  0
LINE
  5
470
100
AcDbEntity
  8
0
100
AcDbLine
  6
BYLAYER
 10
588.349622007618
 20
1252.30323531471
 11
578.349622007618
 21
1252.30323531471
  0
LINE
  5
471
100
AcDbEntity
  8
0
100
AcDbLine
  6
BYLAYER
 10
656.749622007618
 20
1252.30323531471
 11
666.749622007618
 21
1252.30323531471
  0
LINE
  5
472
100
AcDbEntity
  8
0
100
AcDbLine
  6
BYLAYER
 10
812.100344973157
 20
1015.21916992168
 11
810.600344973157
 21
1015.21916992168
  0
LINE
  5
473
100
AcDbEntity
  8
0
100
AcDbLine
  6
BYLAYER
 10
816.600344973157
 20
1044.71916992168
 11
828.600344973157
 21
1056.71916992168
  0
LINE
  5
474
100
AcDbEntity
  8
0
100
AcDbLine
  6
BYLAYER
 10
828.600344973157
 20
1036.21916992168
 11
812.100344973157
 21
1036.21916992168
  0
LINE
  5
475
100
AcDbEntity
  8
0
100
AcDbLine
  6
BYLAYER
 10
828.600344973157
 20
1037.71916992168
 11
816.600344973157
 21
1037.71916992168
  0
LINE
  5
476
100
AcDbEntity
  8
0
100
AcDbLine
  6
BYLAYER
 10
816.600344973157
 20
1120.71916992168
 11
828.600344973157
 21
1108.71916992168
  0
LINE
  5
477
100
AcDbEntity
  8
0
100
AcDbLine
  6
BYLAYER
 10
828.600344973157
 20
1129.21916992168
 11
812.100344973157
 21
1129.21916992168
  0
LINE
  5
478
100
AcDbEntity
  8
0
100
AcDbLine
  6
BYLAYER
 10
828.600344973157
 20
1127.71916992168
 11
816.600344973157
 21
1127.71916992168
  0
LINE
  5
479
100
AcDbEntity
  8
0
100
AcDbLine
  6
BYLAYER
 10
812.100344973157
 20
1150.21916992168
 11
810.600344973157
 21
1150.21916992168
  0
LINE
  5
47A
100
AcDbEntity
  8
0
100
AcDbLine
  6
BYLAYER
 10
828.600344973157
 20
1056.71916992168
 11
828.600344973157
 21
1108.71916992168
  0
LINE
  5
47B
100
AcDbEntity
  8
0
100
AcDbLine
  6
BYLAYER
 10
812.100344973157
 20
1015.21916992168
 11
812.100344973157
 21
1150.21916992168
  0
LINE
  5
47C
100
AcDbEntity
  8
0
100
AcDbLine
  6
BYLAYER
 10
810.600344973157
 20
1015.21916992168
 11
810.600344973157
 21
1150.21916992168
  0
LINE
  5
47D
100
AcDbEntity
  8
0
100
AcDbLine
  6
BYLAYER
 10
809.600344973157
 20
1015.21916992168
 11
809.600344973157
 21
1150.21916992168
  0
LINE
  5
47E
100
AcDbEntity
  8
0
100
AcDbLine
  6
BYLAYER
 10
914.600344973157
 20
1037.71916992168
 11
816.600344973157
 21
1037.71916992168
  0
LINE
  5
47F
100
AcDbEntity
  8
0
100
AcDbLine
  6
BYLAYER
 10
816.600344973157
 20
1036.21916992168
 11
816.600344973157
 21
1044.71916992168
  0
LINE
  5
480
100
AcDbEntity
  8
0
100
AcDbLine
  6
BYLAYER
 10
828.600344973157
 20
1036.21916992168
 11
828.600344973157
 21
1037.71916992168
  0
LINE
  5
481
100
AcDbEntity
  8
0
100
AcDbLine
  6
BYLAYER
 10
816.600344973157
 20
1120.71916992168
 11
816.600344973157
 21
1129.21916992168
  0
LINE
  5
482
100
AcDbEntity
  8
0
100
AcDbLine
  6
BYLAYER
 10
816.600344973157
 20
1127.71916992168
 11
837.653331978987
 21
1127.71916992168
  0
LINE
  5
483
100
AcDbEntity
  8
0
100
AcDbLine
  6
BYLAYER
 10
828.600344973157
 20
1127.71916992168
 11
828.600344973157
 21
1129.21916992168
  0
LINE
  5
484
100
AcDbEntity
  8
DIM
100
AcDbLine
  6
BYLAYER
 62
0
370
  -2
 10
810.600344973157
 20
1151.96916992168
 11
810.600344973157
 21
1270.87852731324
  0
LINE
  5
485
100
AcDbEntity
  8
DIM
100
AcDbLine
  6
BYLAYER
 62
0
370
  -2
 10
780.600344973157
 20
1146.96916992168
 11
780.600344973157
 21
1270.87852731324
  0
LINE
  5
486
100
AcDbEntity
  8
DIM
100
AcDbLine
  6
BYLAYER
 62
0
370
  -2
 10
822.100344973157
 20
1267.87852731324
 11
833.600344973157
 21
1267.87852731324
  0
LINE
  5
487
100
AcDbEntity
  8
DIM
100
AcDbLine
  6
BYLAYER
 62
0
370
  -2
 10
769.100344973157
 20
1267.87852731324
 11
757.600344973157
 21
1267.87852731324
  0
SOLID
  5
488
100
AcDbEntity
  8
DIM
100
AcDbTrace
 10
810.600344973157
 20
1267.87852731324
 30
0.0
 11
822.100344973157
 21
1265.96186064657
 31
0.0
 12
822.100344973157
 22
1269.79519397991
 32
0.0
 13
822.100344973157
 23
1269.79519397991
 33
0.0
  0
SOLID
  5
489
100
AcDbEntity
  8
DIM
100
AcDbTrace
 10
769.100344973157
 20
1269.79519397991
 30
0.0
 11
769.100344973157
 21
1265.96186064657
 31
0.0
 12
780.600344973157
 22
1267.87852731324
 32
0.0
 13
780.600344973157
 23
1267.87852731324
 33
0.0
  0
TEXT
  5
48A
100
AcDbEntity
  8
DIM
 62
0
100
AcDbText
  6
BYLAYER
 62
0
 10
788.100344973157
 20
1260.37852731324
 40
15
  1
30
  7
Font_0
 72
1
 11
795.600344973157
 21
1267.87852731324
100
AcDbText
 73
2
  0
LINE
  5
48B
100
AcDbEntity
  8
0
100
AcDbLine
  6
BYLAYER
 10
780.600344973157
 20
1020.21916992168
 11
809.600344973157
 21
1020.21916992168
  0
LINE
  5
48C
100
AcDbEntity
  8
0
100
AcDbLine
  6
BYLAYER
 10
780.600344973157
 20
1145.21916992168
 11
809.600344973157
 21
1145.21916992168
  0
LINE
  5
48D
100
AcDbEntity
  8
0
100
AcDbLine
  6
BYLAYER
 10
578.349622007618
 20
1206.71916992168
 11
578.349622007618
 21
1149.06408914673
  0
LINE
  5
48E
100
AcDbEntity
  8
0
100
AcDbLine
  6
BYLAYER
 10
578.349622007618
 20
1149.06408914673
 11
578.349622007618
 21
1252.30323531471
  0
LINE
  5
48F
100
AcDbEntity
  8
0
100
AcDbLine
  6
BYLAYER
 10
588.349622007618
 20
1149.52781513796
 11
588.349622007618
 21
1252.30323531471
  0
LINE
  5
490
100
AcDbEntity
  8
0
100
AcDbLine
  6
BYLAYER
 10
666.749622007618
 20
1149.06408914673
 11
666.749622007618
 21
1252.30323531471
  0
LINE
  5
491
100
AcDbEntity
  8
0
100
AcDbLine
  6
BYLAYER
 10
656.749622007618
 20
1149.52781513796
 11
656.749622007618
 21
1252.30323531471
  0
LINE
  5
492
100
AcDbEntity
  8
0
100
AcDbLine
  6
BYLAYER
 10
780.600344973157
 20
1082.71916992168
 11
780.600344973157
 21
1020.21916992168
  0
CIRCLE
  5
493
100
AcDbEntity
  8
0
100
AcDbCircle
  6
BYLAYER
 10
622.549622007618
 20
1082.71916992168
 40
62.5
  0
CIRCLE
  5
494
100
AcDbEntity
  8
0
100
AcDbCircle
  6
BYLAYER
 10
622.549622007618
 20
1082.71916992168
 40
61.5
  0
LINE
  5
495
100
AcDbEntity
  8
0
100
AcDbLine
  6
BYLAYER
 10
577.549622007618
 20
1040.79960408423
 11
577.549622007618
 21
1124.63873575912
  0
LINE
  5
496
100
AcDbEntity
  8
0
100
AcDbLine
  6
BYLAYER
 10
667.549622007618
 20
1124.63873575912
 11
667.549622007618
 21
1040.79960408423
  0
LINE
  5
497
100
AcDbEntity
  8
0
100
AcDbLine
  6
BYLAYER
 10
665.549622007618
 20
1038.91916992168
 11
665.549622007618
 21
1126.51916992168
  0
LINE
  5
498
100
AcDbEntity
  8
0
100
AcDbLine
  6
BYLAYER
 10
666.749622007618
 20
1039.95692021472
 11
666.749622007618
 21
1125.48141962863
  0
LINE
  5
499
100
AcDbEntity
  8
0
100
AcDbLine
  6
BYLAYER
 10
579.549622007618
 20
1038.91916992168
 11
579.549622007618
 21
1126.51916992168
  0
LINE
  5
49A
100
AcDbEntity
  8
0
100
AcDbLine
  6
BYLAYER
 10
578.349622007618
 20
1039.95692021472
 11
578.349622007618
 21
1125.48141962863
  0
LINE
  5
49B
100
AcDbEntity
  8
DIM
100
AcDbLine
  6
BYLAYER
 62
0
370
  -2
 10
690.049622007618
 20
1080.96916992168
 11
690.049622007618
 21
974.309455851172
  0
LINE
  5
49C
100
AcDbEntity
  8
DIM
100
AcDbLine
  6
BYLAYER
 62
0
370
  -2
 10
555.049622007618
 20
1080.96916992168
 11
555.049622007618
 21
974.309455851172
  0
LINE
  5
49D
100
AcDbEntity
  8
DIM
100
AcDbLine
  6
BYLAYER
 62
0
370
  -2
 10
678.549622007618
 20
977.309455851172
 11
646.299622007618
 21
977.309455851172
  0
LINE
  5
49E
100
AcDbEntity
  8
DIM
100
AcDbLine
  6
BYLAYER
 62
0
370
  -2
 10
566.549622007618
 20
977.309455851172
 11
598.799622007618
 21
977.309455851172
  0
SOLID
  5
49F
100
AcDbEntity
  8
DIM
100
AcDbTrace
 10
678.549622007618
 20
979.226122517839
 30
0.0
 11
678.549622007618
 21
975.392789184506
 31
0.0
 12
690.049622007618
 22
977.309455851172
 32
0.0
 13
690.049622007618
 23
977.309455851172
 33
0.0
  0
SOLID
  5
4A0
100
AcDbEntity
  8
DIM
100
AcDbTrace
 10
555.049622007618
 20
977.309455851172
 30
0.0
 11
566.549622007618
 21
975.392789184506
 31
0.0
 12
566.549622007618
 22
979.226122517839
 32
0.0
 13
566.549622007618
 23
979.226122517839
 33
0.0
  0
TEXT
  5
4A1
100
AcDbEntity
  8
DIM
 62
0
100
AcDbText
  6
BYLAYER
 62
0
 10
611.299622007618
 20
969.809455851172
 40
15
  1
135
  7
Font_0
 72
1
 11
622.549622007618
 21
977.309455851172
100
AcDbText
 73
2
  0
LINE
  5
4A2
100
AcDbEntity
  8
DIM
100
AcDbLine
  6
BYLAYER
 62
0
370
  -2
 10
567.549622007618
 20
1025.96916992168
 11
567.549622007618
 21
996.38609549743
  0
LINE
  5
4A3
100
AcDbEntity
  8
DIM
100
AcDbLine
  6
BYLAYER
 62
0
370
  -2
 10
677.549622007618
 20
1025.96916992168
 11
677.549622007618
 21
996.38609549743
  0
LINE
  5
4A4
100
AcDbEntity
  8
DIM
100
AcDbLine
  6
BYLAYER
 62
0
370
  -2
 10
579.049622007618
 20
999.38609549743
 11
602.549622007618
 21
999.38609549743
  0
LINE
  5
4A5
100
AcDbEntity
  8
DIM
100
AcDbLine
  6
BYLAYER
 62
0
370
  -2
 10
666.049622007618
 20
999.38609549743
 11
642.549622007618
 21
999.38609549743
  0
SOLID
  5
4A6
100
AcDbEntity
  8
DIM
100
AcDbTrace
 10
567.549622007618
 20
999.38609549743
 30
0.0
 11
579.049622007618
 21
997.469428830764
 31
0.0
 12
579.049622007618
 22
1001.3027621641
 32
0.0
 13
579.049622007618
 23
1001.3027621641
 33
0.0
  0
SOLID
  5
4A7
100
AcDbEntity
  8
DIM
100
AcDbTrace
 10
666.049622007618
 20
1001.3027621641
 30
0.0
 11
666.049622007618
 21
997.469428830764
 31
0.0
 12
677.549622007618
 22
999.38609549743
 32
0.0
 13
677.549622007618
 23
999.38609549743
 33
0.0
  0
TEXT
  5
4A8
100
AcDbEntity
  8
DIM
 62
0
100
AcDbText
  6
BYLAYER
 62
0
 10
611.299622007618
 20
991.88609549743
 40
15
  1
110
  7
Font_0
 72
1
 11
622.549622007618
 21
999.38609549743
100
AcDbText
 73
2
  0
LINE
  5
4A9
100
AcDbEntity
  8
0
100
AcDbLine
  6
BYLAYER
 10
665.549622007618
 20
1039.71916992168
 11
579.549622007618
 21
1039.71916992168
  0
LINE
  5
4AA
100
AcDbEntity
  8
0
100
AcDbLine
  6
BYLAYER
 10
665.549622007618
 20
1038.91916992168
 11
579.549622007618
 21
1038.91916992168
  0
LINE
  5
4AB
100
AcDbEntity
  8
0
100
AcDbLine
  6
BYLAYER
 10
664.469187845064
 20
1037.71916992168
 11
580.630056170171
 21
1037.71916992168
  0
LINE
  5
4AC
100
AcDbEntity
  8
0
100
AcDbLine
  6
BYLAYER
 10
588.349622007618
 20
1037.71916992168
 11
580.630056170171
 21
1037.71916992168
  0
LINE
  5
4AD
100
AcDbEntity
  8
0
100
AcDbLine
  6
BYLAYER
 10
588.349622007618
 20
1038.91916992168
 11
579.549622007618
 21
1038.91916992168
  0
CIRCLE
  5
4AE
100
AcDbEntity
  8
0
100
AcDbCircle
  6
BYLAYER
 10
567.549622007618
 20
1027.71916992168
 40
4.25
  0
LINE
  5
4AF
100
AcDbEntity
  8
0
100
AcDbLine
  6
BYLAYER
 10
578.349622007618
 20
1057.71916992168
 11
577.549622007618
 21
1057.71916992168
  0
LINE
  5
4B0
100
AcDbEntity
  8
0
100
AcDbLine
  6
BYLAYER
 10
588.349622007618
 20
1037.71916992168
 11
588.349622007618
 21
1038.91916992168
  0
CIRCLE
  5
4B1
100
AcDbEntity
  8
0
100
AcDbCircle
  6
BYLAYER
 10
677.549622007618
 20
1027.71916992168
 40
4.25
  0
LINE
  5
4B2
100
AcDbEntity
  8
0
100
AcDbLine
  6
BYLAYER
 10
656.749622007618
 20
1037.71916992168
 11
664.469187845064
 21
1037.71916992168
  0
LINE
  5
4B3
100
AcDbEntity
  8
0
100
AcDbLine
  6
BYLAYER
 10
656.749622007618
 20
1038.91916992168
 11
665.549622007618
 21
1038.91916992168
  0
LINE
  5
4B4
100
AcDbEntity
  8
0
100
AcDbLine
  6
BYLAYER
 10
656.749622007618
 20
1037.71916992168
 11
656.749622007618
 21
1038.91916992168
  0
LINE
  5
4B5
100
AcDbEntity
  8
0
100
AcDbLine
  6
BYLAYER
 10
666.749622007618
 20
1057.71916992168
 11
667.549622007618
 21
1057.71916992168
  0
LINE
  5
4B6
100
AcDbEntity
  8
0
100
AcDbLine
  6
BYLAYER
 10
651.549622007618
 20
1094.28911684582
 11
591.549622007618
 21
1094.28911684582
  0
LINE
  5
4B7
100
AcDbEntity
  8
0
100
AcDbLine
  6
BYLAYER
 10
651.549622007618
 20
1094.78678526019
 11
591.549622007618
 21
1094.78678526019
  0
LINE
  5
4B8
100
AcDbEntity
  8
0
100
AcDbLine
  6
BYLAYER
 10
651.549622007618
 20
1095.61386601868
 11
591.549622007618
 21
1095.61386601868
  0
LINE
  5
4B9
100
AcDbEntity
  8
0
100
AcDbLine
  6
BYLAYER
 10
651.549622007618
 20
1096.11068680043
 11
591.549622007618
 21
1096.11068680043
  0
LINE
  5
4BA
100
AcDbEntity
  8
0
100
AcDbLine
  6
BYLAYER
 10
651.549622007618
 20
1099.38619001217
 11
591.549622007618
 21
1099.38619001217
  0
LINE
  5
4BB
100
AcDbEntity
  8
0
100
AcDbLine
  6
BYLAYER
 10
651.549622007618
 20
1099.72081395166
 11
591.549622007618
 21
1099.72081395166
  0
LINE
  5
4BC
100
AcDbEntity
  8
0
100
AcDbLine
  6
BYLAYER
 10
651.549622007618
 20
1100.19507364862
 11
591.549622007618
 21
1100.19507364862
  0
LINE
  5
4BD
100
AcDbEntity
  8
0
100
AcDbLine
  6
BYLAYER
 10
651.549622007618
 20
1105.53309275239
 11
591.549622007618
 21
1105.53309275239
  0
LINE
  5
4BE
100
AcDbEntity
  8
0
100
AcDbLine
  6
BYLAYER
 10
651.549622007618
 20
1106.43046731276
 11
591.549622007618
 21
1106.43046731276
  0
LINE
  5
4BF
100
AcDbEntity
  8
0
100
AcDbLine
  6
BYLAYER
 10
651.549622007618
 20
1106.86143850043
 11
591.549622007618
 21
1106.86143850043
  0
LINE
  5
4C0
100
AcDbEntity
  8
0
100
AcDbLine
  6
BYLAYER
 10
651.549622007618
 20
1113.74459525628
 11
591.549622007618
 21
1113.74459525628
  0
LINE
  5
4C1
100
AcDbEntity
  8
0
100
AcDbLine
  6
BYLAYER
 10
651.549622007618
 20
1115.44958205363
 11
591.549622007618
 21
1115.44958205363
  0
LINE
  5
4C2
100
AcDbEntity
  8
0
100
AcDbLine
  6
BYLAYER
 10
651.549622007618
 20
1115.81842922307
 11
591.549622007618
 21
1115.81842922307
  0
LINE
  5
4C3
100
AcDbEntity
  8
0
100
AcDbLine
  6
BYLAYER
 10
651.549622007618
 20
1112.00785354191
 11
591.549622007618
 21
1112.00785354191
  0
LINE
  5
4C4
100
AcDbEntity
  8
0
100
AcDbLine
  6
BYLAYER
 10
651.549622007618
 20
1118.7757163569
 11
591.549622007618
 21
1118.7757163569
  0
LINE
  5
4C5
100
AcDbEntity
  8
0
100
AcDbLine
  6
BYLAYER
 10
665.549622007618
 20
1125.71916992168
 11
579.549622007618
 21
1125.71916992168
  0
LINE
  5
4C6
100
AcDbEntity
  8
0
100
AcDbLine
  6
BYLAYER
 10
665.549622007618
 20
1126.51916992168
 11
579.549622007618
 21
1126.51916992168
  0
LINE
  5
4C7
100
AcDbEntity
  8
0
100
AcDbLine
  6
BYLAYER
 10
580.630056170172
 20
1127.71916992168
 11
664.469187845064
 21
1127.71916992168
  0
LINE
  5
4C8
100
AcDbEntity
  8
0
100
AcDbLine
  6
BYLAYER
 10
585.649622007619
 20
1125.71916992168
 11
585.649622007618
 21
1094.77275139393
  0
LINE
  5
4C9
100
AcDbEntity
  8
0
100
AcDbLine
  6
BYLAYER
 10
583.549622007618
 20
1098.57275139393
 11
583.549622007618
 21
1125.71916992168
  0
LINE
  5
4CA
100
AcDbEntity
  8
0
100
AcDbLine
  6
BYLAYER
 10
589.599622007618
 20
1097.27275139393
 11
589.599622007618
 21
1125.71916992168
  0
LINE
  5
4CB
100
AcDbEntity
  8
0
100
AcDbLine
  6
BYLAYER
 10
591.549622007618
 20
1118.7757163569
 11
589.599622007618
 21
1121.75935090501
  0
ARC
  5
4CC
100
AcDbEntity
  8
0
100
AcDbCircle
  6
BYLAYER
 10
584.349622007618
 20
1094.77275139393
 40
0.8
100
AcDbArc
 50
180
 51
270
  0
LINE
  5
4CD
100
AcDbEntity
  8
0
100
AcDbLine
  6
BYLAYER
 10
578.349622007618
 20
1062.71916992168
 11
577.549622007618
 21
1062.71916992168
  0
LINE
  5
4CE
100
AcDbEntity
  8
0
100
AcDbLine
  6
BYLAYER
 10
583.549622007618
 20
1094.77275139393
 11
583.549622007618
 21
1098.57275139393
  0
LINE
  5
4CF
100
AcDbEntity
  8
0
100
AcDbLine
  6
BYLAYER
 10
578.349622007618
 20
1102.71916992168
 11
577.549622007618
 21
1102.71916992168
  0
LINE
  5
4D0
100
AcDbEntity
  8
0
100
AcDbLine
  6
BYLAYER
 10
578.349622007618
 20
1107.71916992168
 11
577.549622007618
 21
1107.71916992168
  0
ARC
  5
4D1
100
AcDbEntity
  8
0
100
AcDbCircle
  6
BYLAYER
 10
586.649622007618
 20
1096.27275139393
 40
1
100
AcDbArc
 50
90
 51
180
  0
LINE
  5
4D2
100
AcDbEntity
  8
0
100
AcDbLine
  6
BYLAYER
 10
591.549622007618
 20
1095.61386601868
 11
589.599622007618
 21
1098.59750056679
  0
LINE
  5
4D3
100
AcDbEntity
  8
0
100
AcDbLine
  6
BYLAYER
 10
591.549622007618
 20
1094.78678526019
 11
589.599622007618
 21
1097.7704198083
  0
LINE
  5
4D4
100
AcDbEntity
  8
0
100
AcDbLine
  6
BYLAYER
 10
591.549622007618
 20
1096.11068680043
 11
589.599622007618
 21
1099.09432134854
  0
LINE
  5
4D5
100
AcDbEntity
  8
0
100
AcDbLine
  6
BYLAYER
 10
591.549622007618
 20
1094.28911684582
 11
589.599622007618
 21
1097.27275139393
  0
LINE
  5
4D6
100
AcDbEntity
  8
0
100
AcDbLine
  6
BYLAYER
 10
584.349622007618
 20
1093.97275139393
 11
584.849622007618
 21
1093.97275139393
  0
LINE
  5
4D7
100
AcDbEntity
  8
0
100
AcDbLine
  6
BYLAYER
 10
589.599622007618
 20
1097.27275139393
 11
588.349622007618
 21
1097.27275139393
  0
LINE
  5
4D8
100
AcDbEntity
  8
0
100
AcDbLine
  6
BYLAYER
 10
586.649622007618
 20
1097.27275139393
 11
588.349622007618
 21
1097.27275139393
  0
ARC
  5
4D9
100
AcDbEntity
  8
0
100
AcDbCircle
  6
BYLAYER
 10
584.849622007618
 20
1094.77275139393
 40
0.8
100
AcDbArc
 50
270
 51
0
  0
LINE
  5
4DA
100
AcDbEntity
  8
0
100
AcDbLine
  6
BYLAYER
 10
591.549622007618
 20
1100.19507364862
 11
589.599622007618
 21
1103.17870819673
  0
LINE
  5
4DB
100
AcDbEntity
  8
0
100
AcDbLine
  6
BYLAYER
 10
591.549622007618
 20
1099.72081395166
 11
589.599622007618
 21
1102.70444849977
  0
LINE
  5
4DC
100
AcDbEntity
  8
0
100
AcDbLine
  6
BYLAYER
 10
591.549622007618
 20
1099.38619001217
 11
589.599622007618
 21
1102.36982456028
  0
LINE
  5
4DD
100
AcDbEntity
  8
0
100
AcDbLine
  6
BYLAYER
 10
591.549622007618
 20
1112.00785354191
 11
589.599622007618
 21
1114.99148809002
  0
LINE
  5
4DE
100
AcDbEntity
  8
0
100
AcDbLine
  6
BYLAYER
 10
591.549622007618
 20
1106.86143850043
 11
589.599622007618
 21
1109.84507304854
  0
LINE
  5
4DF
100
AcDbEntity
  8
0
100
AcDbLine
  6
BYLAYER
 10
591.549622007618
 20
1106.43046731276
 11
589.599622007618
 21
1109.41410186088
  0
LINE
  5
4E0
100
AcDbEntity
  8
0
100
AcDbLine
  6
BYLAYER
 10
591.549622007618
 20
1105.53309275239
 11
589.599622007618
 21
1108.5167273005
  0
LINE
  5
4E1
100
AcDbEntity
  8
0
100
AcDbLine
  6
BYLAYER
 10
591.549622007618
 20
1115.81842922307
 11
589.599622007618
 21
1118.80206377118
  0
LINE
  5
4E2
100
AcDbEntity
  8
0
100
AcDbLine
  6
BYLAYER
 10
591.549622007618
 20
1115.44958205363
 11
589.599622007618
 21
1118.43321660174
  0
LINE
  5
4E3
100
AcDbEntity
  8
0
100
AcDbLine
  6
BYLAYER
 10
591.549622007618
 20
1113.74459525628
 11
589.599622007618
 21
1116.72822980439
  0
LINE
  5
4E4
100
AcDbEntity
  8
0
100
AcDbLine
  6
BYLAYER
 10
588.349622007618
 20
1126.51916992168
 11
579.549622007618
 21
1126.51916992168
  0
LINE
  5
4E5
100
AcDbEntity
  8
0
100
AcDbLine
  6
BYLAYER
 10
588.349622007618
 20
1127.71916992168
 11
580.630056170171
 21
1127.71916992168
  0
CIRCLE
  5
4E6
100
AcDbEntity
  8
0
100
AcDbCircle
  6
BYLAYER
 10
567.549622007618
 20
1137.71916992168
 40
4.25
  0
LINE
  5
4E7
100
AcDbEntity
  8
0
100
AcDbLine
  6
BYLAYER
 10
588.349622007618
 20
1126.51916992168
 11
588.349622007618
 21
1127.71916992168
  0
LINE
  5
4E8
100
AcDbEntity
  8
0
100
AcDbLine
  6
BYLAYER
 10
667.549622007618
 20
1124.63873575912
 11
667.549622007618
 21
1094.77275139393
  0
LINE
  5
4E9
100
AcDbEntity
  8
0
100
AcDbLine
  6
BYLAYER
 10
659.549622007618
 20
1125.71916992168
 11
659.549622007618
 21
1107.27275139393
  0
LINE
  5
4EA
100
AcDbEntity
  8
0
100
AcDbLine
  6
BYLAYER
 10
657.449622007618
 20
1125.71916992168
 11
657.449622007618
 21
1094.77275139393
  0
LINE
  5
4EB
100
AcDbEntity
  8
0
100
AcDbLine
  6
BYLAYER
 10
651.549622007618
 20
1118.7757163569
 11
653.499622007618
 21
1121.75935090501
  0
LINE
  5
4EC
100
AcDbEntity
  8
0
100
AcDbLine
  6
BYLAYER
 10
653.499622007618
 20
1097.27275139393
 11
653.499622007618
 21
1125.71916992168
  0
LINE
  5
4ED
100
AcDbEntity
  8
0
100
AcDbLine
  6
BYLAYER
 10
659.549622007618
 20
1098.57275139393
 11
659.549622007618
 21
1125.71916992168
  0
LINE
  5
4EE
100
AcDbEntity
  8
0
100
AcDbLine
  6
BYLAYER
 10
780.600344973157
 20
1082.71916992168
 11
780.600344973157
 21
1145.21916992168
  0
LINE
  5
4EF
100
AcDbEntity
  8
0
100
AcDbLine
  6
BYLAYER
 10
666.749622007618
 20
1062.71916992168
 11
667.549622007618
 21
1062.71916992168
  0
ARC
  5
4F0
100
AcDbEntity
  8
0
100
AcDbCircle
  6
BYLAYER
 10
656.449622007618
 20
1096.27275139393
 40
1
100
AcDbArc
 50
0
 51
90
  0
LINE
  5
4F1
100
AcDbEntity
  8
0
100
AcDbLine
  6
BYLAYER
 10
651.549622007618
 20
1094.78678526019
 11
653.499622007618
 21
1097.7704198083
  0
LINE
  5
4F2
100
AcDbEntity
  8
0
100
AcDbLine
  6
BYLAYER
 10
651.549622007618
 20
1095.61386601868
 11
653.499622007618
 21
1098.59750056679
  0
LINE
  5
4F3
100
AcDbEntity
  8
0
100
AcDbLine
  6
BYLAYER
 10
651.549622007618
 20
1096.11068680043
 11
653.499622007618
 21
1099.09432134854
  0
LINE
  5
4F4
100
AcDbEntity
  8
0
100
AcDbLine
  6
BYLAYER
 10
656.449622007618
 20
1097.27275139393
 11
654.749622007618
 21
1097.27275139393
  0
LINE
  5
4F5
100
AcDbEntity
  8
0
100
AcDbLine
  6
BYLAYER
 10
654.749622007618
 20
1097.27275139393
 11
653.499622007618
 21
1097.27275139393
  0
LINE
  5
4F6
100
AcDbEntity
  8
0
100
AcDbLine
  6
BYLAYER
 10
651.549622007618
 20
1094.28911684582
 11
653.499622007618
 21
1097.27275139393
  0
LINE
  5
4F7
100
AcDbEntity
  8
0
100
AcDbLine
  6
BYLAYER
 10
651.549622007618
 20
1099.38619001217
 11
653.499622007618
 21
1102.36982456028
  0
LINE
  5
4F8
100
AcDbEntity
  8
0
100
AcDbLine
  6
BYLAYER
 10
651.549622007618
 20
1099.72081395166
 11
653.499622007618
 21
1102.70444849977
  0
LINE
  5
4F9
100
AcDbEntity
  8
0
100
AcDbLine
  6
BYLAYER
 10
651.549622007618
 20
1100.19507364862
 11
653.499622007618
 21
1103.17870819673
  0
LINE
  5
4FA
100
AcDbEntity
  8
0
100
AcDbLine
  6
BYLAYER
 10
659.549622007618
 20
1098.57275139393
 11
659.549622007618
 21
1094.77275139393
  0
LINE
  5
4FB
100
AcDbEntity
  8
0
100
AcDbLine
  6
BYLAYER
 10
658.749622007618
 20
1093.97275139393
 11
658.249622007618
 21
1093.97275139393
  0
ARC
  5
4FC
100
AcDbEntity
  8
0
100
AcDbCircle
  6
BYLAYER
 10
658.749622007618
 20
1094.77275139393
 40
0.8
100
AcDbArc
 50
270
 51
0
  0
ARC
  5
4FD
100
AcDbEntity
  8
0
100
AcDbCircle
  6
BYLAYER
 10
658.249622007618
 20
1094.77275139393
 40
0.8
100
AcDbArc
 50
180
 51
270
  0
LINE
  5
4FE
100
AcDbEntity
  8
0
100
AcDbLine
  6
BYLAYER
 10
666.749622007618
 20
1102.71916992168
 11
667.549622007618
 21
1102.71916992168
  0
LINE
  5
4FF
100
AcDbEntity
  8
0
100
AcDbLine
  6
BYLAYER
 10
651.549622007618
 20
1112.00785354191
 11
653.499622007618
 21
1114.99148809002
  0
LINE
  5
500
100
AcDbEntity
  8
0
100
AcDbLine
  6
BYLAYER
 10
651.549622007618
 20
1105.53309275239
 11
653.499622007618
 21
1108.5167273005
  0
LINE
  5
501
100
AcDbEntity
  8
0
100
AcDbLine
  6
BYLAYER
 10
651.549622007618
 20
1106.43046731276
 11
653.499622007618
 21
1109.41410186088
  0
LINE
  5
502
100
AcDbEntity
  8
0
100
AcDbLine
  6
BYLAYER
 10
651.549622007618
 20
1106.86143850043
 11
653.499622007618
 21
1109.84507304854
  0
LINE
  5
503
100
AcDbEntity
  8
0
100
AcDbLine
  6
BYLAYER
 10
651.549622007618
 20
1113.74459525628
 11
653.499622007618
 21
1116.72822980439
  0
LINE
  5
504
100
AcDbEntity
  8
0
100
AcDbLine
  6
BYLAYER
 10
651.549622007618
 20
1115.44958205363
 11
653.499622007618
 21
1118.43321660174
  0
LINE
  5
505
100
AcDbEntity
  8
0
100
AcDbLine
  6
BYLAYER
 10
651.549622007618
 20
1115.81842922307
 11
653.499622007618
 21
1118.80206377118
  0
LINE
  5
506
100
AcDbEntity
  8
0
100
AcDbLine
  6
BYLAYER
 10
666.749622007618
 20
1107.71916992168
 11
667.549622007618
 21
1107.71916992168
  0
LINE
  5
507
100
AcDbEntity
  8
0
100
AcDbLine
  6
BYLAYER
 10
656.749622007618
 20
1126.51916992168
 11
665.549622007618
 21
1126.51916992168
  0
LINE
  5
508
100
AcDbEntity
  8
0
100
AcDbLine
  6
BYLAYER
 10
656.749622007618
 20
1127.71916992168
 11
664.469187845064
 21
1127.71916992168
  0
LINE
  5
509
100
AcDbEntity
  8
0
100
AcDbLine
  6
BYLAYER
 10
656.749622007618
 20
1126.51916992168
 11
656.749622007618
 21
1127.71916992168
  0
LINE
  5
50A
100
AcDbEntity
  8
0
100
AcDbLine
  6
BYLAYER
 10
562.849622007618
 20
1206.71916992168
 11
562.849622007618
 21
1148.11072943643
  0
LINE
  5
50B
100
AcDbEntity
  8
0
100
AcDbLine
  6
BYLAYER
 10
576.349622007618
 20
1206.71916992168
 11
574.349622007618
 21
1208.71916992168
  0
LINE
  5
50C
100
AcDbEntity
  8
0
100
AcDbLine
  6
BYLAYER
 10
564.849622007618
 20
1208.71916992168
 11
562.849622007618
 21
1206.71916992168
  0
LINE
  5
50D
100
AcDbEntity
  8
0
100
AcDbLine
  6
BYLAYER
 10
574.349622007618
 20
1208.71916992168
 11
564.849622007618
 21
1208.71916992168
  0
LINE
  5
50E
100
AcDbEntity
  8
0
100
AcDbLine
  6
BYLAYER
 10
562.849622007618
 20
1206.21916992168
 11
447.349622007618
 21
1206.21916992168
  0
ARC
  5
50F
100
AcDbEntity
  8
0
100
AcDbCircle
  6
BYLAYER
 10
529.349622007618
 20
1243.21916992168
 40
3
100
AcDbArc
 50
0
 51
90
  0
LINE
  5
510
100
AcDbEntity
  8
0
100
AcDbLine
  6
BYLAYER
 10
532.349622007618
 20
1243.21916992168
 11
532.349622007618
 21
1206.21916992168
  0
ARC
  5
511
100
AcDbEntity
  8
0
100
AcDbCircle
  6
BYLAYER
 10
460.349622007618
 20
1243.21916992168
 40
3
100
AcDbArc
 50
90
 51
180
  0
LINE
  5
512
100
AcDbEntity
  8
0
100
AcDbLine
  6
BYLAYER
 10
457.349622007618
 20
1243.21916992168
 11
457.349622007618
 21
1206.21916992168
  0
LINE
  5
513
100
AcDbEntity
  8
0
100
AcDbLine
  6
BYLAYER
 10
529.349622007618
 20
1246.21916992168
 11
460.349622007618
 21
1246.21916992168
  0
LINE
  5
514
100
AcDbEntity
  8
0
100
AcDbLine
  6
BYLAYER
 10
447.349622007618
 20
1108.71916992168
 11
417.349622007618
 21
1108.71916992168
  0
ARC
  5
515
100
AcDbEntity
  8
0
100
AcDbCircle
  6
BYLAYER
 10
417.349622007618
 20
1118.71916992168
 40
10
100
AcDbArc
 50
180
 51
270
  0
LINE
  5
516
100
AcDbEntity
  8
0
100
AcDbLine
  6
BYLAYER
 10
447.349622007618
 20
1210.71916992168
 11
447.349622007618
 21
1108.71916992168
  0
LINE
  5
517
100
AcDbEntity
  8
0
100
AcDbLine
  6
BYLAYER
 10
407.349622007618
 20
1200.71916992168
 11
407.349622007618
 21
1118.71916992168
  0
LINE
  5
518
100
AcDbEntity
  8
0
100
AcDbLine
  6
BYLAYER
 10
447.349622007618
 20
1210.71916992168
 11
417.349622007618
 21
1210.71916992168
  0
ARC
  5
519
100
AcDbEntity
  8
0
100
AcDbCircle
  6
BYLAYER
 10
417.349622007618
 20
1200.71916992168
 40
10
100
AcDbArc
 50
90
 51
180
  0
LINE
  5
51A
100
AcDbEntity
  8
0
100
AcDbLine
  6
BYLAYER
 10
555.599431337189
 20
1113.21916992168
 11
447.349622007618
 21
1113.21916992168
  0
LWPOLYLINE
  5
51B
100
AcDbEntity
  8
0
100
AcDbPolyline
  6
BYLAYER
370
0
 90
     2
 10
578.349622007618
  20
1149.06408914673
 10
578.349622007618
  20
1222.27916992168
  0
LINE
  5
51C
100
AcDbEntity
  8
0
100
AcDbLine
  6
BYLAYER
370
0
 10
566.049648363963
 20
1148.33094989414
 11
566.049652170804
 21
1166.05845472605
  0
ARC
  5
51D
100
AcDbEntity
  8
0
100
AcDbCircle
  6
BYLAYER
370
0
 10
576.049637089222
 20
1166.07582226487
 40
9.99999999999999
100
AcDbArc
 50
89.9999999999995
 51
-179.900491282518
  0
LINE
  5
51E
100
AcDbEntity
  8
0
100
AcDbLine
  6
BYLAYER
370
0
 10
576.049637089222
 20
1176.07582226487
 11
576.349622007618
 21
1176.07582226487
  0
LINE
  5
51F
100
AcDbEntity
  8
0
100
AcDbLine
  6
BYLAYER
370
0
 10
576.349622007618
 20
1176.07582226487
 11
576.349622007618
 21
1244.71912226487
  0
LINE
  5
520
100
AcDbEntity
  8
0
100
AcDbLine
  6
BYLAYER
370
0
 10
576.349622007618
 20
1244.71912226487
 11
578.349622007618
 21
1244.71912226487
  0
LINE
  5
521
100
AcDbEntity
  8
0
100
AcDbLine
  6
BYLAYER
370
0
 10
578.349622007618
 20
1244.71912226487
 11
578.349622007618
 21
1149.06408914673
  0
LWPOLYLINE
  5
522
100
AcDbEntity
  8
0
100
AcDbPolyline
  6
BYLAYER
370
0
 90
     5
 10
573.110898009012
  20
1016.6645327011
 10
575.499608445245
  20
1014.27582226487
 10
576.349622007618
  20
1014.27582226487
 10
576.349622007618
  20
1015.12582226487
 10
574.914530028388
  20
1016.5609142441
  0
LINE
  5
523
100
AcDbEntity
  8
DIM
100
AcDbLine
  6
BYLAYER
 62
0
370
  -2
 10
666.749622007618
 20
1254.05323531471
 11
666.749622007618
 21
1270.87852731324
  0
LINE
  5
524
100
AcDbEntity
  8
DIM
100
AcDbLine
  6
BYLAYER
 62
0
370
  -2
 10
576.349622007618
 20
1246.46912226487
 11
576.349622007618
 21
1270.87852731324
  0
LINE
  5
525
100
AcDbEntity
  8
DIM
100
AcDbLine
  6
BYLAYER
 62
0
370
  -2
 10
655.249622007618
 20
1267.87852731324
 11
639.049622007618
 21
1267.87852731324
  0
LINE
  5
526
100
AcDbEntity
  8
DIM
100
AcDbLine
  6
BYLAYER
 62
0
370
  -2
 10
587.849622007618
 20
1267.87852731324
 11
604.049622007618
 21
1267.87852731324
  0
SOLID
  5
527
100
AcDbEntity
  8
DIM
100
AcDbTrace
 10
655.249622007618
 20
1269.79519397991
 30
0.0
 11
655.249622007618
 21
1265.96186064657
 31
0.0
 12
666.749622007618
 22
1267.87852731324
 32
0.0
 13
666.749622007618
 23
1267.87852731324
 33
0.0
  0
SOLID
  5
528
100
AcDbEntity
  8
DIM
100
AcDbTrace
 10
576.349622007618
 20
1267.87852731324
 30
0.0
 11
587.849622007618
 21
1265.96186064657
 31
0.0
 12
587.849622007618
 22
1269.79519397991
 32
0.0
 13
587.849622007618
 23
1269.79519397991
 33
0.0
  0
TEXT
  5
529
100
AcDbEntity
  8
DIM
 62
0
100
AcDbText
  6
BYLAYER
 62
0
 10
614.049622007618
 20
1260.37852731324
 40
15
  1
90
  7
Font_0
 72
1
 11
621.549622007618
 21
1267.87852731324
100
AcDbText
 73
2
  0
LINE
  5
52A
100
AcDbEntity
  8
DIM
100
AcDbLine
  6
BYLAYER
 62
0
370
  -2
 10
698.549622007618
 20
1223.96916992168
 11
698.549622007618
 21
1293.3265454858
  0
LINE
  5
52B
100
AcDbEntity
  8
DIM
100
AcDbLine
  6
BYLAYER
 62
0
370
  -2
 10
407.349622007618
 20
1202.46916992168
 11
407.349622007618
 21
1293.3265454858
  0
LINE
  5
52C
100
AcDbEntity
  8
DIM
100
AcDbLine
  6
BYLAYER
 62
0
370
  -2
 10
687.049622007618
 20
1290.3265454858
 11
573.255387820722
 21
1290.3265454858
  0
LINE
  5
52D
100
AcDbEntity
  8
DIM
100
AcDbLine
  6
BYLAYER
 62
0
370
  -2
 10
418.849622007618
 20
1290.3265454858
 11
525.755387820722
 21
1290.3265454858
  0
SOLID
  5
52E
100
AcDbEntity
  8
DIM
100
AcDbTrace
 10
687.049622007618
 20
1292.24321215247
 30
0.0
 11
687.049622007618
 21
1288.40987881914
 31
0.0
 12
698.549622007618
 22
1290.3265454858
 32
0.0
 13
698.549622007618
 23
1290.3265454858
 33
0.0
  0
SOLID
  5
52F
100
AcDbEntity
  8
DIM
100
AcDbTrace
 10
407.349622007618
 20
1290.3265454858
 30
0.0
 11
418.849622007618
 21
1288.40987881914
 31
0.0
 12
418.849622007618
 22
1292.24321215247
 32
0.0
 13
418.849622007618
 23
1292.24321215247
 33
0.0
  0
TEXT
  5
530
100
AcDbEntity
  8
DIM
 62
0
100
AcDbText
  6
BYLAYER
 62
0
 10
538.255387820722
 20
1282.8265454858
 40
15
  1
291
  7
Font_0
 72
1
 11
549.505387820722
 21
1290.3265454858
100
AcDbText
 73
2
  0
LINE
  5
531
100
AcDbEntity
  8
0
100
AcDbLine
  6
BYLAYER
 10
839.600344973158
 20
1012.27587093508
 11
839.600344973157
 21
1037.71916992168
  0
LINE
  5
532
100
AcDbEntity
  8
0
100
AcDbLine
  6
BYLAYER
 10
989.600344973158
 20
1012.27587093508
 11
839.600344973158
 21
1012.27587093508
  0
LINE
  5
533
100
AcDbEntity
  8
0
100
AcDbLine
  6
BYLAYER
 10
989.600344973157
 20
1072.11721739464
 11
989.600344973158
 21
1012.27587093508
  0
LINE
  5
534
100
AcDbEntity
  8
CEN
100
AcDbLine
  6
BYLAYER
 10
862.274489355782
 20
1014.27587093508
 11
862.274489355782
 21
1010.27587093508
  0
LINE
  5
535
100
AcDbEntity
  8
CEN
100
AcDbLine
  6
BYLAYER
 10
966.92629297139
 20
1014.27587093508
 11
966.92629297139
 21
1010.27587093508
  0
LINE
  5
536
100
AcDbEntity
  8
CEN
100
AcDbLine
  6
BYLAYER
 10
447.197820199813
 20
1011.27582226487
 11
447.197820199813
 21
1015.27582226487
  0
LINE
  5
537
100
AcDbEntity
  8
0
100
AcDbLine
  6
BYLAYER
 10
578.349622007618
 20
1016.37425069662
 11
578.349622007618
 21
1014.27582226487
  0
LINE
  5
538
100
AcDbEntity
  8
0
100
AcDbLine
  6
BYLAYER
 10
576.349622007618
 20
1012.27582226487
 11
435.849622007618
 21
1012.27582226487
  0
LINE
  5
539
100
AcDbEntity
  8
0
100
AcDbLine
  6
BYLAYER
 10
435.849622007618
 20
1012.27582226487
 11
435.849622007618
 21
1014.27582226487
  0
LINE
  5
53A
100
AcDbEntity
  8
0
100
AcDbLine
  6
BYLAYER
 10
435.849622007618
 20
1014.27582226487
 11
447.849615226434
 21
1014.27582226487
  0
LINE
  5
53B
100
AcDbEntity
  8
0
100
AcDbLine
  6
BYLAYER
 10
447.849615226434
 20
1014.27582226487
 11
447.849615226432
 21
1014.57581548332
  0
ARC
  5
53C
100
AcDbEntity
  8
0
100
AcDbCircle
  6
BYLAYER
 10
457.849615226432
 20
1014.57581548332
 40
10
100
AcDbArc
 50
89.9995114495069
 51
180
  0
LINE
  5
53D
100
AcDbEntity
  8
0
100
AcDbLine
  6
BYLAYER
 10
457.849700494579
 20
1024.57581548295
 11
557.049470600307
 21
1024.57500126537
  0
LINE
  5
53E
100
AcDbEntity
  8
DIM
100
AcDbLine
  6
BYLAYER
 62
0
370
  -2
 10
926.706184599361
 20
1252.30323531471
 11
1061.26625103451
 21
1252.30323531471
  0
LINE
  5
53F
100
AcDbEntity
  8
DIM
100
AcDbLine
  6
BYLAYER
 62
0
370
  -2
 10
991.350344973158
 20
1012.27587093508
 11
1061.26625103451
 21
1012.27587093508
  0
LINE
  5
540
100
AcDbEntity
  8
DIM
100
AcDbLine
  6
BYLAYER
 62
0
370
  -2
 10
1058.26625103451
 20
1240.80323531471
 11
1058.26625103451
 21
1157.2895531249
  0
LINE
  5
541
100
AcDbEntity
  8
DIM
100
AcDbLine
  6
BYLAYER
 62
0
370
  -2
 10
1058.26625103451
 20
1023.77587093508
 11
1058.26625103451
 21
1107.2895531249
  0
SOLID
  5
542
100
AcDbEntity
  8
DIM
100
AcDbTrace
 10
1056.34958436784
 20
1240.80323531471
 30
0.0
 11
1060.18291770118
 21
1240.80323531471
 31
0.0
 12
1058.26625103451
 22
1252.30323531471
 32
0.0
 13
1058.26625103451
 23
1252.30323531471
 33
0.0
  0
SOLID
  5
543
100
AcDbEntity
  8
DIM
100
AcDbTrace
 10
1058.26625103451
 20
1012.27587093508
 30
0.0
 11
1060.18291770118
 21
1023.77587093508
 31
0.0
 12
1056.34958436784
 22
1023.77587093508
 32
0.0
 13
1056.34958436784
 23
1023.77587093508
 33
0.0
  0
TEXT
  5
544
100
AcDbEntity
  8
DIM
 62
0
100
AcDbText
  6
BYLAYER
 62
0
 10
1065.76625103451
 20
1121.0395531249
 40
15
  1
240
  7
Font_0
 50
90
 72
1
 11
1058.26625103451
 21
1132.2895531249
100
AcDbText
 73
2
  0
LINE
  5
545
100
AcDbEntity
  8
DIM
100
AcDbLine
  6
BYLAYER
 62
0
370
  -2
 10
1023.35034497316
 20
1159.71916992168
 11
1041.66035808088
 21
1159.71916992168
  0
LINE
  5
546
100
AcDbEntity
  8
DIM
100
AcDbLine
  6
BYLAYER
 62
0
370
  -2
 10
916.350344973156
 20
1037.71916992168
 11
1041.66035808088
 21
1037.71916992168
  0
LINE
  5
547
100
AcDbEntity
  8
DIM
100
AcDbLine
  6
BYLAYER
 62
0
370
  -2
 10
1038.66035808088
 20
1148.21916992168
 11
1038.66035808088
 21
1109.74752042838
  0
LINE
  5
548
100
AcDbEntity
  8
DIM
100
AcDbLine
  6
BYLAYER
 62
0
370
  -2
 10
1038.66035808088
 20
1049.21916992168
 11
1038.66035808088
 21
1062.24752042838
  0
SOLID
  5
549
100
AcDbEntity
  8
DIM
100
AcDbTrace
 10
1036.74369141421
 20
1148.21916992168
 30
0.0
 11
1040.57702474755
 21
1148.21916992168
 31
0.0
 12
1038.66035808088
 22
1159.71916992168
 32
0.0
 13
1038.66035808088
 23
1159.71916992168
 33
0.0
  0
SOLID
  5
54A
100
AcDbEntity
  8
DIM
100
AcDbTrace
 10
1038.66035808088
 20
1037.71916992168
 30
0.0
 11
1040.57702474755
 21
1049.21916992168
 31
0.0
 12
1036.74369141421
 22
1049.21916992168
 32
0.0
 13
1036.74369141421
 23
1049.21916992168
 33
0.0
  0
TEXT
  5
54B
100
AcDbEntity
  8
DIM
 62
0
100
AcDbText
  6
BYLAYER
 62
0
 10
1046.16035808088
 20
1074.74752042838
 40
15
  1
122
  7
Font_0
 50
90
 72
1
 11
1038.66035808088
 21
1085.99752042838
100
AcDbText
 73
2
  0
LINE
  5
54C
100
AcDbEntity
  8
DIM
100
AcDbLine
  6
BYLAYER
 62
0
370
  -2
 10
1022.12295716757
 20
1150.92473463779
 11
1022.12295716757
 21
1293.3265454858
  0
LINE
  5
54D
100
AcDbEntity
  8
DIM
100
AcDbLine
  6
BYLAYER
 62
0
370
  -2
 10
780.600344973157
 20
1146.96916992168
 11
780.600344973157
 21
1293.3265454858
  0
LINE
  5
54E
100
AcDbEntity
  8
DIM
100
AcDbLine
  6
BYLAYER
 62
0
370
  -2
 10
1010.62295716757
 20
1290.3265454858
 11
935.01735797431
 21
1290.3265454858
  0
LINE
  5
54F
100
AcDbEntity
  8
DIM
100
AcDbLine
  6
BYLAYER
 62
0
370
  -2
 10
792.100344973157
 20
1290.3265454858
 11
882.51735797431
 21
1290.3265454858
  0
SOLID
  5
550
100
AcDbEntity
  8
DIM
100
AcDbTrace
 10
1010.62295716757
 20
1292.24321215247
 30
0.0
 11
1010.62295716757
 21
1288.40987881914
 31
0.0
 12
1022.12295716757
 22
1290.3265454858
 32
0.0
 13
1022.12295716757
 23
1290.3265454858
 33
0.0
  0
SOLID
  5
551
100
AcDbEntity
  8
DIM
100
AcDbTrace
 10
780.600344973157
 20
1290.3265454858
 30
0.0
 11
792.100344973157
 21
1288.40987881914
 31
0.0
 12
792.100344973157
 22
1292.24321215247
 32
0.0
 13
792.100344973157
 23
1292.24321215247
 33
0.0
  0
TEXT
  5
552
100
AcDbEntity
  8
DIM
 62
0
100
AcDbText
  6
BYLAYER
 62
0
 10
897.51735797431
 20
1282.8265454858
 40
15
  1
242
  7
Font_0
 72
1
 11
908.76735797431
 21
1290.3265454858
100
AcDbText
 73
2
  0
LINE
  5
553
100
AcDbEntity
  8
DIM
100
AcDbLine
  6
BYLAYER
 62
0
370
  -2
 10
447.197820199813
 20
1009.52582226486
 11
447.197820199813
 21
992.687019558377
  0
LINE
  5
554
100
AcDbEntity
  8
DIM
100
AcDbLine
  6
BYLAYER
 62
0
370
  -2
 10
551.849623815422
 20
1009.52582226487
 11
551.849623815422
 21
992.687019558377
  0
LINE
  5
555
100
AcDbEntity
  8
DIM
100
AcDbLine
  6
BYLAYER
 62
0
370
  -2
 10
458.697820199813
 20
995.687019558377
 11
477.023722007618
 21
995.687019558377
  0
LINE
  5
556
100
AcDbEntity
  8
DIM
100
AcDbLine
  6
BYLAYER
 62
0
370
  -2
 10
540.349623815422
 20
995.687019558377
 11
522.023722007618
 21
995.687019558377
  0
SOLID
  5
557
100
AcDbEntity
  8
DIM
100
AcDbTrace
 10
447.197820199813
 20
995.687019558377
 30
0.0
 11
458.697820199813
 21
993.770352891711
 31
0.0
 12
458.697820199813
 22
997.603686225044
 32
0.0
 13
458.697820199813
 23
997.603686225044
 33
0.0
  0
SOLID
  5
558
100
AcDbEntity
  8
DIM
100
AcDbTrace
 10
540.349623815422
 20
997.603686225044
 30
0.0
 11
540.349623815422
 21
993.770352891711
 31
0.0
 12
551.849623815422
 22
995.687019558377
 32
0.0
 13
551.849623815422
 23
995.687019558377
 33
0.0
  0
TEXT
  5
559
100
AcDbEntity
  8
DIM
 62
0
100
AcDbText
  6
BYLAYER
 62
0
 10
488.273722007618
 20
988.187019558377
 40
15
  1
105
  7
Font_0
 72
1
 11
499.523722007618
 21
995.687019558377
100
AcDbText
 73
2
  0
LINE
  5
55A
100
AcDbEntity
  8
DIM
100
AcDbLine
  6
BYLAYER
 62
0
370
  -2
 10
578.349622007618
 20
1010.52582226487
 11
578.349622007618
 21
968.078297296229
  0
LINE
  5
55B
100
AcDbEntity
  8
DIM
100
AcDbLine
  6
BYLAYER
 62
0
370
  -2
 10
435.849622007618
 20
1010.52582226487
 11
435.849622007618
 21
968.078297296229
  0
LINE
  5
55C
100
AcDbEntity
  8
DIM
100
AcDbLine
  6
BYLAYER
 62
0
370
  -2
 10
566.849622007618
 20
971.078297296229
 11
521.904279799099
 21
971.078297296229
  0
LINE
  5
55D
100
AcDbEntity
  8
DIM
100
AcDbLine
  6
BYLAYER
 62
0
370
  -2
 10
447.349622007618
 20
971.078297296229
 11
474.404279799099
 21
971.078297296229
  0
SOLID
  5
55E
100
AcDbEntity
  8
DIM
100
AcDbTrace
 10
566.849622007618
 20
972.994963962896
 30
0.0
 11
566.849622007618
 21
969.161630629562
 31
0.0
 12
578.349622007618
 22
971.078297296229
 32
0.0
 13
578.349622007618
 23
971.078297296229
 33
0.0
  0
SOLID
  5
55F
100
AcDbEntity
  8
DIM
100
AcDbTrace
 10
435.849622007618
 20
971.078297296229
 30
0.0
 11
447.349622007618
 21
969.161630629562
 31
0.0
 12
447.349622007618
 22
972.994963962896
 32
0.0
 13
447.349622007618
 23
972.994963962896
 33
0.0
  0
TEXT
  5
560
100
AcDbEntity
  8
DIM
 62
0
100
AcDbText
  6
BYLAYER
 62
0
 10
486.904279799099
 20
963.578297296229
 40
15
  1
143
  7
Font_0
 72
1
 11
498.154279799099
 21
971.078297296229
100
AcDbText
 73
2
  0
LINE
  5
561
100
AcDbEntity
  8
DIM
100
AcDbLine
  6
BYLAYER
 62
0
370
  -2
 10
966.92629297139
 20
1008.52587093508
 11
966.92629297139
 21
996.38609549743
  0
LINE
  5
562
100
AcDbEntity
  8
DIM
100
AcDbLine
  6
BYLAYER
 62
0
370
  -2
 10
862.274489355782
 20
1008.52587093508
 11
862.274489355782
 21
996.38609549743
  0
LINE
  5
563
100
AcDbEntity
  8
DIM
100
AcDbLine
  6
BYLAYER
 62
0
370
  -2
 10
955.42629297139
 20
999.38609549743
 11
937.100391163586
 21
999.38609549743
  0
LINE
  5
564
100
AcDbEntity
  8
DIM
100
AcDbLine
  6
BYLAYER
 62
0
370
  -2
 10
873.774489355782
 20
999.38609549743
 11
892.100391163586
 21
999.38609549743
  0
SOLID
  5
565
100
AcDbEntity
  8
DIM
100
AcDbTrace
 10
955.42629297139
 20
1001.3027621641
 30
0.0
 11
955.42629297139
 21
997.469428830764
 31
0.0
 12
966.92629297139
 22
999.38609549743
 32
0.0
 13
966.92629297139
 23
999.38609549743
 33
0.0
  0
SOLID
  5
566
100
AcDbEntity
  8
DIM
100
AcDbTrace
 10
862.274489355782
 20
999.38609549743
 30
0.0
 11
873.774489355782
 21
997.469428830764
 31
0.0
 12
873.774489355782
 22
1001.3027621641
 32
0.0
 13
873.774489355782
 23
1001.3027621641
 33
0.0
  0
TEXT
  5
567
100
AcDbEntity
  8
DIM
 62
0
100
AcDbText
  6
BYLAYER
 62
0
 10
903.350391163586
 20
991.88609549743
 40
15
  1
105
  7
Font_0
 72
1
 11
914.600391163586
 21
999.38609549743
100
AcDbText
 73
2
  0
LINE
  5
568
100
AcDbEntity
  8
DIM
100
AcDbLine
  6
BYLAYER
 62
0
370
  -2
 10
989.600344973158
 20
1010.52587093508
 11
989.600344973158
 21
974.309455851172
  0
LINE
  5
569
100
AcDbEntity
  8
DIM
100
AcDbLine
  6
BYLAYER
 62
0
370
  -2
 10
839.600344973158
 20
1010.52587093508
 11
839.600344973158
 21
974.309455851172
  0
LINE
  5
56A
100
AcDbEntity
  8
DIM
100
AcDbLine
  6
BYLAYER
 62
0
370
  -2
 10
978.100344973158
 20
977.309455851172
 11
937.100344973158
 21
977.309455851172
  0
LINE
  5
56B
100
AcDbEntity
  8
DIM
100
AcDbLine
  6
BYLAYER
 62
0
370
  -2
 10
851.100344973158
 20
977.309455851172
 11
892.100344973158
 21
977.309455851172
  0
SOLID
  5
56C
100
AcDbEntity
  8
DIM
100
AcDbTrace
 10
978.100344973158
 20
979.226122517839
 30
0.0
 11
978.100344973158
 21
975.392789184506
 31
0.0
 12
989.600344973158
 22
977.309455851172
 32
0.0
 13
989.600344973158
 23
977.309455851172
 33
0.0
  0
SOLID
  5
56D
100
AcDbEntity
  8
DIM
100
AcDbTrace
 10
839.600344973158
 20
977.309455851172
 30
0.0
 11
851.100344973158
 21
975.392789184506
 31
0.0
 12
851.100344973158
 22
979.226122517839
 32
0.0
 13
851.100344973158
 23
979.226122517839
 33
0.0
  0
TEXT
  5
56E
100
AcDbEntity
  8
DIM
 62
0
100
AcDbText
  6
BYLAYER
 62
0
 10
903.350344973158
 20
969.809455851172
 40
15
  1
150
  7
Font_0
 72
1
 11
914.600344973158
 21
977.309455851172
100
AcDbText
 73
2
  0
LINE
  5
56F
100
AcDbEntity
  8
CEN
100
AcDbLine
  6
BYLAYER
 10
551.849623815422
 20
1011.27582226487
 11
551.849623815422
 21
1015.27582226487
  0
LINE
  5
570
100
AcDbEntity
  8
DIM
100
AcDbLine
  6
BYLAYER
 62
0
370
  -2
 10
624.299622007618
 20
1150.21916992168
 11
737.890425336424
 21
1150.21916992168
  0
LINE
  5
571
100
AcDbEntity
  8
DIM
100
AcDbLine
  6
BYLAYER
 62
0
370
  -2
 10
624.299622007618
 20
1015.21916992168
 11
737.890425336424
 21
1015.21916992168
  0
LINE
  5
572
100
AcDbEntity
  8
DIM
100
AcDbLine
  6
BYLAYER
 62
0
370
  -2
 10
734.890425336424
 20
1138.71916992168
 11
734.890425336424
 21
1106.46916992168
  0
LINE
  5
573
100
AcDbEntity
  8
DIM
100
AcDbLine
  6
BYLAYER
 62
0
370
  -2
 10
734.890425336424
 20
1026.71916992168
 11
734.890425336424
 21
1058.96916992168
  0
SOLID
  5
574
100
AcDbEntity
  8
DIM
100
AcDbTrace
 10
732.973758669757
 20
1138.71916992168
 30
0.0
 11
736.80709200309
 21
1138.71916992168
 31
0.0
 12
734.890425336424
 22
1150.21916992168
 32
0.0
 13
734.890425336424
 23
1150.21916992168
 33
0.0
  0
SOLID
  5
575
100
AcDbEntity
  8
DIM
100
AcDbTrace
 10
734.890425336424
 20
1015.21916992168
 30
0.0
 11
736.80709200309
 21
1026.71916992168
 31
0.0
 12
732.973758669757
 22
1026.71916992168
 32
0.0
 13
732.973758669757
 23
1026.71916992168
 33
0.0
  0
TEXT
  5
576
100
AcDbEntity
  8
DIM
 62
0
100
AcDbText
  6
BYLAYER
 62
0
 10
742.390425336424
 20
1071.46916992168
 40
15
  1
135
  7
Font_0
 50
90
 72
1
 11
734.890425336424
 21
1082.71916992168
100
AcDbText
 73
2
  0
LINE
  5
577
100
AcDbEntity
  8
DIM
100
AcDbLine
  6
BYLAYER
 62
0
370
  -2
 10
679.299622007618
 20
1137.71916992168
 11
714.069670280159
 21
1137.71916992168
  0
LINE
  5
578
100
AcDbEntity
  8
DIM
100
AcDbLine
  6
BYLAYER
 62
0
370
  -2
 10
679.299622007618
 20
1027.71916992168
 11
714.069670280159
 21
1027.71916992168
  0
LINE
  5
579
100
AcDbEntity
  8
DIM
100
AcDbLine
  6
BYLAYER
 62
0
370
  -2
 10
711.069670280159
 20
1126.21916992168
 11
711.069670280159
 21
1102.71916992168
  0
LINE
  5
57A
100
AcDbEntity
  8
DIM
100
AcDbLine
  6
BYLAYER
 62
0
370
  -2
 10
711.069670280159
 20
1039.21916992168
 11
711.069670280159
 21
1062.71916992168
  0
SOLID
  5
57B
100
AcDbEntity
  8
DIM
100
AcDbTrace
 10
709.153003613492
 20
1126.21916992168
 30
0.0
 11
712.986336946825
 21
1126.21916992168
 31
0.0
 12
711.069670280159
 22
1137.71916992168
 32
0.0
 13
711.069670280159
 23
1137.71916992168
 33
0.0
  0
SOLID
  5
57C
100
AcDbEntity
  8
DIM
100
AcDbTrace
 10
711.069670280159
 20
1027.71916992168
 30
0.0
 11
712.986336946825
 21
1039.21916992168
 31
0.0
 12
709.153003613492
 22
1039.21916992168
 32
0.0
 13
709.153003613492
 23
1039.21916992168
 33
0.0
  0
TEXT
  5
57D
100
AcDbEntity
  8
DIM
 62
0
100
AcDbText
  6
BYLAYER
 62
0
 10
718.569670280159
 20
1071.46916992168
 40
15
  1
110
  7
Font_0
 50
90
 72
1
 11
711.069670280159
 21
1082.71916992168
100
AcDbText
 73
2
  0
LINE
  5
57E
100
AcDbEntity
  8
DIM
100
AcDbLine
  6
BYLAYER
 62
0
370
  -2
 10
447.197820199813
 20
1009.52582226486
 11
447.197820199813
 21
992.687019558377
  0
LINE
  5
57F
100
AcDbEntity
  8
DIM
100
AcDbLine
  6
BYLAYER
 62
0
370
  -2
 10
435.849622007618
 20
1010.52582226487
 11
435.849622007618
 21
992.687019558377
  0
LINE
  5
580
100
AcDbEntity
  8
DIM
100
AcDbLine
  6
BYLAYER
 62
0
370
  -2
 10
458.697820199813
 20
995.687019558377
 11
470.197820199813
 21
995.687019558377
  0
LINE
  5
581
100
AcDbEntity
  8
DIM
100
AcDbLine
  6
BYLAYER
 62
0
370
  -2
 10
424.349622007618
 20
995.687019558377
 11
412.849622007618
 21
995.687019558377
  0
SOLID
  5
582
100
AcDbEntity
  8
DIM
100
AcDbTrace
 10
447.197820199813
 20
995.687019558377
 30
0.0
 11
458.697820199813
 21
993.770352891711
 31
0.0
 12
458.697820199813
 22
997.603686225044
 32
0.0
 13
458.697820199813
 23
997.603686225044
 33
0.0
  0
SOLID
  5
583
100
AcDbEntity
  8
DIM
100
AcDbTrace
 10
424.349622007618
 20
997.603686225044
 30
0.0
 11
424.349622007618
 21
993.770352891711
 31
0.0
 12
435.849622007618
 22
995.687019558377
 32
0.0
 13
435.849622007618
 23
995.687019558377
 33
0.0
  0
TEXT
  5
584
100
AcDbEntity
  8
DIM
 62
0
100
AcDbText
  6
BYLAYER
 62
0
 10
391.599622007618
 20
988.187019558377
 40
15
  1
11
  7
Font_0
 72
1
 11
399.099622007618
 21
995.687019558377
100
AcDbText
 73
2
  0
LINE
  5
585
100
AcDbEntity
  8
DIM
100
AcDbLine
  6
BYLAYER
 62
0
370
  -2
 10
532.489005130698
 20
1048.97780842102
 11
543.989005130697
 21
1048.97780842102
  0
LINE
  5
586
100
AcDbEntity
  8
DIM
100
AcDbLine
  6
BYLAYER
 62
0
370
  -2
 10
543.989005130697
 20
1048.97780842102
 11
554.555637810049
 21
1053.51612020181
  0
TEXT
  5
587
100
AcDbEntity
  8
DIM
 62
0
100
AcDbText
  6
BYLAYER
 62
0
 10
482.489005130698
 20
1041.47780842102
 40
15
  1
φ125
  7
Font_0
 72
1
 11
501.239005130698
 21
1048.97780842102
100
AcDbText
 73
2
  0
SOLID
  5
588
100
AcDbEntity
  8
DIM
100
AcDbTrace
 10
553.799252513251
 20
1055.27722564837
 30
0.0
 11
555.312023106848
 21
1051.75501475525
 31
0.0
 12
565.122270489401
 22
1058.0544319826
 32
0.0
 13
565.122270489401
 23
1058.0544319826
 33
0.0
  0
LINE
  5
589
100
AcDbEntity
  8
0
100
AcDbLine
  6
BYLAYER
 10
809.600344973157
 20
1015.21916992168
 11
810.600344973157
 21
1015.21916992168
  0
LINE
  5
58A
100
AcDbEntity
  8
0
100
AcDbLine
  6
BYLAYER
 10
810.600344973157
 20
1150.21916992168
 11
809.600344973157
 21
1150.21916992168
  0
LINE
  5
58B
100
AcDbEntity
  8
DIM
100
AcDbLine
  6
BYLAYER
 62
0
370
  -2
 10
810.600344973157
 20
1151.96916992168
 11
810.600344973157
 21
1270.87852731324
  0
LINE
  5
58C
100
AcDbEntity
  8
DIM
100
AcDbLine
  6
BYLAYER
 62
0
370
  -2
 10
914.600344973157
 20
1253.46916992168
 11
914.600344973157
 21
1270.87852731324
  0
LINE
  5
58D
100
AcDbEntity
  8
DIM
100
AcDbLine
  6
BYLAYER
 62
0
370
  -2
 10
822.100344973157
 20
1267.87852731324
 11
840.100344973157
 21
1267.87852731324
  0
LINE
  5
58E
100
AcDbEntity
  8
DIM
100
AcDbLine
  6
BYLAYER
 62
0
370
  -2
 10
903.100344973157
 20
1267.87852731324
 11
885.100344973157
 21
1267.87852731324
  0
SOLID
  5
58F
100
AcDbEntity
  8
DIM
100
AcDbTrace
 10
810.600344973157
 20
1267.87852731324
 30
0.0
 11
822.100344973157
 21
1265.96186064657
 31
0.0
 12
822.100344973157
 22
1269.79519397991
 32
0.0
 13
822.100344973157
 23
1269.79519397991
 33
0.0
  0
SOLID
  5
590
100
AcDbEntity
  8
DIM
100
AcDbTrace
 10
903.100344973157
 20
1269.79519397991
 30
0.0
 11
903.100344973157
 21
1265.96186064657
 31
0.0
 12
914.600344973157
 22
1267.87852731324
 32
0.0
 13
914.600344973157
 23
1267.87852731324
 33
0.0
  0
TEXT
  5
591
100
AcDbEntity
  8
DIM
 62
0
100
AcDbText
  6
BYLAYER
 62
0
 10
851.350344973157
 20
1260.37852731324
 40
15
  1
104
  7
Font_0
 72
1
 11
862.600344973157
 21
1267.87852731324
100
AcDbText
 73
2
  0
LINE
  5
592
100
AcDbEntity
  8
DIM
100
AcDbLine
  6
BYLAYER
 62
0
370
  -2
 10
914.600344973157
 20
1253.46916992168
 11
914.600344973157
 21
1270.87852731324
  0
LINE
  5
593
100
AcDbEntity
  8
DIM
100
AcDbLine
  6
BYLAYER
 62
0
370
  -2
 10
1022.12295716757
 20
1150.92473463779
 11
1022.12295716757
 21
1270.87852731324
  0
LINE
  5
594
100
AcDbEntity
  8
DIM
100
AcDbLine
  6
BYLAYER
 62
0
370
  -2
 10
926.100344973157
 20
1267.87852731324
 11
945.861651070362
 21
1267.87852731324
  0
LINE
  5
595
100
AcDbEntity
  8
DIM
100
AcDbLine
  6
BYLAYER
 62
0
370
  -2
 10
1010.62295716757
 20
1267.87852731324
 11
990.861651070362
 21
1267.87852731324
  0
SOLID
  5
596
100
AcDbEntity
  8
DIM
100
AcDbTrace
 10
914.600344973157
 20
1267.87852731324
 30
0.0
 11
926.100344973157
 21
1265.96186064657
 31
0.0
 12
926.100344973157
 22
1269.79519397991
 32
0.0
 13
926.100344973157
 23
1269.79519397991
 33
0.0
  0
SOLID
  5
597
100
AcDbEntity
  8
DIM
100
AcDbTrace
 10
1010.62295716757
 20
1269.79519397991
 30
0.0
 11
1010.62295716757
 21
1265.96186064657
 31
0.0
 12
1022.12295716757
 22
1267.87852731324
 32
0.0
 13
1022.12295716757
 23
1267.87852731324
 33
0.0
  0
TEXT
  5
598
100
AcDbEntity
  8
DIM
 62
0
100
AcDbText
  6
BYLAYER
 62
0
 10
957.111651070362
 20
1260.37852731324
 40
15
  1
108
  7
Font_0
 72
1
 11
968.361651070362
 21
1267.87852731324
100
AcDbText
 73
2
  0
LINE
  5
599
100
AcDbEntity
  8
DIM
100
AcDbLine
  6
BYLAYER
 62
0
370
  -2
 10
926.706184599361
 20
1252.30323531471
 11
1041.66035808088
 21
1252.30323531471
  0
LINE
  5
59A
100
AcDbEntity
  8
DIM
100
AcDbLine
  6
BYLAYER
 62
0
370
  -2
 10
1023.35034497316
 20
1159.71916992168
 11
1041.66035808088
 21
1159.71916992168
  0
LINE
  5
59B
100
AcDbEntity
  8
DIM
100
AcDbLine
  6
BYLAYER
 62
0
370
  -2
 10
1038.66035808088
 20
1240.80323531471
 11
1038.66035808088
 21
1224.76120261819
  0
LINE
  5
59C
100
AcDbEntity
  8
DIM
100
AcDbLine
  6
BYLAYER
 62
0
370
  -2
 10
1038.66035808088
 20
1171.21916992168
 11
1038.66035808088
 21
1187.26120261819
  0
SOLID
  5
59D
100
AcDbEntity
  8
DIM
100
AcDbTrace
 10
1036.74369141421
 20
1240.80323531471
 30
0.0
 11
1040.57702474755
 21
1240.80323531471
 31
0.0
 12
1038.66035808088
 22
1252.30323531471
 32
0.0
 13
1038.66035808088
 23
1252.30323531471
 33
0.0
  0
SOLID
  5
59E
100
AcDbEntity
  8
DIM
100
AcDbTrace
 10
1038.66035808088
 20
1159.71916992168
 30
0.0
 11
1040.57702474755
 21
1171.21916992168
 31
0.0
 12
1036.74369141421
 22
1171.21916992168
 32
0.0
 13
1036.74369141421
 23
1171.21916992168
 33
0.0
  0
TEXT
  5
59F
100
AcDbEntity
  8
DIM
 62
0
100
AcDbText
  6
BYLAYER
 62
0
 10
1046.16035808088
 20
1198.51120261819
 40
15
  1
93
  7
Font_0
 50
90
 72
1
 11
1038.66035808088
 21
1206.01120261819
100
AcDbText
 73
2
  0
LINE
  5
5A0
100
AcDbEntity
  8
DIM
100
AcDbLine
  6
BYLAYER
 62
0
370
  -2
 10
778.850344973157
 20
1145.21916992168
 11
761.832968461501
 21
1145.21916992168
  0
LINE
  5
5A1
100
AcDbEntity
  8
DIM
100
AcDbLine
  6
BYLAYER
 62
0
370
  -2
 10
778.850344973157
 20
1020.21916992168
 11
761.832968461501
 21
1020.21916992168
  0
LINE
  5
5A2
100
AcDbEntity
  8
DIM
100
AcDbLine
  6
BYLAYER
 62
0
370
  -2
 10
764.832968461501
 20
1133.71916992168
 11
764.832968461501
 21
1113.96916992168
  0
LINE
  5
5A3
100
AcDbEntity
  8
DIM
100
AcDbLine
  6
BYLAYER
 62
0
370
  -2
 10
764.832968461501
 20
1031.71916992168
 11
764.832968461501
 21
1051.46916992168
  0
SOLID
  5
5A4
100
AcDbEntity
  8
DIM
100
AcDbTrace
 10
762.916301794834
 20
1133.71916992168
 30
0.0
 11
766.749635128167
 21
1133.71916992168
 31
0.0
 12
764.832968461501
 22
1145.21916992168
 32
0.0
 13
764.832968461501
 23
1145.21916992168
 33
0.0
  0
SOLID
  5
5A5
100
AcDbEntity
  8
DIM
100
AcDbTrace
 10
764.832968461501
 20
1020.21916992168
 30
0.0
 11
766.749635128167
 21
1031.71916992168
 31
0.0
 12
762.916301794834
 22
1031.71916992168
 32
0.0
 13
762.916301794834
 23
1031.71916992168
 33
0.0
  0
TEXT
  5
5A6
100
AcDbEntity
  8
DIM
 62
0
100
AcDbText
  6
BYLAYER
 62
0
 10
772.332968461501
 20
1063.96916992168
 40
15
  1
Φ125
  7
Font_0
 50
90
 72
1
 11
764.832968461501
 21
1082.71916992168
100
AcDbText
 73
2
  0
CIRCLE
  5
5A7
100
AcDbEntity
  8
0
100
AcDbCircle
  6
BYLAYER
 10
914.600344973157
 20
1159.71916992168
 40
62.5
  0
LINE
  5
5A8
100
AcDbEntity
  8
0
100
AcDbLine
  6
BYLAYER
 10
668.549622007618
 20
1244.71916992168
 11
668.549622007618
 21
1148.96802347119
  0
CIRCLE
  5
5A9
100
AcDbEntity
  8
0
100
AcDbCircle
  6
BYLAYER
 10
914.600344973157
 20
1159.71916992168
 40
61.5
  0
LINE
  5
5AA
100
AcDbEntity
  8
0
100
AcDbLine
  6
BYLAYER
 10
668.549622007618
 20
1244.71916992168
 11
669.549622007618
 21
1244.71916992168
  0
LINE
  5
5AB
100
AcDbEntity
  8
0
100
AcDbLine
  6
BYLAYER
 10
698.549622007618
 20
1222.21916992168
 11
698.549622007618
 21
1097.21916992168
  0
LWPOLYLINE
  5
5AC
100
AcDbEntity
  8
0
100
AcDbPolyline
  6
BYLAYER
370
0
 90
     2
 10
689.925388368624
  20
1097.21916992168
 10
698.549622007618
  20
1097.21916992168
  0
CIRCLE
  5
5AD
100
AcDbEntity
  8
0
100
AcDbCircle
  6
BYLAYER
 10
914.600344973157
 20
1159.71916992168
 40
54
  0
CIRCLE
  5
5AE
100
AcDbEntity
  8
0
100
AcDbCircle
  6
BYLAYER
 10
884.182536455842
 20
1225.80486750447
 40
2.25
  0
ARC
  5
5AF
100
AcDbEntity
  8
0
100
AcDbCircle
  6
BYLAYER
 10
914.600344973157
 20
1159.71916992168
 40
84.9999999999999
100
AcDbArc
 50
250.189259151791
 51
109.810740848209
  0
CIRCLE
  5
5B0
100
AcDbEntity
  8
0
100
AcDbCircle
  6
BYLAYER
 10
966.926246780962
 20
1212.04507172948
 40
3.5
  0
CIRCLE
  5
5B1
100
AcDbEntity
  8
0
100
AcDbCircle
  6
BYLAYER
 10
966.926246780962
 20
1107.39326811387
 40
3.5
  0
CIRCLE
  5
5B2
100
AcDbEntity
  8
0
100
AcDbCircle
  6
BYLAYER
 10
987.041142165327
 20
1153.01891603373
 40
2.25
  0
LINE
  5
5B3
100
AcDbEntity
  8
0
100
AcDbLine
  6
BYLAYER
 10
840.643136525455
 20
1160.18077080641
 11
847.038331085067
 21
1187.14142907907
  0
ARC
  5
5B4
100
AcDbEntity
  8
0
100
AcDbCircle
  6
BYLAYER
 10
914.873514294299
 20
1171.33459462016
 40
74.283058973676
100
AcDbArc
 50
113.047083787878
 51
162.165628799041
  0
ARC
  5
5B5
100
AcDbEntity
  8
0
100
AcDbCircle
  6
BYLAYER
 10
840.838342289811
 20
1187.1532163053
 40
6.19999999999998
100
AcDbArc
 50
359.891071173932
 51
50.4114418412117
  0
ARC
  5
5B6
100
AcDbEntity
  8
0
100
AcDbCircle
  6
BYLAYER
 10
846.063957169172
 20
1193.47246856586
 40
2
100
AcDbArc
 50
162.165628799041
 51
230.411441841212
  0
ARC
  5
5B7
100
AcDbEntity
  8
0
100
AcDbCircle
  6
BYLAYER
 10
914.873514294299
 20
1148.1037452232
 40
74.283058973676
100
AcDbArc
 50
197.834371200959
 51
246.952916212147
  0
LINE
  5
5B8
100
AcDbEntity
  8
0
100
AcDbLine
  6
BYLAYER
 10
840.643136525166
 20
1159.25756910326
 11
847.038331085074
 21
1132.29691076425
  0
ARC
  5
5B9
100
AcDbEntity
  8
0
100
AcDbCircle
  6
BYLAYER
 10
842.5891387488
 20
1159.71916995422
 40
2
100
AcDbArc
 50
166.655799253886
 51
193.344200710339
  0
ARC
  5
5BA
100
AcDbEntity
  8
0
100
AcDbCircle
  6
BYLAYER
 10
840.838342289818
 20
1132.28512353806
 40
6.19999999999997
100
AcDbArc
 50
309.588558158735
 51
0.108928825728939
  0
ARC
  5
5BB
100
AcDbEntity
  8
0
100
AcDbCircle
  6
BYLAYER
 10
846.063957169173
 20
1125.96587127749
 40
2
100
AcDbArc
 50
129.588558158735
 51
197.834371200959
  0
CIRCLE
  5
5BC
100
AcDbEntity
  8
0
100
AcDbCircle
  6
BYLAYER
 10
872.577356298303
 20
1100.33372622684
 40
2.25
  0
LINE
  5
5BD
100
AcDbEntity
  8
0
100
AcDbLine
  6
BYLAYER
 10
667.749622007618
 20
1244.71916992168
 11
666.749622007618
 21
1244.71916992168
  0
ARC
  5
5BE
100
AcDbEntity
  8
0
100
AcDbCircle
  6
BYLAYER
 10
655.749622007617
 20
1093.96231164428
 40
11
100
AcDbArc
 50
27.0122939588622
 51
69.7904546262417
  0
ARC
  5
5BF
100
AcDbEntity
  8
0
100
AcDbCircle
  6
BYLAYER
 10
862.274443165353
 20
1107.39326811387
 40
3.5
100
AcDbArc
 50
315.000056793903
 51
135.000056793903
  0
ARC
  5
5C0
100
AcDbEntity
  8
0
100
AcDbCircle
  6
BYLAYER
 10
861.56733708508
 20
1106.68616063177
 40
3.5
100
AcDbArc
 50
135.000056793903
 51
315.000056793903
  0
LINE
  5
5C1
100
AcDbEntity
  8
0
100
AcDbLine
  6
BYLAYER
 10
864.749319352699
 20
1104.91839683292
 11
864.042213272426
 21
1104.21128935082
  0
LINE
  5
5C2
100
AcDbEntity
  8
0
100
AcDbLine
  6
BYLAYER
 10
859.799566978006
 20
1109.86813939483
 11
859.092460897733
 21
1109.16103191273
  0
ARC
  5
5C3
100
AcDbEntity
  8
0
100
AcDbCircle
  6
BYLAYER
 10
862.274443165353
 20
1212.04507172948
 40
3.5
100
AcDbArc
 50
224.999943206097
 51
44.9999432060972
  0
ARC
  5
5C4
100
AcDbEntity
  8
0
100
AcDbCircle
  6
BYLAYER
 10
861.56733708508
 20
1212.75217921158
 40
3.5
100
AcDbArc
 50
44.9999432060972
 51
224.999943206097
  0
LINE
  5
5C5
100
AcDbEntity
  8
0
100
AcDbLine
  6
BYLAYER
 10
864.749319352699
 20
1214.51994301044
 11
864.042213272426
 21
1215.22705049254
  0
LINE
  5
5C6
100
AcDbEntity
  8
0
100
AcDbLine
  6
BYLAYER
 10
859.799566978006
 20
1209.57020044852
 11
859.092460897733
 21
1210.27730793062
  0
LINE
  5
5C7
100
AcDbEntity
  8
0
100
AcDbLine
  6
BYLAYER
 10
667.749622007618
 20
1244.71916992168
 11
667.749622007618
 21
1149.01119402462
  0
LINE
  5
5C8
100
AcDbEntity
  8
DIM
100
AcDbLine
  6
BYLAYER
 62
0
370
  -2
 10
698.549622007618
 20
1223.96916992168
 11
698.549622007618
 21
1270.87852731324
  0
LINE
  5
5C9
100
AcDbEntity
  8
DIM
100
AcDbLine
  6
BYLAYER
 62
0
370
  -2
 10
666.749622007618
 20
1254.05323531471
 11
666.749622007618
 21
1270.87852731324
  0
LINE
  5
5CA
100
AcDbEntity
  8
DIM
100
AcDbLine
  6
BYLAYER
 62
0
370
  -2
 10
710.049622007618
 20
1267.87852731324
 11
721.549622007618
 21
1267.87852731324
  0
LINE
  5
5CB
100
AcDbEntity
  8
DIM
100
AcDbLine
  6
BYLAYER
 62
0
370
  -2
 10
655.249622007618
 20
1267.87852731324
 11
643.749622007618
 21
1267.87852731324
  0
SOLID
  5
5CC
100
AcDbEntity
  8
DIM
100
AcDbTrace
 10
698.549622007618
 20
1267.87852731324
 30
0.0
 11
710.049622007618
 21
1265.96186064657
 31
0.0
 12
710.049622007618
 22
1269.79519397991
 32
0.0
 13
710.049622007618
 23
1269.79519397991
 33
0.0
  0
SOLID
  5
5CD
100
AcDbEntity
  8
DIM
100
AcDbTrace
 10
655.249622007618
 20
1269.79519397991
 30
0.0
 11
655.249622007618
 21
1265.96186064657
 31
0.0
 12
666.749622007618
 22
1267.87852731324
 32
0.0
 13
666.749622007618
 23
1267.87852731324
 33
0.0
  0
TEXT
  5
5CE
100
AcDbEntity
  8
DIM
 62
0
100
AcDbText
  6
BYLAYER
 62
0
 10
675.149622007618
 20
1260.37852731324
 40
15
  1
32
  7
Font_0
 72
1
 11
682.649622007618
 21
1267.87852731324
100
AcDbText
 73
2
  0
LINE
  5
5CF
100
AcDbEntity
  8
0
100
AcDbLine
  6
BYLAYER
 10
672.549622007618
 20
1222.21916992168
 11
672.549622007618
 21
1148.74077367029
  0
LINE
  5
5D0
100
AcDbEntity
  8
0
100
AcDbLine
  6
BYLAYER
 10
669.549622007618
 20
1244.71916992168
 11
669.549622007618
 21
1148.91299201874
  0
ARC
  5
5D1
100
AcDbEntity
  8
0
100
AcDbCircle
  6
BYLAYER
 10
672.549622007618
 20
1225.21916992168
 40
3
100
AcDbArc
 50
180
 51
270
  0
LINE
  5
5D2
100
AcDbEntity
  8
0
100
AcDbLine
  6
BYLAYER
 10
672.549622007618
 20
1222.21916992168
 11
698.549622007618
 21
1222.21916992168
  0
ARC
  5
5D3
100
AcDbEntity
  8
0
100
AcDbCircle
  6
BYLAYER
 10
576.349622007618
 20
1014.27582226487
 40
1.99999999999977
100
AcDbArc
 50
270
 51
0
  0
ARC
  5
5D4
100
AcDbEntity
  8
BASE
100
AcDbCircle
  6
BYLAYER
370
0
 10
-156.200377992389
 20
1082.71916992168
 40
846.250000000007
100
AcDbArc
 50
-4.11273126796785
 51
4.11273126796785
  0
ARC
  5
5D5
100
AcDbEntity
  8
BASE
100
AcDbCircle
  6
BYLAYER
370
0
 10
682.883295067189
 20
1143.05284298125
 40
4.99999999999934
100
AcDbArc
 50
4.11273126797421
 51
85.8872687320399
  0
ARC
  5
5D6
100
AcDbEntity
  8
BASE
100
AcDbCircle
  6
BYLAYER
370
0
 10
622.549622007618
 20
303.969169921672
 40
846.250000000003
100
AcDbArc
 50
85.8872687320322
 51
94.1127312679678
  0
ARC
  5
5D7
100
AcDbEntity
  8
BASE
100
AcDbCircle
  6
BYLAYER
370
0
 10
562.215948948046
 20
1143.05284298125
 40
4.9999999999994
100
AcDbArc
 50
-265.887268732041
 51
-184.112731267975
  0
ARC
  5
5D8
100
AcDbEntity
  8
BASE
100
AcDbCircle
  6
BYLAYER
370
0
 10
1401.29962200762
 20
1082.71916992168
 40
846.250000000007
100
AcDbArc
 50
-184.112731267968
 51
-175.887268732032
  0
ARC
  5
5D9
100
AcDbEntity
  8
BASE
100
AcDbCircle
  6
BYLAYER
370
0
 10
562.215948948047
 20
1022.3854968621
 40
5.00000000000014
100
AcDbArc
 50
-175.887268732031
 51
-94.112731267965
  0
ARC
  5
5DA
100
AcDbEntity
  8
BASE
100
AcDbCircle
  6
BYLAYER
370
0
 10
622.549622007618
 20
1861.46916992167
 40
846.249999999999
100
AcDbArc
 50
-94.1127312679678
 51
-85.8872687320322
  0
ARC
  5
5DB
100
AcDbEntity
  8
BASE
100
AcDbCircle
  6
BYLAYER
370
0
 10
682.883295067188
 20
1022.3854968621
 40
5.00000000000002
100
AcDbArc
 50
-85.8872687320309
 51
-4.11273126796773
  0
ARC
  5
5DC
100
AcDbEntity
  8
0
100
AcDbCircle
  6
BYLAYER
 10
447.849622007623
 20
795.900199677297
 40
12
100
AcDbArc
 50
180
 51
269.999967622234
  0
ARC
  5
5DD
100
AcDbEntity
  8
0
100
AcDbCircle
  6
BYLAYER
 10
447.849622007623
 20
917.900199677301
 40
12
100
AcDbArc
 50
90.0000323777657
 51
180
  0
ARC
  5
5DE
100
AcDbEntity
  8
BASE
100
AcDbCircle
  6
BYLAYER
370
0
 10
549.049622007618
 20
909.200232996874
 40
3.49999999999983
100
AcDbArc
 50
-270
 51
-90
  0
LINE
  5
5DF
100
AcDbEntity
  8
BASE
100
AcDbLine
  6
BYLAYER
370
0
 10
549.049622007618
 20
905.700232996875
 11
555.049622007618
 21
905.700232996875
  0
ARC
  5
5E0
100
AcDbEntity
  8
BASE
100
AcDbCircle
  6
BYLAYER
370
0
 10
555.049622007618
 20
909.200232996874
 40
3.49999999999983
100
AcDbArc
 50
-90
 51
90
  0
LINE
  5
5E1
100
AcDbEntity
  8
BASE
100
AcDbLine
  6
BYLAYER
370
0
 10
555.049622007618
 20
912.700232996874
 11
549.049622007618
 21
912.700232996874
  0
ARC
  5
5E2
100
AcDbEntity
  8
BASE
100
AcDbCircle
  6
BYLAYER
370
0
 10
549.049622007618
 20
804.600232996875
 40
3.50000000000006
100
AcDbArc
 50
-270
 51
-90
  0
LINE
  5
5E3
100
AcDbEntity
  8
BASE
100
AcDbLine
  6
BYLAYER
370
0
 10
549.049622007618
 20
801.100232996875
 11
555.049622007618
 21
801.100232996875
  0
ARC
  5
5E4
100
AcDbEntity
  8
BASE
100
AcDbCircle
  6
BYLAYER
370
0
 10
555.049622007618
 20
804.600232996875
 40
3.50000000000006
100
AcDbArc
 50
-90
 51
90
  0
LINE
  5
5E5
100
AcDbEntity
  8
BASE
100
AcDbLine
  6
BYLAYER
370
0
 10
555.049622007618
 20
808.100232996875
 11
549.049622007618
 21
808.100232996875
  0
ARC
  5
5E6
100
AcDbEntity
  8
BASE
100
AcDbCircle
  6
BYLAYER
370
0
 10
444.349622007618
 20
804.600232996875
 40
3.50000000000006
100
AcDbArc
 50
-270
 51
-90
  0
LINE
  5
5E7
100
AcDbEntity
  8
BASE
100
AcDbLine
  6
BYLAYER
370
0
 10
444.349622007618
 20
801.100232996875
 11
450.349622007618
 21
801.100232996875
  0
ARC
  5
5E8
100
AcDbEntity
  8
BASE
100
AcDbCircle
  6
BYLAYER
370
0
 10
450.349622007618
 20
804.600232996875
 40
3.50000000000006
100
AcDbArc
 50
-90
 51
90
  0
LINE
  5
5E9
100
AcDbEntity
  8
BASE
100
AcDbLine
  6
BYLAYER
370
0
 10
450.349622007618
 20
808.100232996875
 11
444.349622007618
 21
808.100232996875
  0
ARC
  5
5EA
100
AcDbEntity
  8
BASE
100
AcDbCircle
  6
BYLAYER
370
0
 10
444.349622007618
 20
909.200232996875
 40
3.49999999999983
100
AcDbArc
 50
-270
 51
-90
  0
LINE
  5
5EB
100
AcDbEntity
  8
BASE
100
AcDbLine
  6
BYLAYER
370
0
 10
444.349622007618
 20
905.700232996875
 11
450.349622007618
 21
905.700232996875
  0
ARC
  5
5EC
100
AcDbEntity
  8
BASE
100
AcDbCircle
  6
BYLAYER
370
0
 10
450.349622007618
 20
909.200232996875
 40
3.49999999999983
100
AcDbArc
 50
-90
 51
90
  0
LINE
  5
5ED
100
AcDbEntity
  8
BASE
100
AcDbLine
  6
BYLAYER
370
0
 10
450.349622007618
 20
912.700232996874
 11
444.349622007618
 21
912.700232996874
  0
LINE
  5
5EE
100
AcDbEntity
  8
0
100
AcDbLine
  6
BYLAYER
 10
435.849622007618
 20
795.19869812816
 11
435.849622007618
 21
917.900199677301
  0
LINE
  5
5EF
100
AcDbEntity
  8
HIDDEN
100
AcDbLine
  6
BYLAYER
 10
447.849615226439
 20
783.900199677299
 11
576.849622007618
 21
783.900199677299
  0
LINE
  5
5F0
100
AcDbEntity
  8
0
100
AcDbLine
  6
BYLAYER
 10
447.849615226439
 20
781.900199677299
 11
578.849622007618
 21
781.900199677299
  0
LINE
  5
5F1
100
AcDbEntity
  8
0
100
AcDbLine
  6
BYLAYER
 10
447.849615226439
 20
783.900199677299
 11
447.849615226439
 21
781.900199677299
  0
LINE
  5
5F2
100
AcDbEntity
  8
HIDDEN
100
AcDbLine
  6
BYLAYER
 10
447.849615226439
 20
929.900199677299
 11
576.849622007618
 21
929.900199677299
  0
LINE
  5
5F3
100
AcDbEntity
  8
0
100
AcDbLine
  6
BYLAYER
 10
447.849615226439
 20
931.900199677299
 11
578.849622007618
 21
931.900199677299
  0
LINE
  5
5F4
100
AcDbEntity
  8
0
100
AcDbLine
  6
BYLAYER
 10
447.849615226439
 20
931.900199677299
 11
447.84961619518
 21
929.900199677299
  0
LINE
  5
5F5
100
AcDbEntity
  8
HIDDEN
100
AcDbLine
  6
BYLAYER
 10
576.849622007618
 20
783.900199677299
 11
576.849622007618
 21
929.900199677299
  0
LINE
  5
5F6
100
AcDbEntity
  8
0
100
AcDbLine
  6
BYLAYER
 10
578.849622007618
 20
781.900199677299
 11
578.849622007618
 21
931.900199677299
  0
LINE
  5
5F7
100
AcDbEntity
  8
HIDDEN
100
AcDbLine
  6
BYLAYER
 10
565.849622007618
 20
781.900199677299
 11
565.849622007618
 21
783.900199677299
  0
LINE
  5
5F8
100
AcDbEntity
  8
HIDDEN
100
AcDbLine
  6
BYLAYER
 10
565.849622007618
 20
929.900199677299
 11
565.849622007618
 21
931.900199677299
  0
LINE
  5
5F9
100
AcDbEntity
  8
HIDDEN
100
AcDbLine
  6
BYLAYER
 10
564.999622007618
 20
781.900199677299
 11
564.999622007618
 21
783.900199677299
  0
LINE
  5
5FA
100
AcDbEntity
  8
HIDDEN
100
AcDbLine
  6
BYLAYER
 10
564.999622007618
 20
929.900199677299
 11
564.999622007618
 21
931.900199677299
  0
LINE
  5
5FB
100
AcDbEntity
  8
DIM
100
AcDbLine
  6
BYLAYER
 62
0
370
  -2
 10
552.049622007618
 20
799.350232996875
 11
552.049622007618
 21
759.906269313225
  0
LINE
  5
5FC
100
AcDbEntity
  8
DIM
100
AcDbLine
  6
BYLAYER
 62
0
370
  -2
 10
447.349622007618
 20
799.350232996875
 11
447.349622007618
 21
759.906269313225
  0
LINE
  5
5FD
100
AcDbEntity
  8
DIM
100
AcDbLine
  6
BYLAYER
 62
0
370
  -2
 10
540.549622007618
 20
762.906269313225
 11
522.199622007618
 21
762.906269313225
  0
LINE
  5
5FE
100
AcDbEntity
  8
DIM
100
AcDbLine
  6
BYLAYER
 62
0
370
  -2
 10
458.849622007618
 20
762.906269313225
 11
477.199622007618
 21
762.906269313225
  0
SOLID
  5
5FF
100
AcDbEntity
  8
DIM
100
AcDbTrace
 10
540.549622007618
 20
764.822935979892
 30
0.0
 11
540.549622007618
 21
760.989602646558
 31
0.0
 12
552.049622007618
 22
762.906269313225
 32
0.0
 13
552.049622007618
 23
762.906269313225
 33
0.0
  0
SOLID
  5
600
100
AcDbEntity
  8
DIM
100
AcDbTrace
 10
447.349622007618
 20
762.906269313225
 30
0.0
 11
458.849622007618
 21
760.989602646558
 31
0.0
 12
458.849622007618
 22
764.822935979892
 32
0.0
 13
458.849622007618
 23
764.822935979892
 33
0.0
  0
TEXT
  5
601
100
AcDbEntity
  8
DIM
 62
0
100
AcDbText
  6
BYLAYER
 62
0
 10
488.449622007618
 20
755.406269313225
 40
15
  1
105
  7
Font_0
 72
1
 11
499.699622007618
 21
762.906269313225
100
AcDbText
 73
2
  0
LINE
  5
602
100
AcDbEntity
  8
DIM
100
AcDbLine
  6
BYLAYER
 62
0
370
  -2
 10
556.799622007618
 20
909.200232996874
 11
601.010631431122
 21
909.200232996874
  0
LINE
  5
603
100
AcDbEntity
  8
DIM
100
AcDbLine
  6
BYLAYER
 62
0
370
  -2
 10
556.799622007618
 20
804.600232996875
 11
601.010631431122
 21
804.600232996875
  0
LINE
  5
604
100
AcDbEntity
  8
DIM
100
AcDbLine
  6
BYLAYER
 62
0
370
  -2
 10
598.010631431122
 20
897.700232996874
 11
598.010631431122
 21
879.400232996875
  0
LINE
  5
605
100
AcDbEntity
  8
DIM
100
AcDbLine
  6
BYLAYER
 62
0
370
  -2
 10
598.010631431122
 20
816.100232996875
 11
598.010631431122
 21
834.400232996875
  0
SOLID
  5
606
100
AcDbEntity
  8
DIM
100
AcDbTrace
 10
596.093964764455
 20
897.700232996874
 30
0.0
 11
599.927298097788
 21
897.700232996874
 31
0.0
 12
598.010631431122
 22
909.200232996874
 32
0.0
 13
598.010631431122
 23
909.200232996874
 33
0.0
  0
SOLID
  5
607
100
AcDbEntity
  8
DIM
100
AcDbTrace
 10
598.010631431122
 20
804.600232996875
 30
0.0
 11
599.927298097788
 21
816.100232996875
 31
0.0
 12
596.093964764455
 22
816.100232996875
 32
0.0
 13
596.093964764455
 23
816.100232996875
 33
0.0
  0
TEXT
  5
608
100
AcDbEntity
  8
DIM
 62
0
100
AcDbText
  6
BYLAYER
 62
0
 10
605.510631431122
 20
845.650232996875
 40
15
  1
105
  7
Font_0
 50
90
 72
1
 11
598.010631431122
 21
856.900232996875
100
AcDbText
 73
2
  0
LINE
  5
609
100
AcDbEntity
  8
DIM
100
AcDbLine
  6
BYLAYER
 62
0
370
  -2
 10
447.349622007618
 20
799.350232996875
 11
447.349622007618
 21
759.906269313225
  0
LINE
  5
60A
100
AcDbEntity
  8
DIM
100
AcDbLine
  6
BYLAYER
 62
0
370
  -2
 10
435.849622007618
 20
793.44869812816
 11
435.849622007618
 21
759.906269313225
  0
LINE
  5
60B
100
AcDbEntity
  8
DIM
100
AcDbLine
  6
BYLAYER
 62
0
370
  -2
 10
458.849622007618
 20
762.906269313225
 11
470.349622007618
 21
762.906269313225
  0
LINE
  5
60C
100
AcDbEntity
  8
DIM
100
AcDbLine
  6
BYLAYER
 62
0
370
  -2
 10
424.349622007618
 20
762.906269313225
 11
412.849622007618
 21
762.906269313225
  0
SOLID
  5
60D
100
AcDbEntity
  8
DIM
100
AcDbTrace
 10
447.349622007618
 20
762.906269313225
 30
0.0
 11
458.849622007618
 21
760.989602646558
 31
0.0
 12
458.849622007618
 22
764.822935979892
 32
0.0
 13
458.849622007618
 23
764.822935979892
 33
0.0
  0
SOLID
  5
60E
100
AcDbEntity
  8
DIM
100
AcDbTrace
 10
424.349622007618
 20
764.822935979892
 30
0.0
 11
424.349622007618
 21
760.989602646558
 31
0.0
 12
435.849622007618
 22
762.906269313225
 32
0.0
 13
435.849622007618
 23
762.906269313225
 33
0.0
  0
TEXT
  5
60F
100
AcDbEntity
  8
DIM
 62
0
100
AcDbText
  6
BYLAYER
 62
0
 10
391.599622007618
 20
755.406269313225
 40
15
  1
11
  7
Font_0
 72
1
 11
399.099622007618
 21
762.906269313225
100
AcDbText
 73
2
  0
LINE
  5
610
100
AcDbEntity
  8
DIM
100
AcDbLine
  6
BYLAYER
 62
0
370
  -2
 10
440.849622007618
 20
806.350232996875
 11
440.849622007618
 21
827.004776648123
  0
LINE
  5
611
100
AcDbEntity
  8
DIM
100
AcDbLine
  6
BYLAYER
 62
0
370
  -2
 10
453.849622007618
 20
806.350232996875
 11
453.849622007618
 21
827.004776648123
  0
LINE
  5
612
100
AcDbEntity
  8
DIM
100
AcDbLine
  6
BYLAYER
 62
0
370
  -2
 10
429.349622007618
 20
824.004776648123
 11
417.849622007618
 21
824.004776648123
  0
LINE
  5
613
100
AcDbEntity
  8
DIM
100
AcDbLine
  6
BYLAYER
 62
0
370
  -2
 10
465.349622007618
 20
824.004776648123
 11
476.849622007618
 21
824.004776648123
  0
SOLID
  5
614
100
AcDbEntity
  8
DIM
100
AcDbTrace
 10
429.349622007618
 20
825.92144331479
 30
0.0
 11
429.349622007618
 21
822.088109981457
 31
0.0
 12
440.849622007618
 22
824.004776648123
 32
0.0
 13
440.849622007618
 23
824.004776648123
 33
0.0
  0
SOLID
  5
615
100
AcDbEntity
  8
DIM
100
AcDbTrace
 10
453.849622007618
 20
824.004776648123
 30
0.0
 11
465.349622007618
 21
822.088109981457
 31
0.0
 12
465.349622007618
 22
825.92144331479
 32
0.0
 13
465.349622007618
 23
825.92144331479
 33
0.0
  0
TEXT
  5
616
100
AcDbEntity
  8
DIM
 62
0
100
AcDbText
  6
BYLAYER
 62
0
 10
485.599622007618
 20
816.504776648123
 40
15
  1
13
  7
Font_0
 72
1
 11
493.099622007618
 21
824.004776648123
100
AcDbText
 73
2
  0
LINE
  5
617
100
AcDbEntity
  8
DIM
100
AcDbLine
  6
BYLAYER
 62
0
370
  -2
 10
482.314313801315
 20
875.814754901781
 11
463.189313801315
 21
875.814754901781
  0
LINE
  5
618
100
AcDbEntity
  8
DIM
100
AcDbLine
  6
BYLAYER
 62
0
370
  -2
 10
463.189313801315
 20
875.814754901781
 11
455.733987924458
 21
895.19992572619
  0
TEXT
  5
619
100
AcDbEntity
  8
DIM
 62
0
100
AcDbText
  6
BYLAYER
 62
0
 10
496.064313801315
 20
868.314754901781
 40
15
  1
R3.5
  7
Font_0
 72
1
 11
511.064313801315
 21
875.814754901781
100
AcDbText
 73
2
  0
SOLID
  5
61A
100
AcDbEntity
  8
DIM
100
AcDbTrace
 10
451.60597405488
 20
905.933494633715
 30
0.0
 11
453.945059773204
 21
894.511923414594
 31
0.0
 12
457.522916075712
 22
895.887928037787
 32
0.0
 13
457.522916075712
 23
895.887928037787
 33
0.0
  0
LWPOLYLINE
  5
61B
100
AcDbEntity
  8
0
100
AcDbPolyline
  6
BYLAYER
 90
     91
 10
837.653331978987
  20
1127.71916992168
 10
836.737260464617
  20
1133.01367254647
 10
835.85247886225
  20
1138.41839193182
 10
835.052347275101
  20
1143.91715064076
 10
834.390225806388
  20
1149.49377123632
 10
833.919474559325
  20
1155.13207628155
 10
833.69345363713
  20
1160.81588833947
 10
833.765523143019
  20
1166.52902997312
 10
834.189043180208
  20
1172.25532374554
 10
835.017373851913
  20
1177.97859221976
 10
836.292414197093
  20
1183.68062234695
 10
838.010218997681
  20
1189.33505863078
 10
840.15538197135
  20
1194.91350996307
 10
842.712496835775
  20
1200.38758523561
 10
845.666157308629
  20
1205.72889334021
 10
849.000957107588
  20
1210.90904316869
 10
852.701489950327
  20
1215.89964361284
 10
856.752349554518
  20
1220.67230356446
 10
861.138129637837
  20
1225.19863191538
 10
865.840666057576
  20
1229.45167450989
 10
870.8307632295
  20
1233.41022500226
 10
876.076467708993
  20
1237.05451399929
 10
881.545826051436
  20
1240.36477210774
 10
887.206884812213
  20
1243.32122993441
 10
893.027690546707
  20
1245.90411808606
 10
898.976289810301
  20
1248.09366716947
 10
905.020729158377
  20
1249.87010779143
 10
911.129055146319
  20
1251.21367055871
 10
917.271766769066
  20
1252.10937796907
 10
923.429172779784
  20
1252.56142008418
 10
929.584034371193
  20
1252.57877885669
 10
935.719112736017
  20
1252.17043623924
 10
941.817169066977
  20
1251.3453741845
 10
947.860964556794
  20
1250.1125746451
 10
953.833260398192
  20
1248.48101957369
 10
959.71681778389
  20
1246.45969092293
 10
965.494397906612
  20
1244.05757064547
 10
971.146382828558
  20
1241.28474402957
 10
976.643638089846
  20
1238.15570970598
 10
981.954650100073
  20
1234.68606964107
 10
987.047905268835
  20
1230.89142580122
 10
991.891890005729
  20
1226.78738015279
 10
996.455090720352
  20
1222.38953466215
 10
1000.7059938223
  20
1217.71349129568
 10
1004.61308572117
  20
1212.77485201973
 10
1008.14485282656
  20
1207.58921880069
 10
1011.27601442786
  20
1202.17361070593
 10
1014.00622133358
  20
1196.55071520688
 10
1016.34135723205
  20
1190.74463687595
 10
1018.28730581157
  20
1184.77948028557
 10
1019.84995076047
  20
1178.67935000819
 10
1021.03517576705
  20
1172.46835061621
 10
1021.84886451964
  20
1166.17058668208
 10
1022.29690070654
  20
1159.81016277821
 10
1022.38516801606
  20
1153.41118347705
 10
1022.1202926323
  20
1146.99798397372
 10
1021.51187072236
  20
1140.59582195421
 10
1020.57024094914
  20
1134.23018572722
 10
1019.30574197553
  20
1127.92656360143
 10
1017.72871246441
  20
1121.71044388555
 10
1015.84949107868
  20
1115.60731488827
 10
1013.67841648122
  20
1109.64266491828
 10
1011.22582733492
  20
1103.84198228427
 10
1008.50206230267
  20
1098.23075529495
 10
1005.52006565221
  20
1092.83227643922
 10
1002.3032040707
  20
1087.6610549269
 10
998.877449850152
  20
1082.72940414803
 10
995.268775282586
  20
1078.04963749263
 10
991.503152660015
  20
1073.63406835074
 10
987.606554274452
  20
1069.4950101124
 10
983.604952417912
  20
1065.64477616763
 10
979.52431938241
  20
1062.09567990648
 10
975.390627459959
  20
1058.86003471897
 10
971.228134771249
  20
1055.94467899895
 10
967.05424275167
  20
1053.33455115551
 10
962.884638665287
  20
1051.00911460154
 10
958.735009776161
  20
1048.94783274994
 10
954.62104334836
  20
1047.13016901362
 10
950.558426645947
  20
1045.53558680545
 10
946.562846932985
  20
1044.14354953836
 10
942.649991473541
  20
1042.93352062522
 10
938.835547531677
  20
1041.88496347894
 10
935.139424423662
  20
1040.97925307363
 10
931.598419674579
  20
1040.20541062823
 10
928.253552861715
  20
1039.55436892292
 10
925.145843562355
  20
1039.01706073784
 10
922.316311353786
  20
1038.58441885316
 10
919.805975813296
  20
1038.24737604904
 10
917.655856518169
  20
1037.99686510565
 10
915.906973045694
  20
1037.82381880314
 10
914.600344973157
  20
1037.71916992168
  0
ENDSEC
  0
SECTION
  2
OBJECTS
  0
DICTIONARY
  5
61C
100
AcDbDictionary
  3
ACAD_GROUP
350
61D
  3
ACAD_MLINESTYLE
350
61E
  0
DICTIONARY
  5
61D
102
{ACAD_REACTORS
330
61C
102
}
100
AcDbDictionary
  0
DICTIONARY
  5
61E
102
{ACAD_REACTORS
330
61C
102
}
100
AcDbDictionary
  3
STANDARD
350
61F
  0
MLINESTYLE
  5
61F
102
{ACAD_REACTORS
330
61E
102
}
100
AcDbMlineStyle
  2
Standard
 70
     0
  3

 62
     0
 51
90.0
 52
90.0
 71
     2
 49
0.5
 62
   256
  6
ByLayer
 49
-0.5
 62
   256
  6
ByLayer
  0
ENDSEC
  0
EOF
