999
Outputted By AR_CAD Ver.1.6.0
  0
SECTION
  2
HEADER
  9
$ACADVER
  1
AC1014
  9
$DWGCODEPAGE
  3
ANSI_932
  9
$EXTMIN
 10
0
 20
0
  9
$EXTMAX
 10
594
 20
420
  9
$INSBASE
 10
0.0
 20
0.0
 30
0.0
  9
$HANDLING
 70
     1
  9
$HANDSEED
  5
688
  9
$LTSCALE
 40
1
  0
ENDSEC
  0
SECTION
  2
TABLES
  0
TABLE
  2
VPORT
  5
1
100
AcDbSymbolTable
 70
     1
  0
VPORT
  5
30
100
AcDbSymbolTableRecord
100
AcDbViewportTableRecord
  2
*ACTIVE
 70
     0
 10
0.0
 20
0.0
 11
1.0
 21
1.0
 12
210.0
 22
148.5
 13
0.0
 23
0.0
 14
10.0
 24
10.0
 15
10.0
 25
10.0
 16
0.0
 26
0.0
 36
1.0
 17
0.0
 27
0.0
 37
0.0
 40
302.94
 41
1.333333
 42
50.0
 43
0.0
 44
0.0
 50
0.0
 51
0.0
 71
     0
 72
   100
 73
     1
 74
     1
 75
     0
 76
     0
 77
     0
 78
     0
  0
ENDTAB
  0
TABLE
  2
LTYPE
  5
2
100
AcDbSymbolTable
 70
     20
  0
LTYPE
  5
31
100
AcDbSymbolTableRecord
100
AcDbLinetypeTableRecord
  2
BYBLOCK
 70
    64
 3

 72
    65
 73
    0
 40
    0
  0
LTYPE
  5
32
100
AcDbSymbolTableRecord
100
AcDbLinetypeTableRecord
  2
BYLAYER
 70
    64
 3

 72
    65
 73
    0
 40
    0
  0
LTYPE
  5
33
100
AcDbSymbolTableRecord
100
AcDbLinetypeTableRecord
  2
CONTINUOUS
 70
    64
 3
CONTINUOUS
 72
    65
 73
    0
 40
    0
  0
LTYPE
  5
34
100
AcDbSymbolTableRecord
100
AcDbLinetypeTableRecord
  2
DASHED
 70
    64
 3

 72
    65
 73
    2
 40
    3.5
 49
    2.91666666666667
 74
    0
 49
    -0.583333333333333
 74
    0
  0
LTYPE
  5
35
100
AcDbSymbolTableRecord
100
AcDbLinetypeTableRecord
  2
DOT
 70
    64
 3

 72
    65
 73
    2
 40
    0.5
 49
    0.25
 74
    0
 49
    -0.25
 74
    0
  0
LTYPE
  5
36
100
AcDbSymbolTableRecord
100
AcDbLinetypeTableRecord
  2
DASHDOT
 70
    64
 3

 72
    65
 73
    4
 40
    3.5
 49
    1.84210526315789
 74
    0
 49
    -0.552631578947368
 74
    0
 49
    0.552631578947368
 74
    0
 49
    -0.552631578947368
 74
    0
  0
LTYPE
  5
37
100
AcDbSymbolTableRecord
100
AcDbLinetypeTableRecord
  2
DIVIDE
 70
    64
 3

 72
    65
 73
    6
 40
    3.5
 49
    1.4
 74
    0
 49
    -0.42
 74
    0
 49
    0.42
 74
    0
 49
    -0.42
 74
    0
 49
    0.42
 74
    0
 49
    -0.42
 74
    0
  0
LTYPE
  5
38
100
AcDbSymbolTableRecord
100
AcDbLinetypeTableRecord
  2
HIDDEN
 70
    64
 3

 72
    65
 73
    2
 40
    9.525
 49
    6.35
 74
    0
 49
    -3.175
 74
    0
  0
LTYPE
  5
39
100
AcDbSymbolTableRecord
100
AcDbLinetypeTableRecord
  2
CENTERX2
 70
    64
 3

 72
    65
 73
    4
 40
    4
 49
    2.5
 74
    0
 49
    -0.5
 74
    0
 49
    0.5
 74
    0
 49
    -0.5
 74
    0
  0
LTYPE
  5
3A
100
AcDbSymbolTableRecord
100
AcDbLinetypeTableRecord
  2
CENTER
 70
    64
 3

 72
    65
 73
    4
 40
    50.8
 49
    31.75
 74
    0
 49
    -6.35
 74
    0
 49
    6.35
 74
    0
 49
    -6.35
 74
    0
  0
LTYPE
  5
3B
100
AcDbSymbolTableRecord
100
AcDbLinetypeTableRecord
  2
BORDER
 70
    64
 3

 72
    65
 73
    6
 40
    44.45
 49
    12.7
 74
    0
 49
    -6.35
 74
    0
 49
    12.7
 74
    0
 49
    -6.35
 74
    0
 49
    0
 74
    0
 49
    -6.35
 74
    0
  0
LTYPE
  5
3C
100
AcDbSymbolTableRecord
100
AcDbLinetypeTableRecord
  2
AM_ISO02W050
 70
    64
 3

 72
    65
 73
    2
 40
    7.5
 49
    6
 74
    0
 49
    -1.5
 74
    0
  0
LTYPE
  5
3D
100
AcDbSymbolTableRecord
100
AcDbLinetypeTableRecord
  2
AM_ISO08W050
 70
    64
 3

 72
    65
 73
    4
 40
    18
 49
    12
 74
    0
 49
    -1.5
 74
    0
 49
    3
 74
    0
 49
    -1.5
 74
    0
  0
LTYPE
  5
3E
100
AcDbSymbolTableRecord
100
AcDbLinetypeTableRecord
  2
AM_ISO09W050
 70
    64
 3

 72
    65
 73
    6
 40
    22.5
 49
    12
 74
    0
 49
    -1.5
 74
    0
 49
    3
 74
    0
 49
    -1.5
 74
    0
 49
    3
 74
    0
 49
    -1.5
 74
    0
  0
LTYPE
  5
3F
100
AcDbSymbolTableRecord
100
AcDbLinetypeTableRecord
  2
Amconstr
 70
    64
 3

 72
    65
 73
    1
 40
    9999
 49
    9999
 74
    0
  0
LTYPE
  5
40
100
AcDbSymbolTableRecord
100
AcDbLinetypeTableRecord
  2
AM_ISO08W050x2
 70
    64
 3

 72
    65
 73
    4
 40
    9
 49
    6
 74
    0
 49
    -0.75
 74
    0
 49
    1.5
 74
    0
 49
    -0.75
 74
    0
  0
LTYPE
  5
41
100
AcDbSymbolTableRecord
100
AcDbLinetypeTableRecord
  2
AM_ISO02W050x2
 70
    64
 3

 72
    65
 73
    2
 40
    3.75
 49
    3
 74
    0
 49
    -0.75
 74
    0
  0
LTYPE
  5
42
100
AcDbSymbolTableRecord
100
AcDbLinetypeTableRecord
  2
Amzigzag
 70
    64
 3

 72
    65
 73
    2
 40
    4
 49
    2
 74
    0
 49
    -2
 74
    0
  0
LTYPE
  5
43
100
AcDbSymbolTableRecord
100
AcDbLinetypeTableRecord
  2
ACISOWELD
 70
    64
 3

 72
    65
 73
    2
 40
    2
 49
    1.33333333333333
 74
    0
 49
    -0.666666666666667
 74
    0
  0
LTYPE
  5
44
100
AcDbSymbolTableRecord
100
AcDbLinetypeTableRecord
  2
ACISOTGB
 70
    64
 3

 72
    65
 73
    6
 40
    9
 49
    4
 74
    0
 49
    -1
 74
    0
 49
    1
 74
    0
 49
    -1
 74
    0
 49
    1
 74
    0
 49
    -1
 74
    0
  0
LTYPE
  5
45
100
AcDbSymbolTableRecord
100
AcDbLinetypeTableRecord
  2
ACISOTGL
 70
    64
 3

 72
    65
 73
    2
 40
    3
 49
    2
 74
    0
 49
    -1
 74
    0
  0
ENDTAB
  0
TABLE
  2
LAYER
  5
3
100
AcDbSymbolTable
 70
   257
  0
LAYER
  5
46
100
AcDbSymbolTableRecord
100
AcDbLayerTableRecord
  2
0
 70
    0
 62
7
  6
CONTINUOUS
  0
LAYER
  5
47
100
AcDbSymbolTableRecord
100
AcDbLayerTableRecord
  2
DEFPOINTS
 70
    0
 62
7
  6
CONTINUOUS
  0
LAYER
  5
48
100
AcDbSymbolTableRecord
100
AcDbLayerTableRecord
  2
ASHADE
 70
    4
 62
7
  6
CONTINUOUS
  0
LAYER
  5
49
100
AcDbSymbolTableRecord
100
AcDbLayerTableRecord
  2
CEN
 70
    0
 62
3
  6
AM_ISO08W050
  0
LAYER
  5
4A
100
AcDbSymbolTableRecord
100
AcDbLayerTableRecord
  2
DIM
 70
    0
 62
5
  6
CONTINUOUS
  0
LAYER
  5
4B
100
AcDbSymbolTableRecord
100
AcDbLayerTableRecord
  2
HIDDEN
 70
    0
 62
3
  6
CONTINUOUS
  0
LAYER
  5
4C
100
AcDbSymbolTableRecord
100
AcDbLayerTableRecord
  2
HATCH
 70
    0
 62
5
  6
CONTINUOUS
  0
LAYER
  5
4D
100
AcDbSymbolTableRecord
100
AcDbLayerTableRecord
  2
TEXT
 70
    0
 62
250
  6
CONTINUOUS
  0
LAYER
  5
4E
100
AcDbSymbolTableRecord
100
AcDbLayerTableRecord
  2
M
 70
    0
 62
6
  6
CONTINUOUS
  0
LAYER
  5
4F
100
AcDbSymbolTableRecord
100
AcDbLayerTableRecord
  2
BREAK
 70
    0
 62
3
  6
AM_ISO09W050
  0
LAYER
  5
50
100
AcDbSymbolTableRecord
100
AcDbLayerTableRecord
  2
01
 70
    0
 62
3
  6
CONTINUOUS
  0
LAYER
  5
51
100
AcDbSymbolTableRecord
100
AcDbLayerTableRecord
  2
7475A
 70
    0
 62
1
  6
CONTINUOUS
  0
LAYER
  5
52
100
AcDbSymbolTableRecord
100
AcDbLayerTableRecord
  2
BASE
 70
    0
 62
7
  6
CONTINUOUS
  0
LAYER
  5
53
100
AcDbSymbolTableRecord
100
AcDbLayerTableRecord
  2
AME
 70
    0
 62
7
  6
CONTINUOUS
  0
LAYER
  5
54
100
AcDbSymbolTableRecord
100
AcDbLayerTableRecord
  2
PV-230
 70
    0
 62
7
  6
CONTINUOUS
  0
LAYER
  5
55
100
AcDbSymbolTableRecord
100
AcDbLayerTableRecord
  2
PV-236
 70
    0
 62
7
  6
CONTINUOUS
  0
LAYER
  5
56
100
AcDbSymbolTableRecord
100
AcDbLayerTableRecord
  2
AM_7
 70
    0
 62
4
  6
AM_ISO08W050x2
  0
LAYER
  5
57
100
AcDbSymbolTableRecord
100
AcDbLayerTableRecord
  2
画層17
 70
    0
 62
70
  6
CONTINUOUS
  0
LAYER
  5
58
100
AcDbSymbolTableRecord
100
AcDbLayerTableRecord
  2
画層18
 70
    0
 62
211
  6
CONTINUOUS
  0
LAYER
  5
59
100
AcDbSymbolTableRecord
100
AcDbLayerTableRecord
  2
画層19
 70
    0
 62
137
  6
CONTINUOUS
  0
LAYER
  5
5A
100
AcDbSymbolTableRecord
100
AcDbLayerTableRecord
  2
画層20
 70
    0
 62
4
  6
CONTINUOUS
  0
LAYER
  5
5B
100
AcDbSymbolTableRecord
100
AcDbLayerTableRecord
  2
画層21
 70
    0
 62
131
  6
CONTINUOUS
  0
LAYER
  5
5C
100
AcDbSymbolTableRecord
100
AcDbLayerTableRecord
  2
画層22
 70
    0
 62
4
  6
CONTINUOUS
  0
LAYER
  5
5D
100
AcDbSymbolTableRecord
100
AcDbLayerTableRecord
  2
画層23
 70
    0
 62
4
  6
CONTINUOUS
  0
LAYER
  5
5E
100
AcDbSymbolTableRecord
100
AcDbLayerTableRecord
  2
画層24
 70
    0
 62
7
  6
CONTINUOUS
  0
LAYER
  5
5F
100
AcDbSymbolTableRecord
100
AcDbLayerTableRecord
  2
画層25
 70
    0
 62
7
  6
CONTINUOUS
  0
LAYER
  5
60
100
AcDbSymbolTableRecord
100
AcDbLayerTableRecord
  2
画層26
 70
    0
 62
7
  6
CONTINUOUS
  0
LAYER
  5
61
100
AcDbSymbolTableRecord
100
AcDbLayerTableRecord
  2
画層27
 70
    0
 62
7
  6
CONTINUOUS
  0
LAYER
  5
62
100
AcDbSymbolTableRecord
100
AcDbLayerTableRecord
  2
画層28
 70
    0
 62
7
  6
CONTINUOUS
  0
LAYER
  5
63
100
AcDbSymbolTableRecord
100
AcDbLayerTableRecord
  2
画層29
 70
    0
 62
7
  6
CONTINUOUS
  0
LAYER
  5
64
100
AcDbSymbolTableRecord
100
AcDbLayerTableRecord
  2
画層30
 70
    0
 62
7
  6
CONTINUOUS
  0
LAYER
  5
65
100
AcDbSymbolTableRecord
100
AcDbLayerTableRecord
  2
画層31
 70
    0
 62
7
  6
CONTINUOUS
  0
LAYER
  5
66
100
AcDbSymbolTableRecord
100
AcDbLayerTableRecord
  2
画層32
 70
    0
 62
7
  6
CONTINUOUS
  0
LAYER
  5
67
100
AcDbSymbolTableRecord
100
AcDbLayerTableRecord
  2
画層33
 70
    0
 62
7
  6
CONTINUOUS
  0
LAYER
  5
68
100
AcDbSymbolTableRecord
100
AcDbLayerTableRecord
  2
画層34
 70
    0
 62
7
  6
CONTINUOUS
  0
LAYER
  5
69
100
AcDbSymbolTableRecord
100
AcDbLayerTableRecord
  2
画層35
 70
    0
 62
7
  6
CONTINUOUS
  0
LAYER
  5
6A
100
AcDbSymbolTableRecord
100
AcDbLayerTableRecord
  2
画層36
 70
    0
 62
7
  6
CONTINUOUS
  0
LAYER
  5
6B
100
AcDbSymbolTableRecord
100
AcDbLayerTableRecord
  2
画層37
 70
    0
 62
7
  6
CONTINUOUS
  0
LAYER
  5
6C
100
AcDbSymbolTableRecord
100
AcDbLayerTableRecord
  2
画層38
 70
    0
 62
7
  6
CONTINUOUS
  0
LAYER
  5
6D
100
AcDbSymbolTableRecord
100
AcDbLayerTableRecord
  2
画層39
 70
    0
 62
7
  6
CONTINUOUS
  0
LAYER
  5
6E
100
AcDbSymbolTableRecord
100
AcDbLayerTableRecord
  2
画層40
 70
    0
 62
7
  6
CONTINUOUS
  0
LAYER
  5
6F
100
AcDbSymbolTableRecord
100
AcDbLayerTableRecord
  2
画層41
 70
    0
 62
7
  6
CONTINUOUS
  0
LAYER
  5
70
100
AcDbSymbolTableRecord
100
AcDbLayerTableRecord
  2
画層42
 70
    0
 62
7
  6
CONTINUOUS
  0
LAYER
  5
71
100
AcDbSymbolTableRecord
100
AcDbLayerTableRecord
  2
画層43
 70
    0
 62
7
  6
CONTINUOUS
  0
LAYER
  5
72
100
AcDbSymbolTableRecord
100
AcDbLayerTableRecord
  2
画層44
 70
    0
 62
7
  6
CONTINUOUS
  0
LAYER
  5
73
100
AcDbSymbolTableRecord
100
AcDbLayerTableRecord
  2
画層45
 70
    0
 62
7
  6
CONTINUOUS
  0
LAYER
  5
74
100
AcDbSymbolTableRecord
100
AcDbLayerTableRecord
  2
画層46
 70
    0
 62
7
  6
CONTINUOUS
  0
LAYER
  5
75
100
AcDbSymbolTableRecord
100
AcDbLayerTableRecord
  2
画層47
 70
    0
 62
7
  6
CONTINUOUS
  0
LAYER
  5
76
100
AcDbSymbolTableRecord
100
AcDbLayerTableRecord
  2
画層48
 70
    0
 62
7
  6
CONTINUOUS
  0
LAYER
  5
77
100
AcDbSymbolTableRecord
100
AcDbLayerTableRecord
  2
画層49
 70
    0
 62
7
  6
CONTINUOUS
  0
LAYER
  5
78
100
AcDbSymbolTableRecord
100
AcDbLayerTableRecord
  2
画層50
 70
    0
 62
7
  6
CONTINUOUS
  0
LAYER
  5
79
100
AcDbSymbolTableRecord
100
AcDbLayerTableRecord
  2
画層51
 70
    0
 62
7
  6
CONTINUOUS
  0
LAYER
  5
7A
100
AcDbSymbolTableRecord
100
AcDbLayerTableRecord
  2
画層52
 70
    0
 62
7
  6
CONTINUOUS
  0
LAYER
  5
7B
100
AcDbSymbolTableRecord
100
AcDbLayerTableRecord
  2
画層53
 70
    0
 62
7
  6
CONTINUOUS
  0
LAYER
  5
7C
100
AcDbSymbolTableRecord
100
AcDbLayerTableRecord
  2
画層54
 70
    0
 62
7
  6
CONTINUOUS
  0
LAYER
  5
7D
100
AcDbSymbolTableRecord
100
AcDbLayerTableRecord
  2
画層55
 70
    0
 62
7
  6
CONTINUOUS
  0
LAYER
  5
7E
100
AcDbSymbolTableRecord
100
AcDbLayerTableRecord
  2
画層56
 70
    0
 62
7
  6
CONTINUOUS
  0
LAYER
  5
7F
100
AcDbSymbolTableRecord
100
AcDbLayerTableRecord
  2
画層57
 70
    0
 62
7
  6
CONTINUOUS
  0
LAYER
  5
80
100
AcDbSymbolTableRecord
100
AcDbLayerTableRecord
  2
画層58
 70
    0
 62
7
  6
CONTINUOUS
  0
LAYER
  5
81
100
AcDbSymbolTableRecord
100
AcDbLayerTableRecord
  2
画層59
 70
    0
 62
7
  6
CONTINUOUS
  0
LAYER
  5
82
100
AcDbSymbolTableRecord
100
AcDbLayerTableRecord
  2
画層60
 70
    0
 62
7
  6
CONTINUOUS
  0
LAYER
  5
83
100
AcDbSymbolTableRecord
100
AcDbLayerTableRecord
  2
画層61
 70
    0
 62
7
  6
CONTINUOUS
  0
LAYER
  5
84
100
AcDbSymbolTableRecord
100
AcDbLayerTableRecord
  2
画層62
 70
    0
 62
7
  6
CONTINUOUS
  0
LAYER
  5
85
100
AcDbSymbolTableRecord
100
AcDbLayerTableRecord
  2
画層63
 70
    0
 62
7
  6
CONTINUOUS
  0
LAYER
  5
86
100
AcDbSymbolTableRecord
100
AcDbLayerTableRecord
  2
画層64
 70
    0
 62
7
  6
CONTINUOUS
  0
LAYER
  5
87
100
AcDbSymbolTableRecord
100
AcDbLayerTableRecord
  2
画層65
 70
    0
 62
7
  6
CONTINUOUS
  0
LAYER
  5
88
100
AcDbSymbolTableRecord
100
AcDbLayerTableRecord
  2
画層66
 70
    0
 62
7
  6
CONTINUOUS
  0
LAYER
  5
89
100
AcDbSymbolTableRecord
100
AcDbLayerTableRecord
  2
画層67
 70
    0
 62
7
  6
CONTINUOUS
  0
LAYER
  5
8A
100
AcDbSymbolTableRecord
100
AcDbLayerTableRecord
  2
画層68
 70
    0
 62
7
  6
CONTINUOUS
  0
LAYER
  5
8B
100
AcDbSymbolTableRecord
100
AcDbLayerTableRecord
  2
画層69
 70
    0
 62
7
  6
CONTINUOUS
  0
LAYER
  5
8C
100
AcDbSymbolTableRecord
100
AcDbLayerTableRecord
  2
画層70
 70
    0
 62
7
  6
CONTINUOUS
  0
LAYER
  5
8D
100
AcDbSymbolTableRecord
100
AcDbLayerTableRecord
  2
画層71
 70
    0
 62
7
  6
CONTINUOUS
  0
LAYER
  5
8E
100
AcDbSymbolTableRecord
100
AcDbLayerTableRecord
  2
画層72
 70
    0
 62
7
  6
CONTINUOUS
  0
LAYER
  5
8F
100
AcDbSymbolTableRecord
100
AcDbLayerTableRecord
  2
画層73
 70
    0
 62
7
  6
CONTINUOUS
  0
LAYER
  5
90
100
AcDbSymbolTableRecord
100
AcDbLayerTableRecord
  2
画層74
 70
    0
 62
7
  6
CONTINUOUS
  0
LAYER
  5
91
100
AcDbSymbolTableRecord
100
AcDbLayerTableRecord
  2
画層75
 70
    0
 62
7
  6
CONTINUOUS
  0
LAYER
  5
92
100
AcDbSymbolTableRecord
100
AcDbLayerTableRecord
  2
画層76
 70
    0
 62
7
  6
CONTINUOUS
  0
LAYER
  5
93
100
AcDbSymbolTableRecord
100
AcDbLayerTableRecord
  2
画層77
 70
    0
 62
7
  6
CONTINUOUS
  0
LAYER
  5
94
100
AcDbSymbolTableRecord
100
AcDbLayerTableRecord
  2
画層78
 70
    0
 62
7
  6
CONTINUOUS
  0
LAYER
  5
95
100
AcDbSymbolTableRecord
100
AcDbLayerTableRecord
  2
画層79
 70
    0
 62
7
  6
CONTINUOUS
  0
LAYER
  5
96
100
AcDbSymbolTableRecord
100
AcDbLayerTableRecord
  2
画層80
 70
    0
 62
7
  6
CONTINUOUS
  0
LAYER
  5
97
100
AcDbSymbolTableRecord
100
AcDbLayerTableRecord
  2
画層81
 70
    0
 62
7
  6
CONTINUOUS
  0
LAYER
  5
98
100
AcDbSymbolTableRecord
100
AcDbLayerTableRecord
  2
画層82
 70
    0
 62
7
  6
CONTINUOUS
  0
LAYER
  5
99
100
AcDbSymbolTableRecord
100
AcDbLayerTableRecord
  2
画層83
 70
    0
 62
7
  6
CONTINUOUS
  0
LAYER
  5
9A
100
AcDbSymbolTableRecord
100
AcDbLayerTableRecord
  2
画層84
 70
    0
 62
7
  6
CONTINUOUS
  0
LAYER
  5
9B
100
AcDbSymbolTableRecord
100
AcDbLayerTableRecord
  2
画層85
 70
    0
 62
7
  6
CONTINUOUS
  0
LAYER
  5
9C
100
AcDbSymbolTableRecord
100
AcDbLayerTableRecord
  2
画層86
 70
    0
 62
7
  6
CONTINUOUS
  0
LAYER
  5
9D
100
AcDbSymbolTableRecord
100
AcDbLayerTableRecord
  2
画層87
 70
    0
 62
7
  6
CONTINUOUS
  0
LAYER
  5
9E
100
AcDbSymbolTableRecord
100
AcDbLayerTableRecord
  2
画層88
 70
    0
 62
7
  6
CONTINUOUS
  0
LAYER
  5
9F
100
AcDbSymbolTableRecord
100
AcDbLayerTableRecord
  2
画層89
 70
    0
 62
7
  6
CONTINUOUS
  0
LAYER
  5
A0
100
AcDbSymbolTableRecord
100
AcDbLayerTableRecord
  2
画層90
 70
    0
 62
7
  6
CONTINUOUS
  0
LAYER
  5
A1
100
AcDbSymbolTableRecord
100
AcDbLayerTableRecord
  2
画層91
 70
    0
 62
7
  6
CONTINUOUS
  0
LAYER
  5
A2
100
AcDbSymbolTableRecord
100
AcDbLayerTableRecord
  2
画層92
 70
    0
 62
7
  6
CONTINUOUS
  0
LAYER
  5
A3
100
AcDbSymbolTableRecord
100
AcDbLayerTableRecord
  2
画層93
 70
    0
 62
7
  6
CONTINUOUS
  0
LAYER
  5
A4
100
AcDbSymbolTableRecord
100
AcDbLayerTableRecord
  2
画層94
 70
    0
 62
7
  6
CONTINUOUS
  0
LAYER
  5
A5
100
AcDbSymbolTableRecord
100
AcDbLayerTableRecord
  2
画層95
 70
    0
 62
7
  6
CONTINUOUS
  0
LAYER
  5
A6
100
AcDbSymbolTableRecord
100
AcDbLayerTableRecord
  2
画層96
 70
    0
 62
7
  6
CONTINUOUS
  0
LAYER
  5
A7
100
AcDbSymbolTableRecord
100
AcDbLayerTableRecord
  2
画層97
 70
    0
 62
7
  6
CONTINUOUS
  0
LAYER
  5
A8
100
AcDbSymbolTableRecord
100
AcDbLayerTableRecord
  2
画層98
 70
    0
 62
7
  6
CONTINUOUS
  0
LAYER
  5
A9
100
AcDbSymbolTableRecord
100
AcDbLayerTableRecord
  2
画層99
 70
    0
 62
7
  6
CONTINUOUS
  0
LAYER
  5
AA
100
AcDbSymbolTableRecord
100
AcDbLayerTableRecord
  2
画層100
 70
    0
 62
7
  6
CONTINUOUS
  0
LAYER
  5
AB
100
AcDbSymbolTableRecord
100
AcDbLayerTableRecord
  2
画層101
 70
    0
 62
7
  6
CONTINUOUS
  0
LAYER
  5
AC
100
AcDbSymbolTableRecord
100
AcDbLayerTableRecord
  2
画層102
 70
    0
 62
7
  6
CONTINUOUS
  0
LAYER
  5
AD
100
AcDbSymbolTableRecord
100
AcDbLayerTableRecord
  2
画層103
 70
    0
 62
7
  6
CONTINUOUS
  0
LAYER
  5
AE
100
AcDbSymbolTableRecord
100
AcDbLayerTableRecord
  2
画層104
 70
    0
 62
7
  6
CONTINUOUS
  0
LAYER
  5
AF
100
AcDbSymbolTableRecord
100
AcDbLayerTableRecord
  2
画層105
 70
    0
 62
7
  6
CONTINUOUS
  0
LAYER
  5
B0
100
AcDbSymbolTableRecord
100
AcDbLayerTableRecord
  2
画層106
 70
    0
 62
7
  6
CONTINUOUS
  0
LAYER
  5
B1
100
AcDbSymbolTableRecord
100
AcDbLayerTableRecord
  2
画層107
 70
    0
 62
7
  6
CONTINUOUS
  0
LAYER
  5
B2
100
AcDbSymbolTableRecord
100
AcDbLayerTableRecord
  2
画層108
 70
    0
 62
7
  6
CONTINUOUS
  0
LAYER
  5
B3
100
AcDbSymbolTableRecord
100
AcDbLayerTableRecord
  2
画層109
 70
    0
 62
7
  6
CONTINUOUS
  0
LAYER
  5
B4
100
AcDbSymbolTableRecord
100
AcDbLayerTableRecord
  2
画層110
 70
    0
 62
7
  6
CONTINUOUS
  0
LAYER
  5
B5
100
AcDbSymbolTableRecord
100
AcDbLayerTableRecord
  2
画層111
 70
    0
 62
7
  6
CONTINUOUS
  0
LAYER
  5
B6
100
AcDbSymbolTableRecord
100
AcDbLayerTableRecord
  2
画層112
 70
    0
 62
7
  6
CONTINUOUS
  0
LAYER
  5
B7
100
AcDbSymbolTableRecord
100
AcDbLayerTableRecord
  2
画層113
 70
    0
 62
7
  6
CONTINUOUS
  0
LAYER
  5
B8
100
AcDbSymbolTableRecord
100
AcDbLayerTableRecord
  2
画層114
 70
    0
 62
7
  6
CONTINUOUS
  0
LAYER
  5
B9
100
AcDbSymbolTableRecord
100
AcDbLayerTableRecord
  2
画層115
 70
    0
 62
7
  6
CONTINUOUS
  0
LAYER
  5
BA
100
AcDbSymbolTableRecord
100
AcDbLayerTableRecord
  2
画層116
 70
    0
 62
7
  6
CONTINUOUS
  0
LAYER
  5
BB
100
AcDbSymbolTableRecord
100
AcDbLayerTableRecord
  2
画層117
 70
    0
 62
7
  6
CONTINUOUS
  0
LAYER
  5
BC
100
AcDbSymbolTableRecord
100
AcDbLayerTableRecord
  2
画層118
 70
    0
 62
7
  6
CONTINUOUS
  0
LAYER
  5
BD
100
AcDbSymbolTableRecord
100
AcDbLayerTableRecord
  2
画層119
 70
    0
 62
7
  6
CONTINUOUS
  0
LAYER
  5
BE
100
AcDbSymbolTableRecord
100
AcDbLayerTableRecord
  2
画層120
 70
    0
 62
7
  6
CONTINUOUS
  0
LAYER
  5
BF
100
AcDbSymbolTableRecord
100
AcDbLayerTableRecord
  2
画層121
 70
    0
 62
7
  6
CONTINUOUS
  0
LAYER
  5
C0
100
AcDbSymbolTableRecord
100
AcDbLayerTableRecord
  2
画層122
 70
    0
 62
7
  6
CONTINUOUS
  0
LAYER
  5
C1
100
AcDbSymbolTableRecord
100
AcDbLayerTableRecord
  2
画層123
 70
    0
 62
7
  6
CONTINUOUS
  0
LAYER
  5
C2
100
AcDbSymbolTableRecord
100
AcDbLayerTableRecord
  2
画層124
 70
    0
 62
7
  6
CONTINUOUS
  0
LAYER
  5
C3
100
AcDbSymbolTableRecord
100
AcDbLayerTableRecord
  2
画層125
 70
    0
 62
7
  6
CONTINUOUS
  0
LAYER
  5
C4
100
AcDbSymbolTableRecord
100
AcDbLayerTableRecord
  2
画層126
 70
    0
 62
7
  6
CONTINUOUS
  0
LAYER
  5
C5
100
AcDbSymbolTableRecord
100
AcDbLayerTableRecord
  2
画層127
 70
    0
 62
7
  6
CONTINUOUS
  0
LAYER
  5
C6
100
AcDbSymbolTableRecord
100
AcDbLayerTableRecord
  2
画層128
 70
    0
 62
7
  6
CONTINUOUS
  0
LAYER
  5
C7
100
AcDbSymbolTableRecord
100
AcDbLayerTableRecord
  2
画層129
 70
    0
 62
7
  6
CONTINUOUS
  0
LAYER
  5
C8
100
AcDbSymbolTableRecord
100
AcDbLayerTableRecord
  2
画層130
 70
    0
 62
7
  6
CONTINUOUS
  0
LAYER
  5
C9
100
AcDbSymbolTableRecord
100
AcDbLayerTableRecord
  2
画層131
 70
    0
 62
7
  6
CONTINUOUS
  0
LAYER
  5
CA
100
AcDbSymbolTableRecord
100
AcDbLayerTableRecord
  2
画層132
 70
    0
 62
7
  6
CONTINUOUS
  0
LAYER
  5
CB
100
AcDbSymbolTableRecord
100
AcDbLayerTableRecord
  2
画層133
 70
    0
 62
7
  6
CONTINUOUS
  0
LAYER
  5
CC
100
AcDbSymbolTableRecord
100
AcDbLayerTableRecord
  2
画層134
 70
    0
 62
7
  6
CONTINUOUS
  0
LAYER
  5
CD
100
AcDbSymbolTableRecord
100
AcDbLayerTableRecord
  2
画層135
 70
    0
 62
7
  6
CONTINUOUS
  0
LAYER
  5
CE
100
AcDbSymbolTableRecord
100
AcDbLayerTableRecord
  2
画層136
 70
    0
 62
7
  6
CONTINUOUS
  0
LAYER
  5
CF
100
AcDbSymbolTableRecord
100
AcDbLayerTableRecord
  2
画層137
 70
    0
 62
7
  6
CONTINUOUS
  0
LAYER
  5
D0
100
AcDbSymbolTableRecord
100
AcDbLayerTableRecord
  2
画層138
 70
    0
 62
7
  6
CONTINUOUS
  0
LAYER
  5
D1
100
AcDbSymbolTableRecord
100
AcDbLayerTableRecord
  2
画層139
 70
    0
 62
7
  6
CONTINUOUS
  0
LAYER
  5
D2
100
AcDbSymbolTableRecord
100
AcDbLayerTableRecord
  2
画層140
 70
    0
 62
7
  6
CONTINUOUS
  0
LAYER
  5
D3
100
AcDbSymbolTableRecord
100
AcDbLayerTableRecord
  2
画層141
 70
    0
 62
7
  6
CONTINUOUS
  0
LAYER
  5
D4
100
AcDbSymbolTableRecord
100
AcDbLayerTableRecord
  2
画層142
 70
    0
 62
7
  6
CONTINUOUS
  0
LAYER
  5
D5
100
AcDbSymbolTableRecord
100
AcDbLayerTableRecord
  2
画層143
 70
    0
 62
7
  6
CONTINUOUS
  0
LAYER
  5
D6
100
AcDbSymbolTableRecord
100
AcDbLayerTableRecord
  2
画層144
 70
    0
 62
7
  6
CONTINUOUS
  0
LAYER
  5
D7
100
AcDbSymbolTableRecord
100
AcDbLayerTableRecord
  2
画層145
 70
    0
 62
7
  6
CONTINUOUS
  0
LAYER
  5
D8
100
AcDbSymbolTableRecord
100
AcDbLayerTableRecord
  2
画層146
 70
    0
 62
7
  6
CONTINUOUS
  0
LAYER
  5
D9
100
AcDbSymbolTableRecord
100
AcDbLayerTableRecord
  2
画層147
 70
    0
 62
7
  6
CONTINUOUS
  0
LAYER
  5
DA
100
AcDbSymbolTableRecord
100
AcDbLayerTableRecord
  2
画層148
 70
    0
 62
7
  6
CONTINUOUS
  0
LAYER
  5
DB
100
AcDbSymbolTableRecord
100
AcDbLayerTableRecord
  2
画層149
 70
    0
 62
7
  6
CONTINUOUS
  0
LAYER
  5
DC
100
AcDbSymbolTableRecord
100
AcDbLayerTableRecord
  2
画層150
 70
    0
 62
7
  6
CONTINUOUS
  0
LAYER
  5
DD
100
AcDbSymbolTableRecord
100
AcDbLayerTableRecord
  2
画層151
 70
    0
 62
7
  6
CONTINUOUS
  0
LAYER
  5
DE
100
AcDbSymbolTableRecord
100
AcDbLayerTableRecord
  2
画層152
 70
    0
 62
7
  6
CONTINUOUS
  0
LAYER
  5
DF
100
AcDbSymbolTableRecord
100
AcDbLayerTableRecord
  2
画層153
 70
    0
 62
7
  6
CONTINUOUS
  0
LAYER
  5
E0
100
AcDbSymbolTableRecord
100
AcDbLayerTableRecord
  2
画層154
 70
    0
 62
7
  6
CONTINUOUS
  0
LAYER
  5
E1
100
AcDbSymbolTableRecord
100
AcDbLayerTableRecord
  2
画層155
 70
    0
 62
7
  6
CONTINUOUS
  0
LAYER
  5
E2
100
AcDbSymbolTableRecord
100
AcDbLayerTableRecord
  2
画層156
 70
    0
 62
7
  6
CONTINUOUS
  0
LAYER
  5
E3
100
AcDbSymbolTableRecord
100
AcDbLayerTableRecord
  2
画層157
 70
    0
 62
7
  6
CONTINUOUS
  0
LAYER
  5
E4
100
AcDbSymbolTableRecord
100
AcDbLayerTableRecord
  2
画層158
 70
    0
 62
7
  6
CONTINUOUS
  0
LAYER
  5
E5
100
AcDbSymbolTableRecord
100
AcDbLayerTableRecord
  2
画層159
 70
    0
 62
7
  6
CONTINUOUS
  0
LAYER
  5
E6
100
AcDbSymbolTableRecord
100
AcDbLayerTableRecord
  2
画層160
 70
    0
 62
7
  6
CONTINUOUS
  0
LAYER
  5
E7
100
AcDbSymbolTableRecord
100
AcDbLayerTableRecord
  2
画層161
 70
    0
 62
7
  6
CONTINUOUS
  0
LAYER
  5
E8
100
AcDbSymbolTableRecord
100
AcDbLayerTableRecord
  2
画層162
 70
    0
 62
7
  6
CONTINUOUS
  0
LAYER
  5
E9
100
AcDbSymbolTableRecord
100
AcDbLayerTableRecord
  2
画層163
 70
    0
 62
7
  6
CONTINUOUS
  0
LAYER
  5
EA
100
AcDbSymbolTableRecord
100
AcDbLayerTableRecord
  2
画層164
 70
    0
 62
7
  6
CONTINUOUS
  0
LAYER
  5
EB
100
AcDbSymbolTableRecord
100
AcDbLayerTableRecord
  2
画層165
 70
    0
 62
7
  6
CONTINUOUS
  0
LAYER
  5
EC
100
AcDbSymbolTableRecord
100
AcDbLayerTableRecord
  2
画層166
 70
    0
 62
7
  6
CONTINUOUS
  0
LAYER
  5
ED
100
AcDbSymbolTableRecord
100
AcDbLayerTableRecord
  2
画層167
 70
    0
 62
7
  6
CONTINUOUS
  0
LAYER
  5
EE
100
AcDbSymbolTableRecord
100
AcDbLayerTableRecord
  2
画層168
 70
    0
 62
7
  6
CONTINUOUS
  0
LAYER
  5
EF
100
AcDbSymbolTableRecord
100
AcDbLayerTableRecord
  2
画層169
 70
    0
 62
7
  6
CONTINUOUS
  0
LAYER
  5
F0
100
AcDbSymbolTableRecord
100
AcDbLayerTableRecord
  2
画層170
 70
    0
 62
7
  6
CONTINUOUS
  0
LAYER
  5
F1
100
AcDbSymbolTableRecord
100
AcDbLayerTableRecord
  2
画層171
 70
    0
 62
7
  6
CONTINUOUS
  0
LAYER
  5
F2
100
AcDbSymbolTableRecord
100
AcDbLayerTableRecord
  2
画層172
 70
    0
 62
7
  6
CONTINUOUS
  0
LAYER
  5
F3
100
AcDbSymbolTableRecord
100
AcDbLayerTableRecord
  2
画層173
 70
    0
 62
7
  6
CONTINUOUS
  0
LAYER
  5
F4
100
AcDbSymbolTableRecord
100
AcDbLayerTableRecord
  2
画層174
 70
    0
 62
7
  6
CONTINUOUS
  0
LAYER
  5
F5
100
AcDbSymbolTableRecord
100
AcDbLayerTableRecord
  2
画層175
 70
    0
 62
7
  6
CONTINUOUS
  0
LAYER
  5
F6
100
AcDbSymbolTableRecord
100
AcDbLayerTableRecord
  2
画層176
 70
    0
 62
7
  6
CONTINUOUS
  0
LAYER
  5
F7
100
AcDbSymbolTableRecord
100
AcDbLayerTableRecord
  2
画層177
 70
    0
 62
7
  6
CONTINUOUS
  0
LAYER
  5
F8
100
AcDbSymbolTableRecord
100
AcDbLayerTableRecord
  2
画層178
 70
    0
 62
7
  6
CONTINUOUS
  0
LAYER
  5
F9
100
AcDbSymbolTableRecord
100
AcDbLayerTableRecord
  2
画層179
 70
    0
 62
7
  6
CONTINUOUS
  0
LAYER
  5
FA
100
AcDbSymbolTableRecord
100
AcDbLayerTableRecord
  2
画層180
 70
    0
 62
7
  6
CONTINUOUS
  0
LAYER
  5
FB
100
AcDbSymbolTableRecord
100
AcDbLayerTableRecord
  2
画層181
 70
    0
 62
7
  6
CONTINUOUS
  0
LAYER
  5
FC
100
AcDbSymbolTableRecord
100
AcDbLayerTableRecord
  2
画層182
 70
    0
 62
7
  6
CONTINUOUS
  0
LAYER
  5
FD
100
AcDbSymbolTableRecord
100
AcDbLayerTableRecord
  2
画層183
 70
    0
 62
7
  6
CONTINUOUS
  0
LAYER
  5
FE
100
AcDbSymbolTableRecord
100
AcDbLayerTableRecord
  2
画層184
 70
    0
 62
7
  6
CONTINUOUS
  0
LAYER
  5
FF
100
AcDbSymbolTableRecord
100
AcDbLayerTableRecord
  2
画層185
 70
    0
 62
7
  6
CONTINUOUS
  0
LAYER
  5
100
100
AcDbSymbolTableRecord
100
AcDbLayerTableRecord
  2
画層186
 70
    0
 62
7
  6
CONTINUOUS
  0
LAYER
  5
101
100
AcDbSymbolTableRecord
100
AcDbLayerTableRecord
  2
画層187
 70
    0
 62
7
  6
CONTINUOUS
  0
LAYER
  5
102
100
AcDbSymbolTableRecord
100
AcDbLayerTableRecord
  2
画層188
 70
    0
 62
7
  6
CONTINUOUS
  0
LAYER
  5
103
100
AcDbSymbolTableRecord
100
AcDbLayerTableRecord
  2
画層189
 70
    0
 62
7
  6
CONTINUOUS
  0
LAYER
  5
104
100
AcDbSymbolTableRecord
100
AcDbLayerTableRecord
  2
画層190
 70
    0
 62
7
  6
CONTINUOUS
  0
LAYER
  5
105
100
AcDbSymbolTableRecord
100
AcDbLayerTableRecord
  2
画層191
 70
    0
 62
7
  6
CONTINUOUS
  0
LAYER
  5
106
100
AcDbSymbolTableRecord
100
AcDbLayerTableRecord
  2
画層192
 70
    0
 62
7
  6
CONTINUOUS
  0
LAYER
  5
107
100
AcDbSymbolTableRecord
100
AcDbLayerTableRecord
  2
画層193
 70
    0
 62
7
  6
CONTINUOUS
  0
LAYER
  5
108
100
AcDbSymbolTableRecord
100
AcDbLayerTableRecord
  2
画層194
 70
    0
 62
7
  6
CONTINUOUS
  0
LAYER
  5
109
100
AcDbSymbolTableRecord
100
AcDbLayerTableRecord
  2
画層195
 70
    0
 62
7
  6
CONTINUOUS
  0
LAYER
  5
10A
100
AcDbSymbolTableRecord
100
AcDbLayerTableRecord
  2
画層196
 70
    0
 62
7
  6
CONTINUOUS
  0
LAYER
  5
10B
100
AcDbSymbolTableRecord
100
AcDbLayerTableRecord
  2
画層197
 70
    0
 62
7
  6
CONTINUOUS
  0
LAYER
  5
10C
100
AcDbSymbolTableRecord
100
AcDbLayerTableRecord
  2
画層198
 70
    0
 62
7
  6
CONTINUOUS
  0
LAYER
  5
10D
100
AcDbSymbolTableRecord
100
AcDbLayerTableRecord
  2
画層199
 70
    0
 62
7
  6
CONTINUOUS
  0
LAYER
  5
10E
100
AcDbSymbolTableRecord
100
AcDbLayerTableRecord
  2
画層200
 70
    0
 62
7
  6
CONTINUOUS
  0
LAYER
  5
10F
100
AcDbSymbolTableRecord
100
AcDbLayerTableRecord
  2
画層201
 70
    0
 62
7
  6
CONTINUOUS
  0
LAYER
  5
110
100
AcDbSymbolTableRecord
100
AcDbLayerTableRecord
  2
画層202
 70
    0
 62
7
  6
CONTINUOUS
  0
LAYER
  5
111
100
AcDbSymbolTableRecord
100
AcDbLayerTableRecord
  2
画層203
 70
    0
 62
7
  6
CONTINUOUS
  0
LAYER
  5
112
100
AcDbSymbolTableRecord
100
AcDbLayerTableRecord
  2
画層204
 70
    0
 62
7
  6
CONTINUOUS
  0
LAYER
  5
113
100
AcDbSymbolTableRecord
100
AcDbLayerTableRecord
  2
画層205
 70
    0
 62
7
  6
CONTINUOUS
  0
LAYER
  5
114
100
AcDbSymbolTableRecord
100
AcDbLayerTableRecord
  2
画層206
 70
    0
 62
7
  6
CONTINUOUS
  0
LAYER
  5
115
100
AcDbSymbolTableRecord
100
AcDbLayerTableRecord
  2
画層207
 70
    0
 62
7
  6
CONTINUOUS
  0
LAYER
  5
116
100
AcDbSymbolTableRecord
100
AcDbLayerTableRecord
  2
画層208
 70
    0
 62
7
  6
CONTINUOUS
  0
LAYER
  5
117
100
AcDbSymbolTableRecord
100
AcDbLayerTableRecord
  2
画層209
 70
    0
 62
7
  6
CONTINUOUS
  0
LAYER
  5
118
100
AcDbSymbolTableRecord
100
AcDbLayerTableRecord
  2
画層210
 70
    0
 62
7
  6
CONTINUOUS
  0
LAYER
  5
119
100
AcDbSymbolTableRecord
100
AcDbLayerTableRecord
  2
画層211
 70
    0
 62
7
  6
CONTINUOUS
  0
LAYER
  5
11A
100
AcDbSymbolTableRecord
100
AcDbLayerTableRecord
  2
画層212
 70
    0
 62
7
  6
CONTINUOUS
  0
LAYER
  5
11B
100
AcDbSymbolTableRecord
100
AcDbLayerTableRecord
  2
画層213
 70
    0
 62
7
  6
CONTINUOUS
  0
LAYER
  5
11C
100
AcDbSymbolTableRecord
100
AcDbLayerTableRecord
  2
画層214
 70
    0
 62
7
  6
CONTINUOUS
  0
LAYER
  5
11D
100
AcDbSymbolTableRecord
100
AcDbLayerTableRecord
  2
画層215
 70
    0
 62
7
  6
CONTINUOUS
  0
LAYER
  5
11E
100
AcDbSymbolTableRecord
100
AcDbLayerTableRecord
  2
画層216
 70
    0
 62
7
  6
CONTINUOUS
  0
LAYER
  5
11F
100
AcDbSymbolTableRecord
100
AcDbLayerTableRecord
  2
画層217
 70
    0
 62
7
  6
CONTINUOUS
  0
LAYER
  5
120
100
AcDbSymbolTableRecord
100
AcDbLayerTableRecord
  2
画層218
 70
    0
 62
7
  6
CONTINUOUS
  0
LAYER
  5
121
100
AcDbSymbolTableRecord
100
AcDbLayerTableRecord
  2
画層219
 70
    0
 62
7
  6
CONTINUOUS
  0
LAYER
  5
122
100
AcDbSymbolTableRecord
100
AcDbLayerTableRecord
  2
画層220
 70
    0
 62
7
  6
CONTINUOUS
  0
LAYER
  5
123
100
AcDbSymbolTableRecord
100
AcDbLayerTableRecord
  2
画層221
 70
    0
 62
7
  6
CONTINUOUS
  0
LAYER
  5
124
100
AcDbSymbolTableRecord
100
AcDbLayerTableRecord
  2
画層222
 70
    0
 62
7
  6
CONTINUOUS
  0
LAYER
  5
125
100
AcDbSymbolTableRecord
100
AcDbLayerTableRecord
  2
画層223
 70
    0
 62
7
  6
CONTINUOUS
  0
LAYER
  5
126
100
AcDbSymbolTableRecord
100
AcDbLayerTableRecord
  2
画層224
 70
    0
 62
7
  6
CONTINUOUS
  0
LAYER
  5
127
100
AcDbSymbolTableRecord
100
AcDbLayerTableRecord
  2
画層225
 70
    0
 62
7
  6
CONTINUOUS
  0
LAYER
  5
128
100
AcDbSymbolTableRecord
100
AcDbLayerTableRecord
  2
画層226
 70
    0
 62
7
  6
CONTINUOUS
  0
LAYER
  5
129
100
AcDbSymbolTableRecord
100
AcDbLayerTableRecord
  2
画層227
 70
    0
 62
7
  6
CONTINUOUS
  0
LAYER
  5
12A
100
AcDbSymbolTableRecord
100
AcDbLayerTableRecord
  2
画層228
 70
    0
 62
7
  6
CONTINUOUS
  0
LAYER
  5
12B
100
AcDbSymbolTableRecord
100
AcDbLayerTableRecord
  2
画層229
 70
    0
 62
7
  6
CONTINUOUS
  0
LAYER
  5
12C
100
AcDbSymbolTableRecord
100
AcDbLayerTableRecord
  2
画層230
 70
    0
 62
7
  6
CONTINUOUS
  0
LAYER
  5
12D
100
AcDbSymbolTableRecord
100
AcDbLayerTableRecord
  2
画層231
 70
    0
 62
7
  6
CONTINUOUS
  0
LAYER
  5
12E
100
AcDbSymbolTableRecord
100
AcDbLayerTableRecord
  2
画層232
 70
    0
 62
7
  6
CONTINUOUS
  0
LAYER
  5
12F
100
AcDbSymbolTableRecord
100
AcDbLayerTableRecord
  2
画層233
 70
    0
 62
7
  6
CONTINUOUS
  0
LAYER
  5
130
100
AcDbSymbolTableRecord
100
AcDbLayerTableRecord
  2
画層234
 70
    0
 62
7
  6
CONTINUOUS
  0
LAYER
  5
131
100
AcDbSymbolTableRecord
100
AcDbLayerTableRecord
  2
画層235
 70
    0
 62
7
  6
CONTINUOUS
  0
LAYER
  5
132
100
AcDbSymbolTableRecord
100
AcDbLayerTableRecord
  2
画層236
 70
    0
 62
7
  6
CONTINUOUS
  0
LAYER
  5
133
100
AcDbSymbolTableRecord
100
AcDbLayerTableRecord
  2
画層237
 70
    0
 62
7
  6
CONTINUOUS
  0
LAYER
  5
134
100
AcDbSymbolTableRecord
100
AcDbLayerTableRecord
  2
画層238
 70
    0
 62
7
  6
CONTINUOUS
  0
LAYER
  5
135
100
AcDbSymbolTableRecord
100
AcDbLayerTableRecord
  2
画層239
 70
    0
 62
7
  6
CONTINUOUS
  0
LAYER
  5
136
100
AcDbSymbolTableRecord
100
AcDbLayerTableRecord
  2
画層240
 70
    0
 62
7
  6
CONTINUOUS
  0
LAYER
  5
137
100
AcDbSymbolTableRecord
100
AcDbLayerTableRecord
  2
画層241
 70
    0
 62
7
  6
CONTINUOUS
  0
LAYER
  5
138
100
AcDbSymbolTableRecord
100
AcDbLayerTableRecord
  2
画層242
 70
    0
 62
7
  6
CONTINUOUS
  0
LAYER
  5
139
100
AcDbSymbolTableRecord
100
AcDbLayerTableRecord
  2
画層243
 70
    0
 62
7
  6
CONTINUOUS
  0
LAYER
  5
13A
100
AcDbSymbolTableRecord
100
AcDbLayerTableRecord
  2
画層244
 70
    0
 62
7
  6
CONTINUOUS
  0
LAYER
  5
13B
100
AcDbSymbolTableRecord
100
AcDbLayerTableRecord
  2
画層245
 70
    0
 62
7
  6
CONTINUOUS
  0
LAYER
  5
13C
100
AcDbSymbolTableRecord
100
AcDbLayerTableRecord
  2
画層246
 70
    0
 62
7
  6
CONTINUOUS
  0
LAYER
  5
13D
100
AcDbSymbolTableRecord
100
AcDbLayerTableRecord
  2
画層247
 70
    0
 62
7
  6
CONTINUOUS
  0
LAYER
  5
13E
100
AcDbSymbolTableRecord
100
AcDbLayerTableRecord
  2
画層248
 70
    0
 62
7
  6
CONTINUOUS
  0
LAYER
  5
13F
100
AcDbSymbolTableRecord
100
AcDbLayerTableRecord
  2
画層249
 70
    0
 62
7
  6
CONTINUOUS
  0
LAYER
  5
140
100
AcDbSymbolTableRecord
100
AcDbLayerTableRecord
  2
画層250
 70
    0
 62
7
  6
CONTINUOUS
  0
LAYER
  5
141
100
AcDbSymbolTableRecord
100
AcDbLayerTableRecord
  2
画層251
 70
    0
 62
7
  6
CONTINUOUS
  0
LAYER
  5
142
100
AcDbSymbolTableRecord
100
AcDbLayerTableRecord
  2
画層252
 70
    0
 62
7
  6
CONTINUOUS
  0
LAYER
  5
143
100
AcDbSymbolTableRecord
100
AcDbLayerTableRecord
  2
画層253
 70
    0
 62
7
  6
CONTINUOUS
  0
LAYER
  5
144
100
AcDbSymbolTableRecord
100
AcDbLayerTableRecord
  2
画層254
 70
    0
 62
7
  6
CONTINUOUS
  0
LAYER
  5
145
100
AcDbSymbolTableRecord
100
AcDbLayerTableRecord
  2
画層255
 70
    0
 62
7
  6
CONTINUOUS
  0
ENDTAB
  0
TABLE
  2
STYLE
  5
4
100
AcDbSymbolTable
 70
     1
  0
STYLE
  5
146
100
AcDbSymbolTableRecord
100
AcDbTextStyleTableRecord
  2
Standard
 70
     0
 40
0.0
 41
1.0
 50
0.0
 71
     0
 42
3.2
  3
TXT
  4
BIGFONT
  0
STYLE
  5
147
100
AcDbSymbolTableRecord
100
AcDbTextStyleTableRecord
  2
Font_0
 70
     0
 40
0.0
 41
1.0
 50
0.0
 71
     0
 42
3.2
  3
MS Gothic.ttf
  4

1001
ACAD
1000
MS Gothic
1071
  32817
  0
STYLE
  5
148
100
AcDbSymbolTableRecord
100
AcDbTextStyleTableRecord
  2
Font_1
 70
     0
 40
0.0
 41
1.0
 50
0.0
 71
     0
 42
3.2
  3
MS Gothic.ttf
  4

1001
ACAD
1000
@MS Gothic
1071
  32817
  0
ENDTAB
  0
TABLE
  2
VIEW
  5
5
100
AcDbSymbolTable
 70
     0
  0
ENDTAB
  0
TABLE
  2
UCS
  5
6
100
AcDbSymbolTable
 70
     0
  0
ENDTAB
  0
TABLE
  2
APPID
  5
7
100
AcDbSymbolTable
 70
     1
  0
APPID
  5
149
100
AcDbSymbolTableRecord
100
AcDbRegAppTableRecord
  2
ACAD
 70
     0
  0
ENDTAB
  0
TABLE
  2
DIMSTYLE
  5
8
100
AcDbSymbolTable
 70
     1
  0
DIMSTYLE
105
2A
100
AcDbSymbolTableRecord
100
AcDbDimStyleTableRecord
  2
STANDARD
 70
     0
  3

  4

  5

  6

  7

 40
1.0
 41
2.5
 42
2.0
 43
7.0
 44
1.25
 45
0.0
 46
0.0
 47
0.0
 48
0.0
 71
     0
 72
     0
 73
     0
 74
     0
 75
     0
 76
     0
 77
     1
 78
     0
140
2.5
141
2.5
142
0.0
143
0.0394
144
1.0
145
0.0
146
1.0
147
1.0
170
     0
171
     2
172
     0
173
     0
174
     1
175
     0
176
     0
177
     0
178
     0
270
     2
271
     2
272
     4
273
     2
274
     2
275
     0
280
     0
281
     0
282
     0
283
     1
284
     0
285
     0
286
     0
287
     3
288
     0
  0
ENDTAB
  0
TABLE
  2
BLOCK_RECORD
  5
9
100
AcDbSymbolTable
 70
     0
  0
BLOCK_RECORD
  5
14A
100
AcDbSymbolTableRecord
100
AcDbBlockTableRecord
  2
*MODEL_SPACE
  0
BLOCK_RECORD
  5
14B
100
AcDbSymbolTableRecord
100
AcDbBlockTableRecord
  2
*PAPER_SPACE
  0
BLOCK_RECORD
  5
14C
100
AcDbSymbolTableRecord
100
AcDbBlockTableRecord
  2
0
  0
BLOCK_RECORD
  5
14D
100
AcDbSymbolTableRecord
100
AcDbBlockTableRecord
  2
A4
  0
BLOCK_RECORD
  5
14E
100
AcDbSymbolTableRecord
100
AcDbBlockTableRecord
  2
NOTE
  0
BLOCK_RECORD
  5
14F
100
AcDbSymbolTableRecord
100
AcDbBlockTableRecord
  2
BASE
  0
BLOCK_RECORD
  5
150
100
AcDbSymbolTableRecord
100
AcDbBlockTableRecord
  2
LIST
  0
BLOCK_RECORD
  5
151
100
AcDbSymbolTableRecord
100
AcDbBlockTableRecord
  2
A4ｹﾏｮﾘ
  0
BLOCK_RECORD
  5
152
100
AcDbSymbolTableRecord
100
AcDbBlockTableRecord
  2
A
  0
BLOCK_RECORD
  5
153
100
AcDbSymbolTableRecord
100
AcDbBlockTableRecord
  2
AR
  0
BLOCK_RECORD
  5
154
100
AcDbSymbolTableRecord
100
AcDbBlockTableRecord
  2
JAME
  0
BLOCK_RECORD
  5
155
100
AcDbSymbolTableRecord
100
AcDbBlockTableRecord
  2
GENAXEH
  0
BLOCK_RECORD
  5
156
100
AcDbSymbolTableRecord
100
AcDbBlockTableRecord
  2
A$C7DF867E2
  0
BLOCK_RECORD
  5
157
100
AcDbSymbolTableRecord
100
AcDbBlockTableRecord
  2
A$C479A0421
  0
BLOCK_RECORD
  5
158
100
AcDbSymbolTableRecord
100
AcDbBlockTableRecord
  2
A$C0D537ECF
  0
BLOCK_RECORD
  5
159
100
AcDbSymbolTableRecord
100
AcDbBlockTableRecord
  2
A$C7C7C723F
  0
BLOCK_RECORD
  5
15A
100
AcDbSymbolTableRecord
100
AcDbBlockTableRecord
  2
A$C0E457A76
  0
ENDTAB
  0
ENDSEC
  0
SECTION
  2
BLOCKS
  0
BLOCK
  5
15C
100
AcDbEntity
  8
0
100
AcDbBlockBegin
2
*MODEL_SPACE
 70
     0
 10
0.0
 20
0.0
 30
0.0
  3
*MODEL_SPACE
  1

  0
ENDBLK
  5
15D
100
AcDbEntity
  8
0
100
AcDbBlockEnd
  0
BLOCK
  5
15E
100
AcDbEntity
 67
     1
  8
0
100
AcDbBlockBegin
  2
*PAPER_SPACE
 70
     0
 10
0.0
 20
0.0
 30
0.0
  3
*PAPER_SPACE
  1

  0
ENDBLK
  5
15F
100
AcDbEntity
 67
     1
  8
0
100
AcDbBlockEnd
  0
BLOCK
  5
160
100
AcDbEntity
  8
0
100
AcDbBlockBegin
  2
0
 70
    0
 10
0
 20
0
 30
0.0
  3
0
  1

  0
LINE
  5
161
100
AcDbEntity
  8
0
100
AcDbLine
  6
BYLAYER
 10
1
 20
1
 11
97.85
 21
1
  0
LINE
  5
162
100
AcDbEntity
  8
0
100
AcDbLine
  6
BYLAYER
 10
1
 20
201
 11
1
 21
1
  0
LINE
  5
163
100
AcDbEntity
  8
0
100
AcDbLine
  6
BYLAYER
 10
1
 20
1
 11
1
 21
35
  0
LINE
  5
164
100
AcDbEntity
  8
0
100
AcDbLine
  6
BYLAYER
 10
1
 20
7
 11
290
 21
7
  0
LINE
  5
165
100
AcDbEntity
  8
0
100
AcDbLine
  6
BYLAYER
 10
1
 20
13
 11
290
 21
13
  0
LINE
  5
166
100
AcDbEntity
  8
0
100
AcDbLine
  6
BYLAYER
 10
97.85
 20
19
 11
290
 21
19
  0
LINE
  5
167
100
AcDbEntity
  8
0
100
AcDbLine
  6
BYLAYER
 10
98
 20
25
 11
290
 21
25
  0
LINE
  5
168
100
AcDbEntity
  8
0
100
AcDbLine
  6
BYLAYER
 10
98
 20
31
 11
290
 21
31
  0
LINE
  5
169
100
AcDbEntity
  8
0
100
AcDbLine
  6
BYLAYER
 10
214
 20
37
 11
214
 21
1
  0
LINE
  5
16A
100
AcDbEntity
  8
0
100
AcDbLine
  6
BYLAYER
 10
233
 20
37
 11
233
 21
1
  0
LINE
  5
16B
100
AcDbEntity
  8
0
100
AcDbLine
  6
BYLAYER
 10
196.025
 20
31
 11
196.025
 21
1
  0
LINE
  5
16C
100
AcDbEntity
  8
0
100
AcDbLine
  6
BYLAYER
 10
196.025
 20
31
 11
290
 21
31
  0
LINE
  5
16D
100
AcDbEntity
  8
0
100
AcDbLine
  6
BYLAYER
 10
196.025
 20
1
 11
290
 21
1
  0
LINE
  5
16E
100
AcDbEntity
  8
0
100
AcDbLine
  6
BYLAYER
 10
196.15
 20
37
 11
196.15
 21
1
  0
LINE
  5
16F
100
AcDbEntity
  8
0
100
AcDbLine
  6
BYLAYER
 10
195.85
 20
37
 11
195.85
 21
1
  0
LINE
  5
170
100
AcDbEntity
  8
0
100
AcDbLine
  6
BYLAYER
 10
98.15
 20
37
 11
98.15
 21
1
  0
LINE
  5
171
100
AcDbEntity
  8
0
100
AcDbLine
  6
BYLAYER
 10
98.15
 20
31
 11
195.85
 21
31
  0
LINE
  5
172
100
AcDbEntity
  8
0
100
AcDbLine
  6
BYLAYER
 10
98.15
 20
1
 11
195.85
 21
1
  0
LINE
  5
173
100
AcDbEntity
  8
0
100
AcDbLine
  6
BYLAYER
 10
97.85
 20
37
 11
97.85
 21
1
  0
LINE
  5
174
100
AcDbEntity
  8
0
100
AcDbLine
  6
BYLAYER
 10
145
 20
37
 11
145
 21
1
  0
LINE
  5
175
100
AcDbEntity
  8
0
100
AcDbLine
  6
BYLAYER
 10
115
 20
37
 11
115
 21
1
  0
LINE
  5
176
100
AcDbEntity
  8
0
100
AcDbLine
  6
BYLAYER
 10
164
 20
37
 11
164
 21
1
  0
LINE
  5
177
100
AcDbEntity
  8
0
100
AcDbLine
  6
BYLAYER
 10
49
 20
13
 11
49
 21
1
  0
LINE
  5
178
100
AcDbEntity
  8
0
100
AcDbLine
  6
BYLAYER
 10
14
 20
13
 11
14
 21
1
  0
LINE
  5
179
100
AcDbEntity
  8
0
100
AcDbLine
  6
BYLAYER
 10
63
 20
13
 11
63
 21
1
  0
TEXT
  5
17A
100
AcDbEntity
  8
0
100
AcDbText
  6
BYLAYER
 10
3
 20
7.72940914028269
 40
3
  1
TEL
  7
Font_0
100
AcDbText
  0
TEXT
  5
17B
100
AcDbEntity
  8
0
100
AcDbText
  6
BYLAYER
 10
51
 20
7.91176142535337
 40
3
  1
FAX
  7
Font_0
100
AcDbText
  0
TEXT
  5
17C
100
AcDbEntity
  8
0
100
AcDbText
  6
BYLAYER
 10
16.5400336288223
 20
8.09411371042404
 40
3
  1
(04)3322627
  7
Font_0
100
AcDbText
  0
TEXT
  5
17D
100
AcDbEntity
  8
0
100
AcDbText
  6
BYLAYER
 10
67
 20
8.09411371042404
 40
3
  1
(04)3322629
  7
Font_0
100
AcDbText
  0
LINE
  5
17E
100
AcDbEntity
  8
0
100
AcDbLine
  6
BYLAYER
 10
1
 20
37
 11
290
 21
37
  0
TEXT
  5
17F
100
AcDbEntity
  8
0
100
AcDbText
  6
BYLAYER
 10
40.6536662502908
 20
8.06055328395253
 40
3
  1
~8
  7
Font_0
100
AcDbText
  0
TEXT
  5
180
100
AcDbEntity
  8
0
100
AcDbText
  6
BYLAYER
 10
99.7036913346956
 20
32.2639399057443
 40
4
  1
･D ｺﾞ
  7
Font_0
100
AcDbText
  0
TEXT
  5
181
100
AcDbEntity
  8
0
100
AcDbText
  6
BYLAYER
 10
99.7036913346956
 20
25.6992573518645
 40
4
  1
ｮﾖ ｹ�
  7
Font_0
100
AcDbText
  0
TEXT
  5
182
100
AcDbEntity
  8
0
100
AcDbText
  6
BYLAYER
 10
99.8861871848885
 20
19.8639838602288
 40
4
  1
ﾃｸ ｹﾏ
  7
Font_0
100
AcDbText
  0
TEXT
  5
183
100
AcDbEntity
  8
0
100
AcDbText
  6
BYLAYER
 10
99.8861871848885
 20
13.8463581030321
 40
4
  1
ｾ� ｺﾘ
  7
Font_0
100
AcDbText
  0
TEXT
  5
184
100
AcDbEntity
  8
0
100
AcDbText
  6
BYLAYER
 10
100.068683035081
 20
7.82873284267693
 40
4
  1
ｫ~ ｦW
  7
Font_0
100
AcDbText
  0
TEXT
  5
185
100
AcDbEntity
  8
0
100
AcDbText
  6
BYLAYER
 10
100.068683035081
 20
1.99345935104124
 40
4
  1
ｹﾏ ｸｹ
  7
Font_0
100
AcDbText
  0
TEXT
  5
186
100
AcDbEntity
  8
0
100
AcDbText
  6
BYLAYER
 10
146.605123404095
 20
31.8992353746223
 40
4
  1
ｧ� ｽ�
  7
Font_0
100
AcDbText
  0
TEXT
  5
187
100
AcDbEntity
  8
0
100
AcDbText
  6
BYLAYER
 10
146.605123404095
 20
25.8816096174256
 40
4
  1
､� ｨﾒ
  7
Font_0
100
AcDbText
  0
TEXT
  5
188
100
AcDbEntity
  8
0
100
AcDbText
  6
BYLAYER
 10
146.787619254287
 20
20.0463361257899
 40
4
  1
ｼﾆ ｶq
  7
Font_0
100
AcDbText
  0
TEXT
  5
189
100
AcDbEntity
  8
0
100
AcDbText
  6
BYLAYER
 10
146.97011510448
 20
14.0287103685931
 40
4
  1
ｳ� ｦ�
  7
Font_0
100
AcDbText
  0
TEXT
  5
18A
100
AcDbEntity
  8
0
100
AcDbText
  6
BYLAYER
 10
146.422627553902
 20
8.01108510823795
 40
4
  1
ｪ揵ｱｳBｲz
  7
Font_0
100
AcDbText
  0
TEXT
  5
18B
100
AcDbEntity
  8
0
100
AcDbText
  6
BYLAYER
 10
146.605123404095
 20
2.17581161660226
 40
4
  1
ｻsｹﾏ､魘ﾁ
  7
Font_0
100
AcDbText
  0
TEXT
  5
18C
100
AcDbEntity
  8
0
100
AcDbText
  6
BYLAYER
 10
197.77841370095
 20
32.2399819360484
 40
4
  1
､� ｴﾁ
  7
Font_0
100
AcDbText
  0
TEXT
  5
18D
100
AcDbEntity
  8
0
100
AcDbText
  6
BYLAYER
 10
215.423238216157
 20
32.0275605512105
 40
4
  1
ｭt
  7
Font_0
100
AcDbText
  0
TEXT
  5
18E
100
AcDbEntity
  8
0
100
AcDbText
  6
BYLAYER
 10
221.375709026727
 20
31.815139655317
 40
4
  1
ｳd
  7
Font_0
100
AcDbText
  0
TEXT
  5
18F
100
AcDbEntity
  8
0
100
AcDbText
  6
BYLAYER
 10
227.328179837297
 20
31.815139655317
 40
4
  1
､H
  7
Font_0
100
AcDbText
  0
TEXT
  5
190
100
AcDbEntity
  8
0
100
AcDbText
  6
BYLAYER
 10
239.020533541933
 20
32.0275605512105
 40
4
  1
ｧ�
  7
Font_0
100
AcDbText
  0
TEXT
  5
191
100
AcDbEntity
  8
0
100
AcDbText
  6
BYLAYER
 10
251.98841615305
 20
32.0275605512105
 40
4
  1
ｧ�
  7
Font_0
100
AcDbText
  0
TEXT
  5
192
100
AcDbEntity
  8
0
100
AcDbText
  6
BYLAYER
 10
264.531122227431
 20
32.0275605512105
 40
4
  1
､ｺ
  7
Font_0
100
AcDbText
  0
TEXT
  5
193
100
AcDbEntity
  8
0
100
AcDbText
  6
BYLAYER
 10
276.436064552298
 20
31.815139655317
 40
4
  1
ｮe
  7
Font_0
100
AcDbText
  0
TEXT
  5
194
100
AcDbEntity
  8
0
100
AcDbText
  6
BYLAYER
 10
23.0468952754036
 20
24.3731292136772
 40
7
  1
ｫﾘｷﾔ､uｷ~ｪﾑ･ｳｭｭ､ｽ･q
  7
Font_0
100
AcDbText
  0
TEXT
  5
195
100
AcDbEntity
  8
0
100
AcDbText
  6
BYLAYER
 10
22.2780828500217
 20
15.9228468305838
 40
3
  1
CHIEN YU INDUSTRIAL CO.,LTD.
  7
Font_0
100
AcDbText
  0
CIRCLE
  5
196
100
AcDbEntity
  8
0
100
AcDbCircle
  6
BYLAYER
 10
11.1054905349494
 20
25.350263158651
 40
9.36463111331499
  0
CIRCLE
  5
197
100
AcDbEntity
  8
0
100
AcDbCircle
  6
BYLAYER
 10
11.1054905349494
 20
25.350263158651
 40
7.62237416200057
  0
ARC
  5
198
100
AcDbEntity
  8
0
100
AcDbCircle
  6
BYLAYER
 10
11.1054905349494
 20
25.350263158651
 40
4.41008790801462
100
AcDbArc
 50
90
 51
0
  0
LINE
  5
199
100
AcDbEntity
  8
0
100
AcDbLine
  6
BYLAYER
 10
11.1054905349494
 20
29.7603510666656
 11
16.2233703294355
 21
29.7603510666656
  0
LINE
  5
19A
100
AcDbEntity
  8
0
100
AcDbLine
  6
BYLAYER
 10
15.515578442964
 20
25.350263158651
 11
16.4411524483498
 21
25.350263158651
  0
TEXT
  5
19B
100
AcDbEntity
  8
0
100
AcDbText
  6
BYLAYER
 10
8.49210581170386
 20
22.8477388856442
 40
5
  1
Y
  7
Font_0
100
AcDbText
  0
ARC
  5
19C
100
AcDbEntity
  8
0
100
AcDbCircle
  6
BYLAYER
 10
11.5745216067836
 20
33.8983997393573
 40
0.704372460813671
100
AcDbArc
 50
83.8529806316668
 51
239.250071636948
  0
ARC
  5
19D
100
AcDbEntity
  8
0
100
AcDbCircle
  6
BYLAYER
 10
7.23761506796891
 20
32.9876821284788
 40
0.704372460813671
100
AcDbArc
 50
113.852980631667
 51
269.250071636948
  0
ARC
  5
19E
100
AcDbEntity
  8
0
100
AcDbCircle
  6
BYLAYER
 10
3.93710263695578
 20
30.0305242723769
 40
0.704372460813671
100
AcDbArc
 50
143.852980631667
 51
299.250071636948
  0
ARC
  5
19F
100
AcDbEntity
  8
0
100
AcDbCircle
  6
BYLAYER
 10
2.55735395424305
 20
25.8192942304852
 40
0.704372460813671
100
AcDbArc
 50
173.852980631667
 51
329.250071636948
  0
ARC
  5
1A0
100
AcDbEntity
  8
0
100
AcDbCircle
  6
BYLAYER
 10
3.46807156512152
 20
21.4823876916705
 40
0.704372460813671
100
AcDbArc
 50
203.852980631667
 51
359.250071636948
  0
ARC
  5
1A1
100
AcDbEntity
  8
0
100
AcDbCircle
  6
BYLAYER
 10
6.42522942122351
 20
18.1818752606574
 40
0.704372460813671
100
AcDbArc
 50
233.852980631667
 51
29.2500716369476
  0
ARC
  5
1A2
100
AcDbEntity
  8
0
100
AcDbCircle
  6
BYLAYER
 10
10.6364594631151
 20
16.8021265779447
 40
0.704372460813671
100
AcDbArc
 50
263.852980631667
 51
59.2500716369476
  0
ARC
  5
1A3
100
AcDbEntity
  8
0
100
AcDbCircle
  6
BYLAYER
 10
14.9733660019298
 20
17.7128441888231
 40
0.704372460813671
100
AcDbArc
 50
293.852980631667
 51
89.2500716369476
  0
ARC
  5
1A4
100
AcDbEntity
  8
0
100
AcDbCircle
  6
BYLAYER
 10
18.273878432943
 20
20.6700020449251
 40
0.704372460813671
100
AcDbArc
 50
323.852980631667
 51
119.250071636948
  0
ARC
  5
1A5
100
AcDbEntity
  8
0
100
AcDbCircle
  6
BYLAYER
 10
19.6536271156557
 20
24.8812320868167
 40
0.704372460813671
100
AcDbArc
 50
353.852980631667
 51
149.250071636948
  0
ARC
  5
1A6
100
AcDbEntity
  8
0
100
AcDbCircle
  6
BYLAYER
 10
18.7429095047772
 20
29.2181386256314
 40
0.704372460813671
100
AcDbArc
 50
23.8529806316668
 51
179.250071636948
  0
ARC
  5
1A7
100
AcDbEntity
  8
0
100
AcDbCircle
  6
BYLAYER
 10
15.7857516486752
 20
32.5186510566446
 40
0.704372460813671
100
AcDbArc
 50
53.8529806316668
 51
209.250071636948
  0
LINE
  5
1A8
100
AcDbEntity
  8
0
100
AcDbLine
  6
BYLAYER
 10
1
 20
201
 11
290
 21
201
  0
LINE
  5
1A9
100
AcDbEntity
  8
0
100
AcDbLine
  6
BYLAYER
 10
290
 20
201
 11
290
 21
1
  0
ENDBLK
  5
1AA
100
AcDbEntity
  8
0
 67
     1
100
AcDbBlockEnd
  0
BLOCK
  5
1AB
100
AcDbEntity
  8
0
100
AcDbBlockBegin
  2
A4
 70
    0
 10
0
 20
0
 30
0.0
  3
A4
  1

  0
TEXT
  5
1AC
100
AcDbEntity
  8
0
100
AcDbText
  6
BYLAYER
 10
121.243373757434
 20
22.64898098486
 40
4.8
  1
ｿ� ｪ｢ ｵo
  7
Font_0
100
AcDbText
  0
TEXT
  5
1AD
100
AcDbEntity
  8
0
100
AcDbText
  6
BYLAYER
 10
175.643149157513
 20
16.5268633951276
 40
4.8
  1
M/M
  7
Font_0
100
AcDbText
  0
INSERT
  5
1AE
100
AcDbEntity
  8
0
100
AcDbBlockReference
  6
CONTINUOUS
  2
0
 10
2.77414193339833
 20
3.05830958210858
 30
0.0
  0
ENDBLK
  5
1AF
100
AcDbEntity
  8
0
 67
     1
100
AcDbBlockEnd
  0
BLOCK
  5
1B0
100
AcDbEntity
  8
0
100
AcDbBlockBegin
  2
NOTE
 70
    0
 10
0
 20
0
 30
0.0
  3
NOTE
  1

  0
LINE
  5
1B1
100
AcDbEntity
  8
0
100
AcDbLine
  6
BYLAYER
 10
0
 20
48
 11
244.5
 21
48
  0
LINE
  5
1B2
100
AcDbEntity
  8
0
100
AcDbLine
  6
BYLAYER
 10
0
 20
42
 11
244.5
 21
42
  0
LINE
  5
1B3
100
AcDbEntity
  8
0
100
AcDbLine
  6
BYLAYER
 10
0
 20
36
 11
244.5
 21
36
  0
LINE
  5
1B4
100
AcDbEntity
  8
0
100
AcDbLine
  6
BYLAYER
 10
0
 20
30
 11
244.5
 21
30
  0
LINE
  5
1B5
100
AcDbEntity
  8
0
100
AcDbLine
  6
BYLAYER
 10
0
 20
24
 11
244.5
 21
24
  0
LINE
  5
1B6
100
AcDbEntity
  8
0
100
AcDbLine
  6
BYLAYER
 10
0
 20
18
 11
244.5
 21
18
  0
LINE
  5
1B7
100
AcDbEntity
  8
0
100
AcDbLine
  6
BYLAYER
 10
0
 20
12
 11
244.5
 21
12
  0
LINE
  5
1B8
100
AcDbEntity
  8
0
100
AcDbLine
  6
BYLAYER
 10
0
 20
6
 11
244.5
 21
6
  0
LINE
  5
1B9
100
AcDbEntity
  8
0
100
AcDbLine
  6
BYLAYER
 62
3
 10
196.307106781187
 20
0.707106781186553
 11
211.192893218814
 21
0.707106781186553
  0
LINE
  5
1BA
100
AcDbEntity
  8
0
100
AcDbLine
  6
BYLAYER
 62
3
 10
196.307106781187
 20
6.70710678118655
 11
211.192893218814
 21
6.70710678118655
  0
LINE
  5
1BB
100
AcDbEntity
  8
0
100
AcDbLine
  6
BYLAYER
 62
3
 10
196.307106781187
 20
12.7071067811866
 11
211.192893218814
 21
12.7071067811866
  0
LINE
  5
1BC
100
AcDbEntity
  8
0
100
AcDbLine
  6
BYLAYER
 62
3
 10
196.307106781187
 20
18.7071067811866
 11
211.192893218814
 21
18.7071067811866
  0
LINE
  5
1BD
100
AcDbEntity
  8
0
100
AcDbLine
  6
BYLAYER
 62
3
 10
196.307106781187
 20
24.7071067811866
 11
211.192893218814
 21
24.7071067811866
  0
LINE
  5
1BE
100
AcDbEntity
  8
0
100
AcDbLine
  6
BYLAYER
 62
3
 10
196.307106781187
 20
30.7071067811865
 11
211.192893218814
 21
30.7071067811865
  0
LINE
  5
1BF
100
AcDbEntity
  8
0
100
AcDbLine
  6
BYLAYER
 62
3
 10
196.307106781187
 20
36.7071067811866
 11
211.192893218814
 21
36.7071067811866
  0
LINE
  5
1C0
100
AcDbEntity
  8
0
100
AcDbLine
  6
BYLAYER
 62
3
 10
65.9071067811866
 20
0.707106781186553
 11
80.7928932188135
 21
0.707106781186553
  0
LINE
  5
1C1
100
AcDbEntity
  8
0
100
AcDbLine
  6
BYLAYER
 62
3
 10
65.9071067811866
 20
6.70710678118655
 11
80.7928932188135
 21
6.70710678118655
  0
LINE
  5
1C2
100
AcDbEntity
  8
0
100
AcDbLine
  6
BYLAYER
 62
3
 10
65.9071067811866
 20
12.7071067811866
 11
80.7928932188135
 21
12.7071067811866
  0
LINE
  5
1C3
100
AcDbEntity
  8
0
100
AcDbLine
  6
BYLAYER
 62
3
 10
65.9071067811866
 20
18.7071067811866
 11
80.7928932188135
 21
18.7071067811866
  0
LINE
  5
1C4
100
AcDbEntity
  8
0
100
AcDbLine
  6
BYLAYER
 62
3
 10
65.9071067811866
 20
24.7071067811866
 11
80.7928932188135
 21
24.7071067811866
  0
LINE
  5
1C5
100
AcDbEntity
  8
0
100
AcDbLine
  6
BYLAYER
 62
3
 10
65.9071067811866
 20
30.7071067811865
 11
80.7928932188135
 21
30.7071067811865
  0
LINE
  5
1C6
100
AcDbEntity
  8
0
100
AcDbLine
  6
BYLAYER
 62
3
 10
65.9071067811866
 20
36.7071067811866
 11
80.7928932188135
 21
36.7071067811866
  0
LINE
  5
1C7
100
AcDbEntity
  8
0
100
AcDbLine
  6
BYLAYER
 10
65.2
 20
48
 11
65.2
 21
0
  0
LINE
  5
1C8
100
AcDbEntity
  8
0
100
AcDbLine
  6
BYLAYER
 10
32.6
 20
48
 11
32.6
 21
0
  0
LINE
  5
1C9
100
AcDbEntity
  8
0
100
AcDbLine
  6
BYLAYER
 10
16.3
 20
48
 11
16.3
 21
0
  0
LINE
  5
1CA
100
AcDbEntity
  8
0
100
AcDbLine
  6
BYLAYER
 10
48.9
 20
48
 11
48.9
 21
0
  0
LINE
  5
1CB
100
AcDbEntity
  8
0
100
AcDbLine
  6
BYLAYER
 62
3
 10
0.707106781186548
 20
0.707106781186553
 11
15.5928932188134
 21
0.707106781186553
  0
LINE
  5
1CC
100
AcDbEntity
  8
0
100
AcDbLine
  6
BYLAYER
 62
3
 10
0.707106781186548
 20
6.70710678118655
 11
15.5928932188134
 21
6.70710678118655
  0
LINE
  5
1CD
100
AcDbEntity
  8
0
100
AcDbLine
  6
BYLAYER
 62
3
 10
0.707106781186548
 20
12.7071067811866
 11
15.5928932188134
 21
12.7071067811866
  0
LINE
  5
1CE
100
AcDbEntity
  8
0
100
AcDbLine
  6
BYLAYER
 62
3
 10
0.707106781186548
 20
18.7071067811866
 11
15.5928932188134
 21
18.7071067811866
  0
LINE
  5
1CF
100
AcDbEntity
  8
0
100
AcDbLine
  6
BYLAYER
 62
3
 10
33.3071067811865
 20
0.707106781186553
 11
48.1928932188135
 21
0.707106781186553
  0
LINE
  5
1D0
100
AcDbEntity
  8
0
100
AcDbLine
  6
BYLAYER
 62
3
 10
33.3071067811865
 20
6.70710678118655
 11
48.1928932188135
 21
6.70710678118655
  0
LINE
  5
1D1
100
AcDbEntity
  8
0
100
AcDbLine
  6
BYLAYER
 62
3
 10
33.3071067811865
 20
12.7071067811866
 11
48.1928932188135
 21
12.7071067811866
  0
LINE
  5
1D2
100
AcDbEntity
  8
0
100
AcDbLine
  6
BYLAYER
 62
3
 10
33.3071067811865
 20
18.7071067811866
 11
48.1928932188135
 21
18.7071067811866
  0
LINE
  5
1D3
100
AcDbEntity
  8
0
100
AcDbLine
  6
BYLAYER
 62
3
 10
17.0071067811865
 20
0.707106781186553
 11
31.8928932188135
 21
0.707106781186553
  0
LINE
  5
1D4
100
AcDbEntity
  8
0
100
AcDbLine
  6
BYLAYER
 62
3
 10
17.0071067811865
 20
6.70710678118655
 11
31.8928932188135
 21
6.70710678118655
  0
LINE
  5
1D5
100
AcDbEntity
  8
0
100
AcDbLine
  6
BYLAYER
 62
3
 10
17.0071067811865
 20
12.7071067811866
 11
31.8928932188135
 21
12.7071067811866
  0
LINE
  5
1D6
100
AcDbEntity
  8
0
100
AcDbLine
  6
BYLAYER
 62
3
 10
17.0071067811865
 20
18.7071067811866
 11
31.8928932188135
 21
18.7071067811866
  0
LINE
  5
1D7
100
AcDbEntity
  8
0
100
AcDbLine
  6
BYLAYER
 62
3
 10
49.6071067811866
 20
0.707106781186553
 11
64.4928932188135
 21
0.707106781186553
  0
LINE
  5
1D8
100
AcDbEntity
  8
0
100
AcDbLine
  6
BYLAYER
 62
3
 10
49.6071067811866
 20
6.70710678118655
 11
64.4928932188135
 21
6.70710678118655
  0
LINE
  5
1D9
100
AcDbEntity
  8
0
100
AcDbLine
  6
BYLAYER
 62
3
 10
49.6071067811866
 20
12.7071067811866
 11
64.4928932188135
 21
12.7071067811866
  0
LINE
  5
1DA
100
AcDbEntity
  8
0
100
AcDbLine
  6
BYLAYER
 62
3
 10
49.6071067811866
 20
18.7071067811866
 11
64.4928932188135
 21
18.7071067811866
  0
LINE
  5
1DB
100
AcDbEntity
  8
0
100
AcDbLine
  6
BYLAYER
 62
3
 10
0.707106781186548
 20
24.7071067811866
 11
15.5928932188134
 21
24.7071067811866
  0
LINE
  5
1DC
100
AcDbEntity
  8
0
100
AcDbLine
  6
BYLAYER
 62
3
 10
0.707106781186548
 20
30.7071067811865
 11
15.5928932188134
 21
30.7071067811865
  0
LINE
  5
1DD
100
AcDbEntity
  8
0
100
AcDbLine
  6
BYLAYER
 62
3
 10
0.707106781186548
 20
36.7071067811866
 11
15.5928932188134
 21
36.7071067811866
  0
TEXT
  5
1DE
100
AcDbEntity
  8
0
100
AcDbText
  6
BYLAYER
 10
5.67126064773777
 20
43.5
 40
3
  1
､u･O
  7
Font_0
100
AcDbText
  0
LINE
  5
1DF
100
AcDbEntity
  8
0
100
AcDbLine
  6
BYLAYER
 62
3
 10
33.3071067811865
 20
24.7071067811866
 11
48.1928932188135
 21
24.7071067811866
  0
LINE
  5
1E0
100
AcDbEntity
  8
0
100
AcDbLine
  6
BYLAYER
 62
3
 10
33.3071067811865
 20
30.7071067811865
 11
48.1928932188135
 21
30.7071067811865
  0
LINE
  5
1E1
100
AcDbEntity
  8
0
100
AcDbLine
  6
BYLAYER
 62
3
 10
33.3071067811865
 20
36.7071067811866
 11
48.1928932188135
 21
36.7071067811866
  0
LINE
  5
1E2
100
AcDbEntity
  8
0
100
AcDbLine
  6
BYLAYER
 62
3
 10
17.0071067811865
 20
24.7071067811866
 11
31.8928932188135
 21
24.7071067811866
  0
LINE
  5
1E3
100
AcDbEntity
  8
0
100
AcDbLine
  6
BYLAYER
 62
3
 10
17.0071067811865
 20
30.7071067811865
 11
31.8928932188135
 21
30.7071067811865
  0
LINE
  5
1E4
100
AcDbEntity
  8
0
100
AcDbLine
  6
BYLAYER
 62
3
 10
17.0071067811865
 20
36.7071067811866
 11
31.8928932188135
 21
36.7071067811866
  0
TEXT
  5
1E5
100
AcDbEntity
  8
0
100
AcDbText
  6
BYLAYER
 10
21.3781148184937
 20
43.5
 40
3
  1
ｽsｸｹ
  7
Font_0
100
AcDbText
  0
TEXT
  5
1E6
100
AcDbEntity
  8
0
100
AcDbText
  6
BYLAYER
 10
39.5
 20
43.5
 40
3
  1
A
  7
Font_0
100
AcDbText
  0
LINE
  5
1E7
100
AcDbEntity
  8
0
100
AcDbLine
  6
BYLAYER
 62
3
 10
49.6071067811866
 20
24.7071067811866
 11
64.4928932188135
 21
24.7071067811866
  0
LINE
  5
1E8
100
AcDbEntity
  8
0
100
AcDbLine
  6
BYLAYER
 62
3
 10
49.6071067811866
 20
30.7071067811865
 11
64.4928932188135
 21
30.7071067811865
  0
LINE
  5
1E9
100
AcDbEntity
  8
0
100
AcDbLine
  6
BYLAYER
 62
3
 10
49.6071067811866
 20
36.7071067811866
 11
64.4928932188135
 21
36.7071067811866
  0
TEXT
  5
1EA
100
AcDbEntity
  8
0
100
AcDbText
  6
BYLAYER
 10
56
 20
43.5
 40
3
  1
B
  7
Font_0
100
AcDbText
  0
TEXT
  5
1EB
100
AcDbEntity
  8
0
100
AcDbText
  6
BYLAYER
 10
72.5
 20
43.5
 40
3
  1
C
  7
Font_0
100
AcDbText
  0
LINE
  5
1EC
100
AcDbEntity
  8
0
100
AcDbLine
  6
BYLAYER
 10
163
 20
48
 11
163
 21
0
  0
LINE
  5
1ED
100
AcDbEntity
  8
0
100
AcDbLine
  6
BYLAYER
 10
146.7
 20
48
 11
146.7
 21
0
  0
LINE
  5
1EE
100
AcDbEntity
  8
0
100
AcDbLine
  6
BYLAYER
 10
179.3
 20
48
 11
179.3
 21
0
  0
LINE
  5
1EF
100
AcDbEntity
  8
0
100
AcDbLine
  6
BYLAYER
 10
195.6
 20
48
 11
195.6
 21
0
  0
LINE
  5
1F0
100
AcDbEntity
  8
0
100
AcDbLine
  6
BYLAYER
 10
81.5
 20
48
 11
81.5
 21
0
  0
LINE
  5
1F1
100
AcDbEntity
  8
0
100
AcDbLine
  6
BYLAYER
 10
114.1
 20
48
 11
114.1
 21
0
  0
LINE
  5
1F2
100
AcDbEntity
  8
0
100
AcDbLine
  6
BYLAYER
 10
97.8
 20
48
 11
97.8
 21
0
  0
LINE
  5
1F3
100
AcDbEntity
  8
0
100
AcDbLine
  6
BYLAYER
 10
130.4
 20
48
 11
130.4
 21
0
  0
LINE
  5
1F4
100
AcDbEntity
  8
0
100
AcDbLine
  6
BYLAYER
 62
3
 10
131.107106781186
 20
0.707106781186553
 11
145.992893218813
 21
0.707106781186553
  0
LINE
  5
1F5
100
AcDbEntity
  8
0
100
AcDbLine
  6
BYLAYER
 62
3
 10
131.107106781186
 20
6.70710678118655
 11
145.992893218813
 21
6.70710678118655
  0
LINE
  5
1F6
100
AcDbEntity
  8
0
100
AcDbLine
  6
BYLAYER
 62
3
 10
131.107106781186
 20
12.7071067811866
 11
145.992893218813
 21
12.7071067811866
  0
LINE
  5
1F7
100
AcDbEntity
  8
0
100
AcDbLine
  6
BYLAYER
 62
3
 10
131.107106781186
 20
18.7071067811866
 11
145.992893218813
 21
18.7071067811866
  0
LINE
  5
1F8
100
AcDbEntity
  8
0
100
AcDbLine
  6
BYLAYER
 62
3
 10
98.5071067811866
 20
0.707106781186553
 11
113.392893218813
 21
0.707106781186553
  0
LINE
  5
1F9
100
AcDbEntity
  8
0
100
AcDbLine
  6
BYLAYER
 62
3
 10
98.5071067811866
 20
6.70710678118655
 11
113.392893218813
 21
6.70710678118655
  0
LINE
  5
1FA
100
AcDbEntity
  8
0
100
AcDbLine
  6
BYLAYER
 62
3
 10
98.5071067811866
 20
12.7071067811866
 11
113.392893218813
 21
12.7071067811866
  0
LINE
  5
1FB
100
AcDbEntity
  8
0
100
AcDbLine
  6
BYLAYER
 62
3
 10
98.5071067811866
 20
18.7071067811866
 11
113.392893218813
 21
18.7071067811866
  0
LINE
  5
1FC
100
AcDbEntity
  8
0
100
AcDbLine
  6
BYLAYER
 62
3
 10
82.2071067811865
 20
0.707106781186553
 11
97.0928932188135
 21
0.707106781186553
  0
LINE
  5
1FD
100
AcDbEntity
  8
0
100
AcDbLine
  6
BYLAYER
 62
3
 10
82.2071067811865
 20
6.70710678118655
 11
97.0928932188135
 21
6.70710678118655
  0
LINE
  5
1FE
100
AcDbEntity
  8
0
100
AcDbLine
  6
BYLAYER
 62
3
 10
82.2071067811865
 20
12.7071067811866
 11
97.0928932188135
 21
12.7071067811866
  0
LINE
  5
1FF
100
AcDbEntity
  8
0
100
AcDbLine
  6
BYLAYER
 62
3
 10
82.2071067811865
 20
18.7071067811866
 11
97.0928932188135
 21
18.7071067811866
  0
LINE
  5
200
100
AcDbEntity
  8
0
100
AcDbLine
  6
BYLAYER
 62
3
 10
114.807106781187
 20
0.707106781186553
 11
129.692893218813
 21
0.707106781186553
  0
LINE
  5
201
100
AcDbEntity
  8
0
100
AcDbLine
  6
BYLAYER
 62
3
 10
114.807106781187
 20
6.70710678118655
 11
129.692893218813
 21
6.70710678118655
  0
LINE
  5
202
100
AcDbEntity
  8
0
100
AcDbLine
  6
BYLAYER
 62
3
 10
114.807106781187
 20
12.7071067811866
 11
129.692893218813
 21
12.7071067811866
  0
LINE
  5
203
100
AcDbEntity
  8
0
100
AcDbLine
  6
BYLAYER
 62
3
 10
114.807106781187
 20
18.7071067811866
 11
129.692893218813
 21
18.7071067811866
  0
LINE
  5
204
100
AcDbEntity
  8
0
100
AcDbLine
  6
BYLAYER
 62
3
 10
163.707106781186
 20
0.707106781186553
 11
178.592893218813
 21
0.707106781186553
  0
LINE
  5
205
100
AcDbEntity
  8
0
100
AcDbLine
  6
BYLAYER
 62
3
 10
163.707106781186
 20
6.70710678118655
 11
178.592893218813
 21
6.70710678118655
  0
LINE
  5
206
100
AcDbEntity
  8
0
100
AcDbLine
  6
BYLAYER
 62
3
 10
163.707106781186
 20
12.7071067811866
 11
178.592893218813
 21
12.7071067811866
  0
LINE
  5
207
100
AcDbEntity
  8
0
100
AcDbLine
  6
BYLAYER
 62
3
 10
163.707106781186
 20
18.7071067811866
 11
178.592893218813
 21
18.7071067811866
  0
LINE
  5
208
100
AcDbEntity
  8
0
100
AcDbLine
  6
BYLAYER
 62
3
 10
147.407106781187
 20
0.707106781186553
 11
162.292893218814
 21
0.707106781186553
  0
LINE
  5
209
100
AcDbEntity
  8
0
100
AcDbLine
  6
BYLAYER
 62
3
 10
147.407106781187
 20
6.70710678118655
 11
162.292893218814
 21
6.70710678118655
  0
LINE
  5
20A
100
AcDbEntity
  8
0
100
AcDbLine
  6
BYLAYER
 62
3
 10
147.407106781187
 20
12.7071067811866
 11
162.292893218814
 21
12.7071067811866
  0
LINE
  5
20B
100
AcDbEntity
  8
0
100
AcDbLine
  6
BYLAYER
 62
3
 10
147.407106781187
 20
18.7071067811866
 11
162.292893218814
 21
18.7071067811866
  0
LINE
  5
20C
100
AcDbEntity
  8
0
100
AcDbLine
  6
BYLAYER
 62
3
 10
180.007106781186
 20
0.707106781186553
 11
194.892893218813
 21
0.707106781186553
  0
LINE
  5
20D
100
AcDbEntity
  8
0
100
AcDbLine
  6
BYLAYER
 62
3
 10
180.007106781186
 20
6.70710678118655
 11
194.892893218813
 21
6.70710678118655
  0
LINE
  5
20E
100
AcDbEntity
  8
0
100
AcDbLine
  6
BYLAYER
 62
3
 10
180.007106781186
 20
12.7071067811866
 11
194.892893218813
 21
12.7071067811866
  0
LINE
  5
20F
100
AcDbEntity
  8
0
100
AcDbLine
  6
BYLAYER
 62
3
 10
180.007106781186
 20
18.7071067811866
 11
194.892893218813
 21
18.7071067811866
  0
LINE
  5
210
100
AcDbEntity
  8
0
100
AcDbLine
  6
BYLAYER
 62
3
 10
131.107106781186
 20
24.7071067811866
 11
145.992893218813
 21
24.7071067811866
  0
LINE
  5
211
100
AcDbEntity
  8
0
100
AcDbLine
  6
BYLAYER
 62
3
 10
131.107106781186
 20
30.7071067811865
 11
145.992893218813
 21
30.7071067811865
  0
LINE
  5
212
100
AcDbEntity
  8
0
100
AcDbLine
  6
BYLAYER
 62
3
 10
131.107106781186
 20
36.7071067811866
 11
145.992893218813
 21
36.7071067811866
  0
LINE
  5
213
100
AcDbEntity
  8
0
100
AcDbLine
  6
BYLAYER
 62
3
 10
98.5071067811866
 20
24.7071067811866
 11
113.392893218813
 21
24.7071067811866
  0
LINE
  5
214
100
AcDbEntity
  8
0
100
AcDbLine
  6
BYLAYER
 62
3
 10
98.5071067811866
 20
30.7071067811865
 11
113.392893218813
 21
30.7071067811865
  0
LINE
  5
215
100
AcDbEntity
  8
0
100
AcDbLine
  6
BYLAYER
 62
3
 10
98.5071067811866
 20
36.7071067811866
 11
113.392893218813
 21
36.7071067811866
  0
LINE
  5
216
100
AcDbEntity
  8
0
100
AcDbLine
  6
BYLAYER
 62
3
 10
82.2071067811865
 20
24.7071067811866
 11
97.0928932188135
 21
24.7071067811866
  0
LINE
  5
217
100
AcDbEntity
  8
0
100
AcDbLine
  6
BYLAYER
 62
3
 10
82.2071067811865
 20
30.7071067811865
 11
97.0928932188135
 21
30.7071067811865
  0
LINE
  5
218
100
AcDbEntity
  8
0
100
AcDbLine
  6
BYLAYER
 62
3
 10
82.2071067811865
 20
36.7071067811866
 11
97.0928932188135
 21
36.7071067811866
  0
TEXT
  5
219
100
AcDbEntity
  8
0
100
AcDbText
  6
BYLAYER
 10
89
 20
43.5
 40
3
  1
D
  7
Font_0
100
AcDbText
  0
TEXT
  5
21A
100
AcDbEntity
  8
0
100
AcDbText
  6
BYLAYER
 10
105.3
 20
43.5
 40
3
  1
E
  7
Font_0
100
AcDbText
  0
LINE
  5
21B
100
AcDbEntity
  8
0
100
AcDbLine
  6
BYLAYER
 62
3
 10
114.807106781187
 20
24.7071067811866
 11
129.692893218813
 21
24.7071067811866
  0
LINE
  5
21C
100
AcDbEntity
  8
0
100
AcDbLine
  6
BYLAYER
 62
3
 10
114.807106781187
 20
30.7071067811865
 11
129.692893218813
 21
30.7071067811865
  0
LINE
  5
21D
100
AcDbEntity
  8
0
100
AcDbLine
  6
BYLAYER
 62
3
 10
114.807106781187
 20
36.7071067811866
 11
129.692893218813
 21
36.7071067811866
  0
TEXT
  5
21E
100
AcDbEntity
  8
0
100
AcDbText
  6
BYLAYER
 10
121.8
 20
43.5
 40
3
  1
F
  7
Font_0
100
AcDbText
  0
TEXT
  5
21F
100
AcDbEntity
  8
0
100
AcDbText
  6
BYLAYER
 10
137.8
 20
43.5
 40
3
  1
G
  7
Font_0
100
AcDbText
  0
LINE
  5
220
100
AcDbEntity
  8
0
100
AcDbLine
  6
BYLAYER
 62
3
 10
163.707106781186
 20
24.7071067811866
 11
178.592893218813
 21
24.7071067811866
  0
LINE
  5
221
100
AcDbEntity
  8
0
100
AcDbLine
  6
BYLAYER
 62
3
 10
163.707106781186
 20
30.7071067811865
 11
178.592893218813
 21
30.7071067811865
  0
LINE
  5
222
100
AcDbEntity
  8
0
100
AcDbLine
  6
BYLAYER
 62
3
 10
163.707106781186
 20
36.7071067811866
 11
178.592893218813
 21
36.7071067811866
  0
LINE
  5
223
100
AcDbEntity
  8
0
100
AcDbLine
  6
BYLAYER
 62
3
 10
147.407106781187
 20
24.7071067811866
 11
162.292893218814
 21
24.7071067811866
  0
LINE
  5
224
100
AcDbEntity
  8
0
100
AcDbLine
  6
BYLAYER
 62
3
 10
147.407106781187
 20
30.7071067811865
 11
162.292893218814
 21
30.7071067811865
  0
LINE
  5
225
100
AcDbEntity
  8
0
100
AcDbLine
  6
BYLAYER
 62
3
 10
147.407106781187
 20
36.7071067811866
 11
162.292893218814
 21
36.7071067811866
  0
TEXT
  5
226
100
AcDbEntity
  8
0
100
AcDbText
  6
BYLAYER
 10
153.5
 20
43.5
 40
3
  1
H
  7
Font_0
100
AcDbText
  0
TEXT
  5
227
100
AcDbEntity
  8
0
100
AcDbText
  6
BYLAYER
 10
171.5
 20
43.5
 40
3
  1
I
  7
Font_0
100
AcDbText
  0
LINE
  5
228
100
AcDbEntity
  8
0
100
AcDbLine
  6
BYLAYER
 62
3
 10
180.007106781186
 20
24.7071067811866
 11
194.892893218813
 21
24.7071067811866
  0
LINE
  5
229
100
AcDbEntity
  8
0
100
AcDbLine
  6
BYLAYER
 62
3
 10
180.007106781186
 20
30.7071067811865
 11
194.892893218813
 21
30.7071067811865
  0
LINE
  5
22A
100
AcDbEntity
  8
0
100
AcDbLine
  6
BYLAYER
 62
3
 10
180.007106781186
 20
36.7071067811866
 11
194.892893218813
 21
36.7071067811866
  0
TEXT
  5
22B
100
AcDbEntity
  8
0
100
AcDbText
  6
BYLAYER
 10
186.6
 20
43.5
 40
3
  1
J
  7
Font_0
100
AcDbText
  0
TEXT
  5
22C
100
AcDbEntity
  8
0
100
AcDbText
  6
BYLAYER
 10
202.5
 20
43.5
 40
3
  1
K
  7
Font_0
100
AcDbText
  0
LINE
  5
22D
100
AcDbEntity
  8
0
100
AcDbLine
  6
BYLAYER
 10
244.5
 20
48
 11
244.5
 21
0
  0
LINE
  5
22E
100
AcDbEntity
  8
0
100
AcDbLine
  6
BYLAYER
 10
211.9
 20
48
 11
211.9
 21
0
  0
LINE
  5
22F
100
AcDbEntity
  8
0
100
AcDbLine
  6
BYLAYER
 10
228.2
 20
48
 11
228.2
 21
0
  0
LINE
  5
230
100
AcDbEntity
  8
0
100
AcDbLine
  6
BYLAYER
 62
3
 10
228.907106781187
 20
0.707106781186553
 11
243.792893218814
 21
0.707106781186553
  0
LINE
  5
231
100
AcDbEntity
  8
0
100
AcDbLine
  6
BYLAYER
 62
3
 10
228.907106781187
 20
6.70710678118655
 11
243.792893218814
 21
6.70710678118655
  0
LINE
  5
232
100
AcDbEntity
  8
0
100
AcDbLine
  6
BYLAYER
 62
3
 10
228.907106781187
 20
12.7071067811866
 11
243.792893218814
 21
12.7071067811866
  0
LINE
  5
233
100
AcDbEntity
  8
0
100
AcDbLine
  6
BYLAYER
 62
3
 10
228.907106781187
 20
18.7071067811866
 11
243.792893218814
 21
18.7071067811866
  0
LINE
  5
234
100
AcDbEntity
  8
0
100
AcDbLine
  6
BYLAYER
 62
3
 10
212.607106781186
 20
0.707106781186553
 11
227.492893218814
 21
0.707106781186553
  0
LINE
  5
235
100
AcDbEntity
  8
0
100
AcDbLine
  6
BYLAYER
 62
3
 10
212.607106781186
 20
6.70710678118655
 11
227.492893218814
 21
6.70710678118655
  0
LINE
  5
236
100
AcDbEntity
  8
0
100
AcDbLine
  6
BYLAYER
 62
3
 10
212.607106781186
 20
12.7071067811866
 11
227.492893218814
 21
12.7071067811866
  0
LINE
  5
237
100
AcDbEntity
  8
0
100
AcDbLine
  6
BYLAYER
 62
3
 10
212.607106781186
 20
18.7071067811866
 11
227.492893218814
 21
18.7071067811866
  0
LINE
  5
238
100
AcDbEntity
  8
0
100
AcDbLine
  6
BYLAYER
 62
3
 10
228.907106781187
 20
24.7071067811866
 11
243.792893218814
 21
24.7071067811866
  0
LINE
  5
239
100
AcDbEntity
  8
0
100
AcDbLine
  6
BYLAYER
 62
3
 10
228.907106781187
 20
30.7071067811865
 11
243.792893218814
 21
30.7071067811865
  0
LINE
  5
23A
100
AcDbEntity
  8
0
100
AcDbLine
  6
BYLAYER
 62
3
 10
228.907106781187
 20
36.7071067811866
 11
243.792893218814
 21
36.7071067811866
  0
LINE
  5
23B
100
AcDbEntity
  8
0
100
AcDbLine
  6
BYLAYER
 62
3
 10
212.607106781186
 20
24.7071067811866
 11
227.492893218814
 21
24.7071067811866
  0
LINE
  5
23C
100
AcDbEntity
  8
0
100
AcDbLine
  6
BYLAYER
 62
3
 10
212.607106781186
 20
30.7071067811865
 11
227.492893218814
 21
30.7071067811865
  0
LINE
  5
23D
100
AcDbEntity
  8
0
100
AcDbLine
  6
BYLAYER
 62
3
 10
212.607106781186
 20
36.7071067811866
 11
227.492893218814
 21
36.7071067811866
  0
TEXT
  5
23E
100
AcDbEntity
  8
0
100
AcDbText
  6
BYLAYER
 10
219
 20
43.5
 40
3
  1
L
  7
Font_0
100
AcDbText
  0
TEXT
  5
23F
100
AcDbEntity
  8
0
100
AcDbText
  6
BYLAYER
 10
233.270544856686
 20
43.5
 40
3
  1
ｫﾈ､�
  7
Font_0
100
AcDbText
  0
ENDBLK
  5
240
100
AcDbEntity
  8
0
 67
     1
100
AcDbBlockEnd
  0
BLOCK
  5
241
100
AcDbEntity
  8
0
100
AcDbBlockBegin
  2
BASE
 70
    0
 10
0
 20
0
 30
0.0
  3
BASE
  1

  0
LINE
  5
242
100
AcDbEntity
  8
0
100
AcDbLine
  6
BYLAYER
 10
0
 20
36
 11
278.4
 21
36
  0
LINE
  5
243
100
AcDbEntity
  8
0
100
AcDbLine
  6
BYLAYER
 10
0
 20
12
 11
278.4
 21
12
  0
LINE
  5
244
100
AcDbEntity
  8
0
100
AcDbLine
  6
BYLAYER
 10
0
 20
6
 11
278.4
 21
6
  0
LINE
  5
245
100
AcDbEntity
  8
0
100
AcDbLine
  6
BYLAYER
 10
0
 20
0
 11
278.4
 21
0
  0
LINE
  5
246
100
AcDbEntity
  8
0
100
AcDbLine
  6
BYLAYER
 10
278.4
 20
186
 11
0
 21
186
  0
LINE
  5
247
100
AcDbEntity
  8
0
100
AcDbLine
  6
BYLAYER
 10
96.85
 20
30
 11
278.4
 21
30
  0
LINE
  5
248
100
AcDbEntity
  8
0
100
AcDbLine
  6
BYLAYER
 10
96.85
 20
24
 11
278.4
 21
24
  0
LINE
  5
249
100
AcDbEntity
  8
0
100
AcDbLine
  6
BYLAYER
 10
96.85
 20
18
 11
278.4
 21
18
  0
LINE
  5
24A
100
AcDbEntity
  8
0
100
AcDbLine
  6
BYLAYER
 10
0
 20
0
 11
0
 21
186
  0
TEXT
  5
24B
100
AcDbEntity
  8
0
100
AcDbText
  6
BYLAYER
 10
22.1680110084321
 20
15.7553550725962
 40
2.8
  1
CAM YORK INDUSTRIAL CO.,LTD.
  7
Font_0
100
AcDbText
  0
TEXT
  5
24C
100
AcDbEntity
  8
0
100
AcDbText
  6
BYLAYER
 10
22.0468952754036
 20
26
 40
7
  1
ｫﾘｷﾔ､uｷ~ｪﾑ･ｳｭｭ､ｽ･q
  7
Font_0
100
AcDbText
  0
TEXT
  5
24D
100
AcDbEntity
  8
0
100
AcDbText
  6
BYLAYER
 10
63.8643398403977
 20
7.09411371042404
 40
2.8
  1
(04)3322629
  7
Font_0
100
AcDbText
  0
LINE
  5
24E
100
AcDbEntity
  8
0
100
AcDbLine
  6
BYLAYER
 10
10.1054905349494
 20
28.7603510666656
 11
15.2233703294355
 21
28.7603510666656
  0
CIRCLE
  5
24F
100
AcDbEntity
  8
0
100
AcDbCircle
  6
BYLAYER
 10
10.1054905349494
 20
24.350263158651
 40
9.36463111331499
  0
CIRCLE
  5
250
100
AcDbEntity
  8
0
100
AcDbCircle
  6
BYLAYER
 10
10.1054905349494
 20
24.350263158651
 40
7.62237416200057
  0
ARC
  5
251
100
AcDbEntity
  8
0
100
AcDbCircle
  6
BYLAYER
 10
10.1054905349494
 20
24.350263158651
 40
4.41008790801462
100
AcDbArc
 50
90
 51
0
  0
LINE
  5
252
100
AcDbEntity
  8
0
100
AcDbLine
  6
BYLAYER
 10
13
 20
12
 11
13
 21
0
  0
TEXT
  5
253
100
AcDbEntity
  8
0
100
AcDbText
  6
BYLAYER
 10
2.6
 20
7.3
 40
3
  1
TEL
  7
Font_0
100
AcDbText
  0
TEXT
  5
254
100
AcDbEntity
  8
0
100
AcDbText
  6
BYLAYER
 10
3.5
 20
1.5
 40
3
  1
ｳﾆｵ�
  7
Font_0
 72
1
 11
6.5
 21
3
100
AcDbText
 73
2
  0
ARC
  5
255
100
AcDbEntity
  8
0
100
AcDbCircle
  6
BYLAYER
 10
10.5745216067836
 20
32.8983997393573
 40
0.704372460813671
100
AcDbArc
 50
83.8529806316668
 51
239.250071636948
  0
ARC
  5
256
100
AcDbEntity
  8
0
100
AcDbCircle
  6
BYLAYER
 10
6.23761506796892
 20
31.9876821284788
 40
0.704372460813671
100
AcDbArc
 50
113.852980631667
 51
269.250071636948
  0
ARC
  5
257
100
AcDbEntity
  8
0
100
AcDbCircle
  6
BYLAYER
 10
2.46807156512152
 20
20.4823876916705
 40
0.704372460813671
100
AcDbArc
 50
203.852980631667
 51
359.250071636948
  0
ARC
  5
258
100
AcDbEntity
  8
0
100
AcDbCircle
  6
BYLAYER
 10
9.63645946311512
 20
15.8021265779447
 40
0.704372460813671
100
AcDbArc
 50
263.852980631667
 51
59.2500716369476
  0
ARC
  5
259
100
AcDbEntity
  8
0
100
AcDbCircle
  6
BYLAYER
 10
5.4252294212235
 20
17.1818752606574
 40
0.704372460813671
100
AcDbArc
 50
233.852980631667
 51
29.2500716369476
  0
ARC
  5
25A
100
AcDbEntity
  8
0
100
AcDbCircle
  6
BYLAYER
 10
1.55735395424306
 20
24.8192942304852
 40
0.704372460813671
100
AcDbArc
 50
173.852980631667
 51
329.250071636948
  0
ARC
  5
25B
100
AcDbEntity
  8
0
100
AcDbCircle
  6
BYLAYER
 10
2.93710263695578
 20
29.0305242723768
 40
0.704372460813671
100
AcDbArc
 50
143.852980631667
 51
299.250071636948
  0
TEXT
  5
25C
100
AcDbEntity
  8
0
100
AcDbText
  6
BYLAYER
 10
7.49210581170385
 20
21.8477388856442
 40
5
  1
Y
  7
Font_0
100
AcDbText
  0
TEXT
  5
25D
100
AcDbEntity
  8
0
100
AcDbText
  6
BYLAYER
 10
42.3478047909238
 20
7.2
 40
2.8
  1
~8
  7
Font_0
100
AcDbText
  0
TEXT
  5
25E
100
AcDbEntity
  8
0
100
AcDbText
  6
BYLAYER
 10
13.8764304985659
 20
7.2
 40
2.8
  1
(04)3322627
  7
Font_0
100
AcDbText
  0
TEXT
  5
25F
100
AcDbEntity
  8
0
100
AcDbText
  6
BYLAYER
 10
51
 20
7.2
 40
3
  1
FAX
  7
Font_0
100
AcDbText
  0
LINE
  5
260
100
AcDbEntity
  8
0
100
AcDbLine
  6
BYLAYER
 10
48
 20
12
 11
48
 21
6
  0
LINE
  5
261
100
AcDbEntity
  8
0
100
AcDbLine
  6
BYLAYER
 10
62
 20
12
 11
62
 21
6
  0
ARC
  5
262
100
AcDbEntity
  8
0
100
AcDbCircle
  6
BYLAYER
 10
14.7857516486752
 20
31.5186510566446
 40
0.704372460813671
100
AcDbArc
 50
53.8529806316668
 51
209.250071636948
  0
ARC
  5
263
100
AcDbEntity
  8
0
100
AcDbCircle
  6
BYLAYER
 10
17.273878432943
 20
19.6700020449251
 40
0.704372460813671
100
AcDbArc
 50
323.852980631667
 51
119.250071636948
  0
ARC
  5
264
100
AcDbEntity
  8
0
100
AcDbCircle
  6
BYLAYER
 10
13.9733660019298
 20
16.7128441888231
 40
0.704372460813671
100
AcDbArc
 50
293.852980631667
 51
89.2500716369476
  0
LINE
  5
265
100
AcDbEntity
  8
0
100
AcDbLine
  6
BYLAYER
 10
14.515578442964
 20
24.350263158651
 11
15.4411524483498
 21
24.350263158651
  0
ARC
  5
266
100
AcDbEntity
  8
0
100
AcDbCircle
  6
BYLAYER
 10
18.6536271156557
 20
23.8812320868167
 40
0.704372460813671
100
AcDbArc
 50
353.852980631667
 51
149.250071636948
  0
ARC
  5
267
100
AcDbEntity
  8
0
100
AcDbCircle
  6
BYLAYER
 10
17.7429095047772
 20
28.2181386256314
 40
0.704372460813671
100
AcDbArc
 50
23.8529806316668
 51
179.250071636948
  0
TEXT
  5
268
100
AcDbEntity
  8
0
100
AcDbText
  6
BYLAYER
 10
100.4
 20
7.4
 40
3
  1
ｫ~ ｦW
  7
Font_0
100
AcDbText
  0
LINE
  5
269
100
AcDbEntity
  8
0
100
AcDbLine
  6
BYLAYER
 10
144
 20
36
 11
144
 21
0
  0
LINE
  5
26A
100
AcDbEntity
  8
0
100
AcDbLine
  6
BYLAYER
 10
114
 20
36
 11
114
 21
0
  0
LINE
  5
26B
100
AcDbEntity
  8
0
100
AcDbLine
  6
BYLAYER
 10
97.15
 20
36
 11
97.15
 21
0
  0
LINE
  5
26C
100
AcDbEntity
  8
0
100
AcDbLine
  6
BYLAYER
 10
96.85
 20
36
 11
96.85
 21
0
  0
TEXT
  5
26D
100
AcDbEntity
  8
0
100
AcDbText
  6
BYLAYER
 10
100.4
 20
1.6
 40
3
  1
ｹﾏ ｸｹ
  7
Font_0
100
AcDbText
  0
TEXT
  5
26E
100
AcDbEntity
  8
0
100
AcDbText
  6
BYLAYER
 10
100.4
 20
31.6
 40
3
  1
･D ｺﾞ
  7
Font_0
100
AcDbText
  0
TEXT
  5
26F
100
AcDbEntity
  8
0
100
AcDbText
  6
BYLAYER
 10
100.4
 20
19.6
 40
3
  1
ﾃｸ ｹﾏ
  7
Font_0
100
AcDbText
  0
TEXT
  5
270
100
AcDbEntity
  8
0
100
AcDbText
  6
BYLAYER
 10
100.4
 20
13.8
 40
3
  1
ｾ� ｺﾘ
  7
Font_0
100
AcDbText
  0
TEXT
  5
271
100
AcDbEntity
  8
0
100
AcDbText
  6
BYLAYER
 10
100.4
 20
25.4
 40
3
  1
ｮﾖ ｹ�
  7
Font_0
100
AcDbText
  0
LINE
  5
272
100
AcDbEntity
  8
0
100
AcDbLine
  6
BYLAYER
 10
195.15
 20
36
 11
195.15
 21
0
  0
LINE
  5
273
100
AcDbEntity
  8
0
100
AcDbLine
  6
BYLAYER
 10
194.85
 20
36
 11
194.85
 21
0
  0
LINE
  5
274
100
AcDbEntity
  8
0
100
AcDbLine
  6
BYLAYER
 10
195.025
 20
36
 11
195.025
 21
0
  0
LINE
  5
275
100
AcDbEntity
  8
0
100
AcDbLine
  6
BYLAYER
 10
163
 20
36
 11
163
 21
0
  0
TEXT
  5
276
100
AcDbEntity
  8
0
100
AcDbText
  6
BYLAYER
 10
146.967830348543
 20
7.5
 40
3
  1
ｪ揵ｱｳBｲz
  7
Font_0
100
AcDbText
  0
TEXT
  5
277
100
AcDbEntity
  8
0
100
AcDbText
  6
BYLAYER
 10
146.967830348543
 20
1.5
 40
3
  1
ｻsｹﾏ､魘ﾁ
  7
Font_0
100
AcDbText
  0
TEXT
  5
278
100
AcDbEntity
  8
0
100
AcDbText
  6
BYLAYER
 10
148.5
 20
31.5
 40
3
  1
ｧ� ｽ�
  7
Font_0
100
AcDbText
  0
TEXT
  5
279
100
AcDbEntity
  8
0
100
AcDbText
  6
BYLAYER
 10
148.5
 20
19.5
 40
3
  1
ｼﾆ ｶq
  7
Font_0
100
AcDbText
  0
TEXT
  5
27A
100
AcDbEntity
  8
0
100
AcDbText
  6
BYLAYER
 10
148.5
 20
13.5
 40
3
  1
ｳ� ｦ�
  7
Font_0
100
AcDbText
  0
TEXT
  5
27B
100
AcDbEntity
  8
0
100
AcDbText
  6
BYLAYER
 10
148.5
 20
25.5
 40
3
  1
､� ｨﾒ
  7
Font_0
100
AcDbText
  0
TEXT
  5
27C
100
AcDbEntity
  8
0
100
AcDbText
  6
BYLAYER
 10
200.830454348633
 20
31.5
 40
3
  1
､魘ﾁ
  7
Font_0
100
AcDbText
  0
LINE
  5
27D
100
AcDbEntity
  8
0
100
AcDbLine
  6
BYLAYER
 10
278.4
 20
186
 11
278.4
 21
0
  0
LINE
  5
27E
100
AcDbEntity
  8
0
100
AcDbLine
  6
BYLAYER
 10
269.7178125
 20
135.285
 11
269.7178125
 21
151.27125
  0
LINE
  5
27F
100
AcDbEntity
  8
0
100
AcDbLine
  6
BYLAYER
 10
261.035625
 20
135.285
 11
261.035625
 21
151.27125
  0
LINE
  5
280
100
AcDbEntity
  8
0
100
AcDbLine
  6
BYLAYER
 10
252.3534375
 20
135.285
 11
252.3534375
 21
151.27125
  0
LINE
  5
281
100
AcDbEntity
  8
0
100
AcDbLine
  6
BYLAYER
 10
243.67125
 20
135.285
 11
243.67125
 21
180.4875
  0
LINE
  5
282
100
AcDbEntity
  8
0
100
AcDbLine
  6
BYLAYER
 10
221.07
 20
135.285
 11
221.07
 21
180.4875
  0
LINE
  5
283
100
AcDbEntity
  8
0
100
AcDbLine
  6
BYLAYER
 10
216.66
 20
135.285
 11
216.66
 21
186
  0
LINE
  5
284
100
AcDbEntity
  8
0
100
AcDbLine
  6
BYLAYER
 10
213
 20
36
 11
213
 21
0
  0
LINE
  5
285
100
AcDbEntity
  8
0
100
AcDbLine
  6
BYLAYER
 10
232
 20
36
 11
232
 21
0
  0
TEXT
  5
286
100
AcDbEntity
  8
0
100
AcDbText
  6
BYLAYER
 10
235
 20
31.5
 40
3
  1
ｧ�   ｧ�   ､ｺ   ｮe
  7
Font_0
100
AcDbText
  0
TEXT
  5
287
100
AcDbEntity
  8
0
100
AcDbText
  6
BYLAYER
 10
218.659856969007
 20
31.5
 40
3
  1
ｭtｳd､H
  7
Font_0
100
AcDbText
  0
LINE
  5
288
100
AcDbEntity
  8
0
100
AcDbLine
  6
BYLAYER
 10
278.4
 20
139.695
 11
221.07
 21
139.695
  0
LINE
  5
289
100
AcDbEntity
  8
0
100
AcDbLine
  6
BYLAYER
 10
278.4
 20
135.285
 11
216.66
 21
135.285
  0
TEXT
  5
28A
100
AcDbEntity
  8
0
100
AcDbText
  6
BYLAYER
 10
246.15416478566
 20
128.207003496756
 40
2
  1
projection ｲﾄ､Tｨ､ｧ�ｼv
  7
Font_0
100
AcDbText
  0
LINE
  5
28B
100
AcDbEntity
  8
0
100
AcDbLine
  6
BYLAYER
 10
278.4
 20
113.78625
 11
243.67125
 21
113.78625
  0
TEXT
  5
28C
100
AcDbEntity
  8
0
100
AcDbText
  6
BYLAYER
 10
271.4339125
 20
144.733125
 40
1.5
  1
100･H､W
  7
Font_0
 72
1
 11
274.0589125
 21
145.483125
100
AcDbText
 73
2
  0
TEXT
  5
28D
100
AcDbEntity
  8
0
100
AcDbText
  6
BYLAYER
 10
272.1839125
 20
136.74
 40
1.5
  1
±10'
  7
Font_0
 72
1
 11
274.0589125
 21
137.49
100
AcDbText
 73
2
  0
MTEXT
  5
28E
100
AcDbEntity
  8
0
100
AcDbMText
 10
232.37065
 20
145.483125
 40
2
 41
  0.0
  1
､ｽｺﾙ､ﾘ､o (ｪﾗ)\Pｧｨｦｨｨ､､ｧｵuﾃ荀@､�
 71
5
  7
Font_0
  0
TEXT
  5
28F
100
AcDbEntity
  8
0
100
AcDbText
  6
BYLAYER
 10
217.365
 20
147.778125
 40
3
  1
ｪｽｨ､ｫﾗ
  7
Font_1
 50
270
 11
218.865
 21
147.778125
100
AcDbText
 73
2
  0
TEXT
  5
290
100
AcDbEntity
  8
0
100
AcDbText
  6
BYLAYER
 10
227.87065
 20
135.99
 40
3
  1
ｨ､ｫﾗｮt
  7
Font_0
 72
1
 11
232.37065
 21
137.49
100
AcDbText
 73
2
  0
LINE
  5
291
100
AcDbEntity
  8
0
100
AcDbLine
  6
BYLAYER
 10
254.802068029839
 20
115.173423624616
 11
254.802068029839
 21
126.198423624616
  0
LINE
  5
292
100
AcDbEntity
  8
0
100
AcDbLine
  6
BYLAYER
 10
243.67125
 20
113.78625
 11
243.67125
 21
135.285
  0
CIRCLE
  5
293
100
AcDbEntity
  8
0
100
AcDbCircle
  6
BYLAYER
 10
254.802068029839
 20
120.685923624616
 40
4.41
  0
LINE
  5
294
100
AcDbEntity
  8
0
100
AcDbLine
  6
BYLAYER
 10
249.289568029839
 20
120.685923624616
 11
260.314568029839
 21
120.685923624616
  0
CIRCLE
  5
295
100
AcDbEntity
  8
0
100
AcDbCircle
  6
BYLAYER
 10
254.802068029839
 20
120.685923624616
 40
2.205
  0
LINE
  5
296
100
AcDbEntity
  8
0
100
AcDbLine
  6
BYLAYER
 10
263.194180551461
 20
120.685923624616
 11
274.770430551461
 21
120.685923624616
  0
LWPOLYLINE
  5
297
100
AcDbEntity
  8
0
100
AcDbPolyline
  6
BYLAYER
370
0
 90
     4
 70
     1
 10
264.296680551461
  20
118.480923624616
 10
273.667930551461
  20
116.275923624616
 10
273.667930551461
  20
125.095923624616
 10
264.296680551461
  20
122.890923624616
  0
TEXT
  5
298
100
AcDbEntity
  8
0
100
AcDbText
  6
BYLAYER
 10
245.828721587618
 20
131.605971951227
 40
2
  1
Third angle
  7
Font_0
100
AcDbText
  0
MTEXT
  5
299
100
AcDbEntity
  8
0
100
AcDbMText
 10
256.6945375
 20
145.483125
 40
1.5
 41
  0.0
  1
10･H､W\P50･H､U
 71
5
  7
Font_0
  0
TEXT
  5
29A
100
AcDbEntity
  8
0
100
AcDbText
  6
BYLAYER
 10
246.13735
 20
136.74
 40
1.5
  1
±1°
  7
Font_0
 72
1
 11
248.01235
 21
137.49
100
AcDbText
 73
2
  0
TEXT
  5
29B
100
AcDbEntity
  8
0
100
AcDbText
  6
BYLAYER
 10
254.8195375
 20
136.74
 40
1.5
  1
±30'
  7
Font_0
 72
1
 11
256.6945375
 21
137.49
100
AcDbText
 73
2
  0
TEXT
  5
29C
100
AcDbEntity
  8
0
100
AcDbText
  6
BYLAYER
 10
245.76235
 20
144.733125
 40
1.5
  1
10･H､U
  7
Font_0
 72
1
 11
248.01235
 21
145.483125
100
AcDbText
 73
2
  0
TEXT
  5
29D
100
AcDbEntity
  8
0
100
AcDbText
  6
BYLAYER
 10
263.501725
 20
136.74
 40
1.5
  1
±20'
  7
Font_0
 72
1
 11
265.376725
 21
137.49
100
AcDbText
 73
2
  0
MTEXT
  5
29E
100
AcDbEntity
  8
0
100
AcDbMText
 10
265.376725
 20
145.483125
 40
1.5
 41
  0.0
  1
50･H､W\P100･H､U
 71
5
  7
Font_0
  0
LINE
  5
29F
100
AcDbEntity
  8
0
100
AcDbLine
  6
BYLAYER
 10
221.07
 20
155.68125
 11
278.4
 21
155.68125
  0
LINE
  5
2A0
100
AcDbEntity
  8
0
100
AcDbLine
  6
BYLAYER
 10
221.07
 20
160.09125
 11
278.4
 21
160.09125
  0
LINE
  5
2A1
100
AcDbEntity
  8
0
100
AcDbLine
  6
BYLAYER
 10
221.07
 20
164.50125
 11
278.4
 21
164.50125
  0
LINE
  5
2A2
100
AcDbEntity
  8
0
100
AcDbLine
  6
BYLAYER
 10
221.07
 20
168.91125
 11
278.4
 21
168.91125
  0
LINE
  5
2A3
100
AcDbEntity
  8
0
100
AcDbLine
  6
BYLAYER
 10
221.07
 20
173.32125
 11
278.4
 21
173.32125
  0
LINE
  5
2A4
100
AcDbEntity
  8
0
100
AcDbLine
  6
BYLAYER
 10
216.66
 20
151.27125
 11
278.4
 21
151.27125
  0
LINE
  5
2A5
100
AcDbEntity
  8
0
100
AcDbLine
  6
BYLAYER
 10
216.66
 20
180.4875
 11
278.4
 21
180.4875
  0
TEXT
  5
2A6
100
AcDbEntity
  8
0
100
AcDbText
  6
BYLAYER
 10
269.1119
 20
175.154375
 40
3.5
  1
ｲﾊｯﾅ
  7
Font_0
 72
1
 11
272.6119
 21
176.904375
100
AcDbText
 73
2
  0
LINE
  5
2A7
100
AcDbEntity
  8
0
100
AcDbLine
  6
BYLAYER
 10
243.67125
 20
173.32125
 11
232.06971689676
 21
180.4875
  0
TEXT
  5
2A8
100
AcDbEntity
  8
0
100
AcDbText
  6
BYLAYER
 10
230.03
 20
181.49375
 40
3.5
  1
ｦｨ ｫ~ ､ｧ ｴｶ ｳq ､ｽ ｮt
  7
Font_0
 72
1
 11
247.53
 21
183.24375
100
AcDbText
 73
2
  0
TEXT
  5
2A9
100
AcDbEntity
  8
0
100
AcDbText
  6
BYLAYER
 10
228.24565
 20
170.36625
 40
1.5
  1
1･H､W~4･H､U
  7
Font_0
 72
1
 11
232.37065
 21
171.11625
100
AcDbText
 73
2
  0
TEXT
  5
2AA
100
AcDbEntity
  8
0
100
AcDbText
  6
BYLAYER
 10
227.49565
 20
161.54625
 40
1.5
  1
16･H､W~63･H､U
  7
Font_0
 72
1
 11
232.37065
 21
162.29625
100
AcDbText
 73
2
  0
TEXT
  5
2AB
100
AcDbEntity
  8
0
100
AcDbText
  6
BYLAYER
 10
227.12065
 20
157.13625
 40
1.5
  1
63･H､W~250･H､U
  7
Font_0
 72
1
 11
232.37065
 21
157.88625
100
AcDbText
 73
2
  0
TEXT
  5
2AC
100
AcDbEntity
  8
0
100
AcDbText
  6
BYLAYER
 10
226.37065
 20
152.72625
 40
1.5
  1
250･H､W~1000･H､U
  7
Font_0
 72
1
 11
232.37065
 21
153.47625
100
AcDbText
 73
2
  0
MTEXT
  5
2AD
100
AcDbEntity
  8
0
100
AcDbMText
 10
218.865
 20
168.879375
 40
3
 41
  0.0
  1
ｪﾗ
 71
4
  7
Font_1
 11
-1.83690953073357E-16
 21
-1
  0
TEXT
  5
2AE
100
AcDbEntity
  8
0
100
AcDbText
  6
BYLAYER
 10
227.87065
 20
165.95625
 40
1.5
  1
4･H､W~16･H､U
  7
Font_0
 72
1
 11
232.37065
 21
166.70625
100
AcDbText
 73
2
  0
TEXT
  5
2AF
100
AcDbEntity
  8
0
100
AcDbText
  6
BYLAYER
 10
221.354797302298
 20
174.015263609177
 40
1.7
  1
､ｽｺﾙ､ﾘ､oｹｺ､ﾀm/m
  7
Font_0
100
AcDbText
  0
TEXT
  5
2B0
100
AcDbEntity
  8
0
100
AcDbText
  6
BYLAYER
 10
237.865638127741
 20
177.454836298923
 40
1.7
  1
ｵ･ｯﾅ
  7
Font_0
100
AcDbText
  0
LINE
  5
2B1
100
AcDbEntity
  8
0
100
AcDbLine
  6
BYLAYER
 10
266.82375
 20
151.27125
 11
266.82375
 21
180.4875
  0
LINE
  5
2B2
100
AcDbEntity
  8
0
100
AcDbLine
  6
BYLAYER
 10
255.2475
 20
151.27125
 11
255.2475
 21
180.4875
  0
TEXT
  5
2B3
100
AcDbEntity
  8
0
100
AcDbText
  6
BYLAYER
 10
247.2094
 20
170.36625
 40
1.5
  1
±0.05
  7
Font_0
 72
1
 11
249.4594
 21
171.11625
100
AcDbText
 73
2
  0
TEXT
  5
2B4
100
AcDbEntity
  8
0
100
AcDbText
  6
BYLAYER
 10
258.78565
 20
170.36625
 40
1.5
  1
±0.10
  7
Font_0
 72
1
 11
261.03565
 21
171.11625
100
AcDbText
 73
2
  0
TEXT
  5
2B5
100
AcDbEntity
  8
0
100
AcDbText
  6
BYLAYER
 10
270.3619
 20
170.36625
 40
1.5
  1
±0.30
  7
Font_0
 72
1
 11
272.6119
 21
171.11625
100
AcDbText
 73
2
  0
TEXT
  5
2B6
100
AcDbEntity
  8
0
100
AcDbText
  6
BYLAYER
 10
258.78565
 20
165.95625
 40
1.5
  1
±0.20
  7
Font_0
 72
1
 11
261.03565
 21
166.70625
100
AcDbText
 73
2
  0
TEXT
  5
2B7
100
AcDbEntity
  8
0
100
AcDbText
  6
BYLAYER
 10
258.78565
 20
161.54625
 40
1.5
  1
±0.30
  7
Font_0
 72
1
 11
261.03565
 21
162.29625
100
AcDbText
 73
2
  0
TEXT
  5
2B8
100
AcDbEntity
  8
0
100
AcDbText
  6
BYLAYER
 10
258.78565
 20
157.13625
 40
1.5
  1
±0.50
  7
Font_0
 72
1
 11
261.03565
 21
157.88625
100
AcDbText
 73
2
  0
TEXT
  5
2B9
100
AcDbEntity
  8
0
100
AcDbText
  6
BYLAYER
 10
258.78565
 20
152.72625
 40
1.5
  1
±0.80
  7
Font_0
 72
1
 11
261.03565
 21
153.47625
100
AcDbText
 73
2
  0
TEXT
  5
2BA
100
AcDbEntity
  8
0
100
AcDbText
  6
BYLAYER
 10
247.2094
 20
157.13625
 40
1.5
  1
±0.20
  7
Font_0
 72
1
 11
249.4594
 21
157.88625
100
AcDbText
 73
2
  0
TEXT
  5
2BB
100
AcDbEntity
  8
0
100
AcDbText
  6
BYLAYER
 10
247.2094
 20
152.72625
 40
1.5
  1
±0.30
  7
Font_0
 72
1
 11
249.4594
 21
153.47625
100
AcDbText
 73
2
  0
TEXT
  5
2BC
100
AcDbEntity
  8
0
100
AcDbText
  6
BYLAYER
 10
247.2094
 20
165.95625
 40
1.5
  1
±0.07
  7
Font_0
 72
1
 11
249.4594
 21
166.70625
100
AcDbText
 73
2
  0
TEXT
  5
2BD
100
AcDbEntity
  8
0
100
AcDbText
  6
BYLAYER
 10
247.2094
 20
161.54625
 40
1.5
  1
±0.10
  7
Font_0
 72
1
 11
249.4594
 21
162.29625
100
AcDbText
 73
2
  0
TEXT
  5
2BE
100
AcDbEntity
  8
0
100
AcDbText
  6
BYLAYER
 10
270.3619
 20
152.72625
 40
1.5
  1
±2.00
  7
Font_0
 72
1
 11
272.6119
 21
153.47625
100
AcDbText
 73
2
  0
TEXT
  5
2BF
100
AcDbEntity
  8
0
100
AcDbText
  6
BYLAYER
 10
270.3619
 20
157.13625
 40
1.5
  1
±1.20
  7
Font_0
 72
1
 11
272.6119
 21
157.88625
100
AcDbText
 73
2
  0
TEXT
  5
2C0
100
AcDbEntity
  8
0
100
AcDbText
  6
BYLAYER
 10
270.3619
 20
161.54625
 40
1.5
  1
±0.70
  7
Font_0
 72
1
 11
272.6119
 21
162.29625
100
AcDbText
 73
2
  0
TEXT
  5
2C1
100
AcDbEntity
  8
0
100
AcDbText
  6
BYLAYER
 10
270.3619
 20
165.95625
 40
1.5
  1
±0.50
  7
Font_0
 72
1
 11
272.6119
 21
166.70625
100
AcDbText
 73
2
  0
TEXT
  5
2C2
100
AcDbEntity
  8
0
100
AcDbText
  6
BYLAYER
 10
257.5356
 20
175.154375
 40
3.5
  1
､､ｯﾅ
  7
Font_0
 72
1
 11
261.0356
 21
176.904375
100
AcDbText
 73
2
  0
TEXT
  5
2C3
100
AcDbEntity
  8
0
100
AcDbText
  6
BYLAYER
 10
245.9594
 20
175.154375
 40
3.5
  1
ｲﾓｯﾅ
  7
Font_0
 72
1
 11
249.4594
 21
176.904375
100
AcDbText
 73
2
  0
ENDBLK
  5
2C4
100
AcDbEntity
  8
0
 67
     1
100
AcDbBlockEnd
  0
BLOCK
  5
2C5
100
AcDbEntity
  8
0
100
AcDbBlockBegin
  2
LIST
 70
    0
 10
0
 20
0
 30
0.0
  3
LIST
  1

  0
LINE
  5
2C6
100
AcDbEntity
  8
TEXT
100
AcDbLine
  6
BYLAYER
 10
-2.84E-14
 20
48
 11
83.2499999999999
 21
48
  0
LINE
  5
2C7
100
AcDbEntity
  8
TEXT
100
AcDbLine
  6
BYLAYER
 10
-2.84E-14
 20
42
 11
83.2499999999999
 21
42
  0
LINE
  5
2C8
100
AcDbEntity
  8
TEXT
100
AcDbLine
  6
BYLAYER
 10
-2.84E-14
 20
36
 11
83.2499999999999
 21
36
  0
LINE
  5
2C9
100
AcDbEntity
  8
TEXT
100
AcDbLine
  6
BYLAYER
 10
-2.84E-14
 20
30
 11
83.2499999999999
 21
30
  0
LINE
  5
2CA
100
AcDbEntity
  8
TEXT
100
AcDbLine
  6
BYLAYER
 10
-2.84E-14
 20
24
 11
83.2499999999999
 21
24
  0
LINE
  5
2CB
100
AcDbEntity
  8
TEXT
100
AcDbLine
  6
BYLAYER
 10
-2.84E-14
 20
18
 11
83.2499999999999
 21
18
  0
LINE
  5
2CC
100
AcDbEntity
  8
TEXT
100
AcDbLine
  6
BYLAYER
 10
-2.84E-14
 20
12
 11
83.2499999999999
 21
12
  0
LINE
  5
2CD
100
AcDbEntity
  8
TEXT
100
AcDbLine
  6
BYLAYER
 10
-2.84E-14
 20
5.99999999999997
 11
83.2499999999999
 21
6
  0
TEXT
  5
2CE
100
AcDbEntity
  8
TEXT
100
AcDbText
  6
BYLAYER
 10
8.82499999999999
 20
18.7071067811865
 40
3.5
  1
C
  7
Font_0
 72
1
 11
9.69999999999999
 21
18.7071067811865
100
AcDbText
  0
LINE
  5
2CF
100
AcDbEntity
  8
TEXT
100
AcDbLine
  6
BYLAYER
 10
0
 20
48
 11
0
 21
0
  0
TEXT
  5
2D0
100
AcDbEntity
  8
TEXT
100
AcDbText
  6
BYLAYER
 10
8.82499999999999
 20
6.70710678118655
 40
3.5
  1
A
  7
Font_0
 72
1
 11
9.69999999999999
 21
6.70710678118655
100
AcDbText
  0
TEXT
  5
2D1
100
AcDbEntity
  8
TEXT
100
AcDbText
  6
BYLAYER
 10
6.49999999999997
 20
0.707106781186553
 40
3.5
  1
ｶｵｦｸ
  7
Font_0
 72
1
 11
9.99999999999997
 21
0.707106781186553
100
AcDbText
  0
TEXT
  5
2D2
100
AcDbEntity
  8
TEXT
100
AcDbText
  6
BYLAYER
 10
8.82499999999999
 20
12.7071067811866
 40
3.5
  1
B
  7
Font_0
 72
1
 11
9.69999999999999
 21
12.7071067811866
100
AcDbText
  0
TEXT
  5
2D3
100
AcDbEntity
  8
TEXT
100
AcDbText
  6
BYLAYER
 10
8.82499999999999
 20
42.7071067811866
 40
3.5
  1
G
  7
Font_0
 72
1
 11
9.69999999999999
 21
42.7071067811866
100
AcDbText
  0
TEXT
  5
2D4
100
AcDbEntity
  8
TEXT
100
AcDbText
  6
BYLAYER
 10
8.82499999999999
 20
30.7071067811865
 40
3.5
  1
E
  7
Font_0
 72
1
 11
9.69999999999999
 21
30.7071067811865
100
AcDbText
  0
TEXT
  5
2D5
100
AcDbEntity
  8
TEXT
100
AcDbText
  6
BYLAYER
 10
8.82499999999999
 20
24.7071067811866
 40
3.5
  1
D
  7
Font_0
 72
1
 11
9.69999999999999
 21
24.7071067811866
100
AcDbText
  0
TEXT
  5
2D6
100
AcDbEntity
  8
TEXT
100
AcDbText
  6
BYLAYER
 10
8.82499999999999
 20
36.7071067811866
 40
3.5
  1
F
  7
Font_0
 72
1
 11
9.69999999999999
 21
36.7071067811866
100
AcDbText
  0
TEXT
  5
2D7
100
AcDbEntity
  8
TEXT
100
AcDbText
  6
BYLAYER
 10
77.3935238436447
 20
18.7071067811866
 40
3.5
  1
1
  7
Font_0
 72
1
 11
78.2685238436447
 21
18.7071067811866
100
AcDbText
  0
TEXT
  5
2D8
100
AcDbEntity
  8
TEXT
100
AcDbText
  6
BYLAYER
 10
20.7
 20
18.7071067811866
 40
3.5
  1
A
  7
Font_0
100
AcDbText
  0
LINE
  5
2D9
100
AcDbEntity
  8
TEXT
100
AcDbLine
  6
BYLAYER
 10
73.8870476872896
 20
48
 11
73.8870476872896
 21
-1.42E-14
  0
LINE
  5
2DA
100
AcDbEntity
  8
TEXT
100
AcDbLine
  6
BYLAYER
 10
20
 20
48
 11
20
 21
0
  0
TEXT
  5
2DB
100
AcDbEntity
  8
TEXT
100
AcDbText
  6
BYLAYER
 10
75.0685238436447
 20
0.707106781186553
 40
3.5
  1
ｼﾆｶq
  7
Font_0
 72
1
 11
78.5685238436447
 21
0.707106781186553
100
AcDbText
  0
TEXT
  5
2DC
100
AcDbEntity
  8
TEXT
100
AcDbText
  6
BYLAYER
 10
37.4837220734968
 20
0.707106781186553
 40
3.5
  1
ｹﾏ       ｸｹ
  7
Font_0
 72
1
 11
47.1087220734968
 21
0.707106781186553
100
AcDbText
  0
TEXT
  5
2DD
100
AcDbEntity
  8
TEXT
100
AcDbText
  6
BYLAYER
 10
20.7
 20
6.70710678118656
 40
3.5
  1
A
  7
Font_0
100
AcDbText
  0
TEXT
  5
2DE
100
AcDbEntity
  8
TEXT
100
AcDbText
  6
BYLAYER
 10
20.7
 20
12.7071067811866
 40
3.5
  1
A
  7
Font_0
100
AcDbText
  0
TEXT
  5
2DF
100
AcDbEntity
  8
TEXT
100
AcDbText
  6
BYLAYER
 10
77.3935238436447
 20
6.70710678118656
 40
3.5
  1
1
  7
Font_0
 72
1
 11
78.2685238436447
 21
6.70710678118656
100
AcDbText
  0
TEXT
  5
2E0
100
AcDbEntity
  8
TEXT
100
AcDbText
  6
BYLAYER
 10
77.3935238436447
 20
12.7071067811866
 40
3.5
  1
1
  7
Font_0
 72
1
 11
78.2685238436447
 21
12.7071067811866
100
AcDbText
  0
TEXT
  5
2E1
100
AcDbEntity
  8
TEXT
100
AcDbText
  6
BYLAYER
 10
20.7
 20
42.7071067811866
 40
3.5
  1
A
  7
Font_0
100
AcDbText
  0
TEXT
  5
2E2
100
AcDbEntity
  8
TEXT
100
AcDbText
  6
BYLAYER
 10
20.7
 20
30.7071067811865
 40
3.5
  1
A
  7
Font_0
100
AcDbText
  0
TEXT
  5
2E3
100
AcDbEntity
  8
TEXT
100
AcDbText
  6
BYLAYER
 10
20.7
 20
24.7071067811866
 40
3.5
  1
A
  7
Font_0
100
AcDbText
  0
TEXT
  5
2E4
100
AcDbEntity
  8
TEXT
100
AcDbText
  6
BYLAYER
 10
20.7
 20
36.7071067811866
 40
3.5
  1
A
  7
Font_0
100
AcDbText
  0
TEXT
  5
2E5
100
AcDbEntity
  8
TEXT
100
AcDbText
  6
BYLAYER
 10
77.3935238436447
 20
42.7071067811866
 40
3.5
  1
1
  7
Font_0
 72
1
 11
78.2685238436447
 21
42.7071067811866
100
AcDbText
  0
TEXT
  5
2E6
100
AcDbEntity
  8
TEXT
100
AcDbText
  6
BYLAYER
 10
77.3935238436447
 20
30.7071067811865
 40
3.5
  1
1
  7
Font_0
 72
1
 11
78.2685238436447
 21
30.7071067811865
100
AcDbText
  0
TEXT
  5
2E7
100
AcDbEntity
  8
TEXT
100
AcDbText
  6
BYLAYER
 10
77.3935238436447
 20
24.7071067811866
 40
3.5
  1
1
  7
Font_0
 72
1
 11
78.2685238436447
 21
24.7071067811866
100
AcDbText
  0
TEXT
  5
2E8
100
AcDbEntity
  8
TEXT
100
AcDbText
  6
BYLAYER
 10
77.3935238436447
 20
36.7071067811866
 40
3.5
  1
1
  7
Font_0
 72
1
 11
78.2685238436447
 21
36.7071067811866
100
AcDbText
  0
ENDBLK
  5
2E9
100
AcDbEntity
  8
0
 67
     1
100
AcDbBlockEnd
  0
BLOCK
  5
2EA
100
AcDbEntity
  8
0
100
AcDbBlockBegin
  2
A4ｹﾏｮﾘ
 70
    0
 10
0
 20
0
 30
0.0
  3
A4ｹﾏｮﾘ
  1

  0
POINT
  5
2EB
100
AcDbEntity
  8
7475A
100
AcDbPoint
 10
289
 20
0
  0
LINE
  5
2EC
100
AcDbEntity
  8
0
100
AcDbLine
  6
BYLAYER
 10
0
 20
12
 11
278.4
 21
12
  0
LINE
  5
2ED
100
AcDbEntity
  8
0
100
AcDbLine
  6
BYLAYER
 10
0
 20
6
 11
278.4
 21
6
  0
LINE
  5
2EE
100
AcDbEntity
  8
0
100
AcDbLine
  6
BYLAYER
 10
96.85
 20
30
 11
278.4
 21
30
  0
LINE
  5
2EF
100
AcDbEntity
  8
0
100
AcDbLine
  6
BYLAYER
 10
96.85
 20
24
 11
278.4
 21
24
  0
LINE
  5
2F0
100
AcDbEntity
  8
0
100
AcDbLine
  6
BYLAYER
 10
96.85
 20
18
 11
278.4
 21
18
  0
TEXT
  5
2F1
100
AcDbEntity
  8
0
100
AcDbText
  6
BYLAYER
 10
22.1680110084321
 20
15.7553550725962
 40
2.8
  1
CAM YORK INDUSTRIAL CO.,LTD.
  7
Font_0
100
AcDbText
  0
TEXT
  5
2F2
100
AcDbEntity
  8
0
100
AcDbText
  6
BYLAYER
 10
22.0468952754036
 20
26
 40
7
  1
ｫﾘｷﾔ､uｷ~ｪﾑ･ｳｭｭ､ｽ･q
  7
Font_0
100
AcDbText
  0
TEXT
  5
2F3
100
AcDbEntity
  8
0
100
AcDbText
  6
BYLAYER
 10
63.8643398403977
 20
7.09411371042404
 40
2.8
  1
(04)3322629
  7
Font_0
100
AcDbText
  0
LINE
  5
2F4
100
AcDbEntity
  8
0
100
AcDbLine
  6
BYLAYER
 10
10.1054905349494
 20
28.7603510666656
 11
15.2233703294355
 21
28.7603510666656
  0
CIRCLE
  5
2F5
100
AcDbEntity
  8
0
100
AcDbCircle
  6
BYLAYER
 10
10.1054905349494
 20
24.350263158651
 40
9.36463111331499
  0
CIRCLE
  5
2F6
100
AcDbEntity
  8
0
100
AcDbCircle
  6
BYLAYER
 10
10.1054905349494
 20
24.350263158651
 40
7.62237416200057
  0
ARC
  5
2F7
100
AcDbEntity
  8
0
100
AcDbCircle
  6
BYLAYER
 10
10.1054905349494
 20
24.350263158651
 40
4.41008790801462
100
AcDbArc
 50
90
 51
0
  0
LINE
  5
2F8
100
AcDbEntity
  8
0
100
AcDbLine
  6
BYLAYER
 10
13
 20
12
 11
13
 21
0
  0
TEXT
  5
2F9
100
AcDbEntity
  8
0
100
AcDbText
  6
BYLAYER
 10
2.6
 20
7.3
 40
3
  1
TEL
  7
Font_0
100
AcDbText
  0
TEXT
  5
2FA
100
AcDbEntity
  8
0
100
AcDbText
  6
BYLAYER
 10
3.5
 20
1.5
 40
3
  1
ｳﾆｵ�
  7
Font_0
 72
1
 11
6.5
 21
3
100
AcDbText
 73
2
  0
ARC
  5
2FB
100
AcDbEntity
  8
0
100
AcDbCircle
  6
BYLAYER
 10
10.5745216067836
 20
32.8983997393573
 40
0.704372460813671
100
AcDbArc
 50
83.8529806316668
 51
239.250071636948
  0
ARC
  5
2FC
100
AcDbEntity
  8
0
100
AcDbCircle
  6
BYLAYER
 10
6.23761506796892
 20
31.9876821284788
 40
0.704372460813671
100
AcDbArc
 50
113.852980631667
 51
269.250071636948
  0
ARC
  5
2FD
100
AcDbEntity
  8
0
100
AcDbCircle
  6
BYLAYER
 10
2.46807156512152
 20
20.4823876916705
 40
0.704372460813671
100
AcDbArc
 50
203.852980631667
 51
359.250071636948
  0
ARC
  5
2FE
100
AcDbEntity
  8
0
100
AcDbCircle
  6
BYLAYER
 10
9.63645946311512
 20
15.8021265779447
 40
0.704372460813671
100
AcDbArc
 50
263.852980631667
 51
59.2500716369476
  0
ARC
  5
2FF
100
AcDbEntity
  8
0
100
AcDbCircle
  6
BYLAYER
 10
5.4252294212235
 20
17.1818752606574
 40
0.704372460813671
100
AcDbArc
 50
233.852980631667
 51
29.2500716369476
  0
ARC
  5
300
100
AcDbEntity
  8
0
100
AcDbCircle
  6
BYLAYER
 10
1.55735395424306
 20
24.8192942304852
 40
0.704372460813671
100
AcDbArc
 50
173.852980631667
 51
329.250071636948
  0
ARC
  5
301
100
AcDbEntity
  8
0
100
AcDbCircle
  6
BYLAYER
 10
2.93710263695578
 20
29.0305242723768
 40
0.704372460813671
100
AcDbArc
 50
143.852980631667
 51
299.250071636948
  0
TEXT
  5
302
100
AcDbEntity
  8
0
100
AcDbText
  6
BYLAYER
 10
7.49210581170385
 20
21.8477388856442
 40
5
  1
Y
  7
Font_0
100
AcDbText
  0
TEXT
  5
303
100
AcDbEntity
  8
0
100
AcDbText
  6
BYLAYER
 10
42.3478047909238
 20
7.2
 40
2.8
  1
~8
  7
Font_0
100
AcDbText
  0
TEXT
  5
304
100
AcDbEntity
  8
0
100
AcDbText
  6
BYLAYER
 10
13.8764304985659
 20
7.2
 40
2.8
  1
(04)3322627
  7
Font_0
100
AcDbText
  0
TEXT
  5
305
100
AcDbEntity
  8
0
100
AcDbText
  6
BYLAYER
 10
51
 20
7.2
 40
3
  1
FAX
  7
Font_0
100
AcDbText
  0
LINE
  5
306
100
AcDbEntity
  8
0
100
AcDbLine
  6
BYLAYER
 10
48
 20
12
 11
48
 21
6
  0
LINE
  5
307
100
AcDbEntity
  8
0
100
AcDbLine
  6
BYLAYER
 10
62
 20
12
 11
62
 21
6
  0
ARC
  5
308
100
AcDbEntity
  8
0
100
AcDbCircle
  6
BYLAYER
 10
14.7857516486752
 20
31.5186510566446
 40
0.704372460813671
100
AcDbArc
 50
53.8529806316668
 51
209.250071636948
  0
ARC
  5
309
100
AcDbEntity
  8
0
100
AcDbCircle
  6
BYLAYER
 10
17.273878432943
 20
19.6700020449251
 40
0.704372460813671
100
AcDbArc
 50
323.852980631667
 51
119.250071636948
  0
ARC
  5
30A
100
AcDbEntity
  8
0
100
AcDbCircle
  6
BYLAYER
 10
13.9733660019298
 20
16.7128441888231
 40
0.704372460813671
100
AcDbArc
 50
293.852980631667
 51
89.2500716369476
  0
LINE
  5
30B
100
AcDbEntity
  8
0
100
AcDbLine
  6
BYLAYER
 10
14.515578442964
 20
24.350263158651
 11
15.4411524483498
 21
24.350263158651
  0
ARC
  5
30C
100
AcDbEntity
  8
0
100
AcDbCircle
  6
BYLAYER
 10
18.6536271156557
 20
23.8812320868167
 40
0.704372460813671
100
AcDbArc
 50
353.852980631667
 51
149.250071636948
  0
ARC
  5
30D
100
AcDbEntity
  8
0
100
AcDbCircle
  6
BYLAYER
 10
17.7429095047772
 20
28.2181386256314
 40
0.704372460813671
100
AcDbArc
 50
23.8529806316668
 51
179.250071636948
  0
TEXT
  5
30E
100
AcDbEntity
  8
0
100
AcDbText
  6
BYLAYER
 10
100.4
 20
7.4
 40
3
  1
ｫ~ ｦW
  7
Font_0
100
AcDbText
  0
LINE
  5
30F
100
AcDbEntity
  8
0
100
AcDbLine
  6
BYLAYER
 10
144
 20
36
 11
144
 21
0
  0
LINE
  5
310
100
AcDbEntity
  8
0
100
AcDbLine
  6
BYLAYER
 10
114
 20
36
 11
114
 21
0
  0
TEXT
  5
311
100
AcDbEntity
  8
0
100
AcDbText
  6
BYLAYER
 10
100.4
 20
1.6
 40
3
  1
ｹﾏ ｸｹ
  7
Font_0
100
AcDbText
  0
TEXT
  5
312
100
AcDbEntity
  8
0
100
AcDbText
  6
BYLAYER
 10
100.4
 20
31.6
 40
3
  1
･D ｺﾞ
  7
Font_0
100
AcDbText
  0
TEXT
  5
313
100
AcDbEntity
  8
0
100
AcDbText
  6
BYLAYER
 10
100.4
 20
19.6
 40
3
  1
ﾃｸ ｹﾏ
  7
Font_0
100
AcDbText
  0
TEXT
  5
314
100
AcDbEntity
  8
0
100
AcDbText
  6
BYLAYER
 10
100.4
 20
13.8
 40
3
  1
ｾ� ｺﾘ
  7
Font_0
100
AcDbText
  0
TEXT
  5
315
100
AcDbEntity
  8
0
100
AcDbText
  6
BYLAYER
 10
100.4
 20
25.4
 40
3
  1
ｮﾖ ｹ�
  7
Font_0
100
AcDbText
  0
LINE
  5
316
100
AcDbEntity
  8
0
100
AcDbLine
  6
BYLAYER
 10
163
 20
36
 11
163
 21
0
  0
TEXT
  5
317
100
AcDbEntity
  8
0
100
AcDbText
  6
BYLAYER
 10
146.967830348543
 20
7.5
 40
3
  1
ｪ揵ｱｳBｲz
  7
Font_0
100
AcDbText
  0
TEXT
  5
318
100
AcDbEntity
  8
0
100
AcDbText
  6
BYLAYER
 10
146.967830348543
 20
1.5
 40
3
  1
ｻsｹﾏ､魘ﾁ
  7
Font_0
100
AcDbText
  0
TEXT
  5
319
100
AcDbEntity
  8
0
100
AcDbText
  6
BYLAYER
 10
148.5
 20
31.5
 40
3
  1
ｧ� ｽ�
  7
Font_0
100
AcDbText
  0
TEXT
  5
31A
100
AcDbEntity
  8
0
100
AcDbText
  6
BYLAYER
 10
148.5
 20
19.5
 40
3
  1
ｼﾆ ｶq
  7
Font_0
100
AcDbText
  0
TEXT
  5
31B
100
AcDbEntity
  8
0
100
AcDbText
  6
BYLAYER
 10
148.5
 20
13.5
 40
3
  1
ｳ� ｦ�
  7
Font_0
100
AcDbText
  0
TEXT
  5
31C
100
AcDbEntity
  8
0
100
AcDbText
  6
BYLAYER
 10
148.5
 20
25.5
 40
3
  1
､� ｨﾒ
  7
Font_0
100
AcDbText
  0
TEXT
  5
31D
100
AcDbEntity
  8
0
100
AcDbText
  6
BYLAYER
 10
200.830454348633
 20
31.5
 40
3
  1
､魘ﾁ
  7
Font_0
100
AcDbText
  0
LINE
  5
31E
100
AcDbEntity
  8
0
100
AcDbLine
  6
BYLAYER
 10
269.7178125
 20
135.285
 11
269.7178125
 21
151.27125
  0
LINE
  5
31F
100
AcDbEntity
  8
0
100
AcDbLine
  6
BYLAYER
 10
261.035625
 20
135.285
 11
261.035625
 21
151.27125
  0
LINE
  5
320
100
AcDbEntity
  8
0
100
AcDbLine
  6
BYLAYER
 10
252.3534375
 20
135.285
 11
252.3534375
 21
151.27125
  0
LINE
  5
321
100
AcDbEntity
  8
0
100
AcDbLine
  6
BYLAYER
 10
243.67125
 20
135.285
 11
243.67125
 21
180.4875
  0
LINE
  5
322
100
AcDbEntity
  8
0
100
AcDbLine
  6
BYLAYER
 10
221.07
 20
135.285
 11
221.07
 21
180.4875
  0
LINE
  5
323
100
AcDbEntity
  8
0
100
AcDbLine
  6
BYLAYER
 10
216.66
 20
135.285
 11
216.66
 21
186
  0
LINE
  5
324
100
AcDbEntity
  8
0
100
AcDbLine
  6
BYLAYER
 10
213
 20
36
 11
213
 21
0
  0
LINE
  5
325
100
AcDbEntity
  8
0
100
AcDbLine
  6
BYLAYER
 10
232
 20
36
 11
232
 21
0
  0
TEXT
  5
326
100
AcDbEntity
  8
0
100
AcDbText
  6
BYLAYER
 10
235
 20
31.5
 40
3
  1
ｧ�   ｧ�   ､ｺ   ｮe
  7
Font_0
100
AcDbText
  0
TEXT
  5
327
100
AcDbEntity
  8
0
100
AcDbText
  6
BYLAYER
 10
218.659856969007
 20
31.5
 40
3
  1
ｭtｳd､H
  7
Font_0
100
AcDbText
  0
LINE
  5
328
100
AcDbEntity
  8
0
100
AcDbLine
  6
BYLAYER
 10
278.4
 20
139.695
 11
221.07
 21
139.695
  0
LINE
  5
329
100
AcDbEntity
  8
0
100
AcDbLine
  6
BYLAYER
 10
278.4
 20
135.285
 11
216.66
 21
135.285
  0
TEXT
  5
32A
100
AcDbEntity
  8
0
100
AcDbText
  6
BYLAYER
 10
246.15416478566
 20
128.207003496756
 40
2
  1
projection ｲﾄ､Tｨ､ｧ�ｼv
  7
Font_0
100
AcDbText
  0
LINE
  5
32B
100
AcDbEntity
  8
0
100
AcDbLine
  6
BYLAYER
 10
278.4
 20
113.78625
 11
243.67125
 21
113.78625
  0
TEXT
  5
32C
100
AcDbEntity
  8
0
100
AcDbText
  6
BYLAYER
 10
271.4339125
 20
144.733125
 40
1.5
  1
100･H､W
  7
Font_0
 72
1
 11
274.0589125
 21
145.483125
100
AcDbText
 73
2
  0
TEXT
  5
32D
100
AcDbEntity
  8
0
100
AcDbText
  6
BYLAYER
 10
272.1839125
 20
136.74
 40
1.5
  1
±10'
  7
Font_0
 72
1
 11
274.0589125
 21
137.49
100
AcDbText
 73
2
  0
MTEXT
  5
32E
100
AcDbEntity
  8
0
100
AcDbMText
 10
232.37065
 20
145.483125
 40
2
 41
  0.0
  1
､ｽｺﾙ､ﾘ､o (ｪﾗ)\Pｧｨｦｨｨ､､ｧｵuﾃ荀@､�
 71
5
  7
Font_0
  0
TEXT
  5
32F
100
AcDbEntity
  8
0
100
AcDbText
  6
BYLAYER
 10
217.365
 20
147.778125
 40
3
  1
ｪｽｨ､ｫﾗ
  7
Font_1
 50
270
 11
218.865
 21
147.778125
100
AcDbText
 73
2
  0
TEXT
  5
330
100
AcDbEntity
  8
0
100
AcDbText
  6
BYLAYER
 10
227.87065
 20
135.99
 40
3
  1
ｨ､ｫﾗｮt
  7
Font_0
 72
1
 11
232.37065
 21
137.49
100
AcDbText
 73
2
  0
LINE
  5
331
100
AcDbEntity
  8
0
100
AcDbLine
  6
BYLAYER
 10
254.802068029839
 20
115.173423624616
 11
254.802068029839
 21
126.198423624616
  0
LINE
  5
332
100
AcDbEntity
  8
0
100
AcDbLine
  6
BYLAYER
 10
243.67125
 20
113.78625
 11
243.67125
 21
135.285
  0
CIRCLE
  5
333
100
AcDbEntity
  8
0
100
AcDbCircle
  6
BYLAYER
 10
254.802068029839
 20
120.685923624616
 40
4.41
  0
LINE
  5
334
100
AcDbEntity
  8
0
100
AcDbLine
  6
BYLAYER
 10
249.289568029839
 20
120.685923624616
 11
260.314568029839
 21
120.685923624616
  0
CIRCLE
  5
335
100
AcDbEntity
  8
0
100
AcDbCircle
  6
BYLAYER
 10
254.802068029839
 20
120.685923624616
 40
2.205
  0
LINE
  5
336
100
AcDbEntity
  8
0
100
AcDbLine
  6
BYLAYER
 10
263.194180551461
 20
120.685923624616
 11
274.770430551461
 21
120.685923624616
  0
LWPOLYLINE
  5
337
100
AcDbEntity
  8
0
100
AcDbPolyline
  6
BYLAYER
370
0
 90
     4
 70
     1
 10
264.296680551461
  20
118.480923624616
 10
273.667930551461
  20
116.275923624616
 10
273.667930551461
  20
125.095923624616
 10
264.296680551461
  20
122.890923624616
  0
TEXT
  5
338
100
AcDbEntity
  8
0
100
AcDbText
  6
BYLAYER
 10
245.828721587618
 20
131.605971951227
 40
2
  1
Third angle
  7
Font_0
100
AcDbText
  0
MTEXT
  5
339
100
AcDbEntity
  8
0
100
AcDbMText
 10
256.6945375
 20
145.483125
 40
1.5
 41
  0.0
  1
10･H､W\P50･H､U
 71
5
  7
Font_0
  0
TEXT
  5
33A
100
AcDbEntity
  8
0
100
AcDbText
  6
BYLAYER
 10
246.13735
 20
136.74
 40
1.5
  1
±1°
  7
Font_0
 72
1
 11
248.01235
 21
137.49
100
AcDbText
 73
2
  0
TEXT
  5
33B
100
AcDbEntity
  8
0
100
AcDbText
  6
BYLAYER
 10
254.8195375
 20
136.74
 40
1.5
  1
±30'
  7
Font_0
 72
1
 11
256.6945375
 21
137.49
100
AcDbText
 73
2
  0
TEXT
  5
33C
100
AcDbEntity
  8
0
100
AcDbText
  6
BYLAYER
 10
245.76235
 20
144.733125
 40
1.5
  1
10･H､U
  7
Font_0
 72
1
 11
248.01235
 21
145.483125
100
AcDbText
 73
2
  0
TEXT
  5
33D
100
AcDbEntity
  8
0
100
AcDbText
  6
BYLAYER
 10
263.501725
 20
136.74
 40
1.5
  1
±20'
  7
Font_0
 72
1
 11
265.376725
 21
137.49
100
AcDbText
 73
2
  0
MTEXT
  5
33E
100
AcDbEntity
  8
0
100
AcDbMText
 10
265.376725
 20
145.483125
 40
1.5
 41
  0.0
  1
50･H､W\P100･H､U
 71
5
  7
Font_0
  0
LINE
  5
33F
100
AcDbEntity
  8
0
100
AcDbLine
  6
BYLAYER
 10
221.07
 20
155.68125
 11
278.4
 21
155.68125
  0
LINE
  5
340
100
AcDbEntity
  8
0
100
AcDbLine
  6
BYLAYER
 10
221.07
 20
160.09125
 11
278.4
 21
160.09125
  0
LINE
  5
341
100
AcDbEntity
  8
0
100
AcDbLine
  6
BYLAYER
 10
221.07
 20
164.50125
 11
278.4
 21
164.50125
  0
LINE
  5
342
100
AcDbEntity
  8
0
100
AcDbLine
  6
BYLAYER
 10
221.07
 20
168.91125
 11
278.4
 21
168.91125
  0
LINE
  5
343
100
AcDbEntity
  8
0
100
AcDbLine
  6
BYLAYER
 10
221.07
 20
173.32125
 11
278.4
 21
173.32125
  0
LINE
  5
344
100
AcDbEntity
  8
0
100
AcDbLine
  6
BYLAYER
 10
216.66
 20
151.27125
 11
278.4
 21
151.27125
  0
LINE
  5
345
100
AcDbEntity
  8
0
100
AcDbLine
  6
BYLAYER
 10
216.66
 20
180.4875
 11
278.4
 21
180.4875
  0
TEXT
  5
346
100
AcDbEntity
  8
0
100
AcDbText
  6
BYLAYER
 10
269.1119
 20
175.154375
 40
3.5
  1
ｲﾊｯﾅ
  7
Font_0
 72
1
 11
272.6119
 21
176.904375
100
AcDbText
 73
2
  0
LINE
  5
347
100
AcDbEntity
  8
0
100
AcDbLine
  6
BYLAYER
 10
243.67125
 20
173.32125
 11
232.06971689676
 21
180.4875
  0
TEXT
  5
348
100
AcDbEntity
  8
0
100
AcDbText
  6
BYLAYER
 10
230.03
 20
181.49375
 40
3.5
  1
ｦｨ ｫ~ ､ｧ ｴｶ ｳq ､ｽ ｮt
  7
Font_0
 72
1
 11
247.53
 21
183.24375
100
AcDbText
 73
2
  0
TEXT
  5
349
100
AcDbEntity
  8
0
100
AcDbText
  6
BYLAYER
 10
228.24565
 20
170.36625
 40
1.5
  1
1･H､W~4･H､U
  7
Font_0
 72
1
 11
232.37065
 21
171.11625
100
AcDbText
 73
2
  0
TEXT
  5
34A
100
AcDbEntity
  8
0
100
AcDbText
  6
BYLAYER
 10
227.49565
 20
161.54625
 40
1.5
  1
16･H､W~63･H､U
  7
Font_0
 72
1
 11
232.37065
 21
162.29625
100
AcDbText
 73
2
  0
TEXT
  5
34B
100
AcDbEntity
  8
0
100
AcDbText
  6
BYLAYER
 10
227.12065
 20
157.13625
 40
1.5
  1
63･H､W~250･H､U
  7
Font_0
 72
1
 11
232.37065
 21
157.88625
100
AcDbText
 73
2
  0
TEXT
  5
34C
100
AcDbEntity
  8
0
100
AcDbText
  6
BYLAYER
 10
226.37065
 20
152.72625
 40
1.5
  1
250･H､W~1000･H､U
  7
Font_0
 72
1
 11
232.37065
 21
153.47625
100
AcDbText
 73
2
  0
MTEXT
  5
34D
100
AcDbEntity
  8
0
100
AcDbMText
 10
218.865
 20
168.879375
 40
3
 41
  0.0
  1
ｪﾗ
 71
4
  7
Font_1
 11
-1.83690953073357E-16
 21
-1
  0
TEXT
  5
34E
100
AcDbEntity
  8
0
100
AcDbText
  6
BYLAYER
 10
227.87065
 20
165.95625
 40
1.5
  1
4･H､W~16･H､U
  7
Font_0
 72
1
 11
232.37065
 21
166.70625
100
AcDbText
 73
2
  0
TEXT
  5
34F
100
AcDbEntity
  8
0
100
AcDbText
  6
BYLAYER
 10
221.354797302298
 20
174.015263609177
 40
1.7
  1
､ｽｺﾙ､ﾘ､oｹｺ､ﾀm/m
  7
Font_0
100
AcDbText
  0
TEXT
  5
350
100
AcDbEntity
  8
0
100
AcDbText
  6
BYLAYER
 10
237.865638127741
 20
177.454836298923
 40
1.7
  1
ｵ･ｯﾅ
  7
Font_0
100
AcDbText
  0
LINE
  5
351
100
AcDbEntity
  8
0
100
AcDbLine
  6
BYLAYER
 10
266.82375
 20
151.27125
 11
266.82375
 21
180.4875
  0
LINE
  5
352
100
AcDbEntity
  8
0
100
AcDbLine
  6
BYLAYER
 10
255.2475
 20
151.27125
 11
255.2475
 21
180.4875
  0
TEXT
  5
353
100
AcDbEntity
  8
0
100
AcDbText
  6
BYLAYER
 10
247.2094
 20
170.36625
 40
1.5
  1
±0.05
  7
Font_0
 72
1
 11
249.4594
 21
171.11625
100
AcDbText
 73
2
  0
TEXT
  5
354
100
AcDbEntity
  8
0
100
AcDbText
  6
BYLAYER
 10
258.78565
 20
170.36625
 40
1.5
  1
±0.10
  7
Font_0
 72
1
 11
261.03565
 21
171.11625
100
AcDbText
 73
2
  0
TEXT
  5
355
100
AcDbEntity
  8
0
100
AcDbText
  6
BYLAYER
 10
270.3619
 20
170.36625
 40
1.5
  1
±0.30
  7
Font_0
 72
1
 11
272.6119
 21
171.11625
100
AcDbText
 73
2
  0
TEXT
  5
356
100
AcDbEntity
  8
0
100
AcDbText
  6
BYLAYER
 10
258.78565
 20
165.95625
 40
1.5
  1
±0.20
  7
Font_0
 72
1
 11
261.03565
 21
166.70625
100
AcDbText
 73
2
  0
TEXT
  5
357
100
AcDbEntity
  8
0
100
AcDbText
  6
BYLAYER
 10
258.78565
 20
161.54625
 40
1.5
  1
±0.30
  7
Font_0
 72
1
 11
261.03565
 21
162.29625
100
AcDbText
 73
2
  0
TEXT
  5
358
100
AcDbEntity
  8
0
100
AcDbText
  6
BYLAYER
 10
258.78565
 20
157.13625
 40
1.5
  1
±0.50
  7
Font_0
 72
1
 11
261.03565
 21
157.88625
100
AcDbText
 73
2
  0
TEXT
  5
359
100
AcDbEntity
  8
0
100
AcDbText
  6
BYLAYER
 10
258.78565
 20
152.72625
 40
1.5
  1
±0.80
  7
Font_0
 72
1
 11
261.03565
 21
153.47625
100
AcDbText
 73
2
  0
TEXT
  5
35A
100
AcDbEntity
  8
0
100
AcDbText
  6
BYLAYER
 10
247.2094
 20
157.13625
 40
1.5
  1
±0.20
  7
Font_0
 72
1
 11
249.4594
 21
157.88625
100
AcDbText
 73
2
  0
TEXT
  5
35B
100
AcDbEntity
  8
0
100
AcDbText
  6
BYLAYER
 10
247.2094
 20
152.72625
 40
1.5
  1
±0.30
  7
Font_0
 72
1
 11
249.4594
 21
153.47625
100
AcDbText
 73
2
  0
TEXT
  5
35C
100
AcDbEntity
  8
0
100
AcDbText
  6
BYLAYER
 10
247.2094
 20
165.95625
 40
1.5
  1
±0.07
  7
Font_0
 72
1
 11
249.4594
 21
166.70625
100
AcDbText
 73
2
  0
TEXT
  5
35D
100
AcDbEntity
  8
0
100
AcDbText
  6
BYLAYER
 10
247.2094
 20
161.54625
 40
1.5
  1
±0.10
  7
Font_0
 72
1
 11
249.4594
 21
162.29625
100
AcDbText
 73
2
  0
TEXT
  5
35E
100
AcDbEntity
  8
0
100
AcDbText
  6
BYLAYER
 10
270.3619
 20
152.72625
 40
1.5
  1
±2.00
  7
Font_0
 72
1
 11
272.6119
 21
153.47625
100
AcDbText
 73
2
  0
TEXT
  5
35F
100
AcDbEntity
  8
0
100
AcDbText
  6
BYLAYER
 10
270.3619
 20
157.13625
 40
1.5
  1
±1.20
  7
Font_0
 72
1
 11
272.6119
 21
157.88625
100
AcDbText
 73
2
  0
TEXT
  5
360
100
AcDbEntity
  8
0
100
AcDbText
  6
BYLAYER
 10
270.3619
 20
161.54625
 40
1.5
  1
±0.70
  7
Font_0
 72
1
 11
272.6119
 21
162.29625
100
AcDbText
 73
2
  0
TEXT
  5
361
100
AcDbEntity
  8
0
100
AcDbText
  6
BYLAYER
 10
270.3619
 20
165.95625
 40
1.5
  1
±0.50
  7
Font_0
 72
1
 11
272.6119
 21
166.70625
100
AcDbText
 73
2
  0
TEXT
  5
362
100
AcDbEntity
  8
0
100
AcDbText
  6
BYLAYER
 10
257.5356
 20
175.154375
 40
3.5
  1
､､ｯﾅ
  7
Font_0
 72
1
 11
261.0356
 21
176.904375
100
AcDbText
 73
2
  0
TEXT
  5
363
100
AcDbEntity
  8
0
100
AcDbText
  6
BYLAYER
 10
245.9594
 20
175.154375
 40
3.5
  1
ｲﾓｯﾅ
  7
Font_0
 72
1
 11
249.4594
 21
176.904375
100
AcDbText
 73
2
  0
LWPOLYLINE
  5
364
100
AcDbEntity
  8
0
100
AcDbPolyline
  6
BYLAYER
370
20
 90
     4
 70
     1
 10
0
  20
0
 10
0
  20
186
 10
278.4
  20
186
 10
278.4
  20
0
  0
LWPOLYLINE
  5
365
100
AcDbEntity
  8
0
100
AcDbPolyline
  6
BYLAYER
370
20
 90
     2
 10
0
  20
36
 10
278.4
  20
36
  0
LWPOLYLINE
  5
366
100
AcDbEntity
  8
0
100
AcDbPolyline
  6
BYLAYER
370
20
 90
     2
 10
195.15
  20
36
 10
195.15
  20
0
  0
LWPOLYLINE
  5
367
100
AcDbEntity
  8
0
100
AcDbPolyline
  6
BYLAYER
370
20
 90
     2
 10
96.85
  20
36
 10
96.85
  20
0
  0
ENDBLK
  5
368
100
AcDbEntity
  8
0
 67
     1
100
AcDbBlockEnd
  0
BLOCK
  5
369
100
AcDbEntity
  8
0
100
AcDbBlockBegin
  2
A
 70
    0
 10
0
 20
0
 30
0.0
  3
A
  1

  0
LWPOLYLINE
  5
36A
100
AcDbEntity
  8
0
100
AcDbPolyline
  6
BYLAYER
370
0
 90
     3
 70
     1
 10
-1.5
  20
-0.866025403784434
 10
-0.5
  20
-0.866025403784434
 10
-1
  20
0
  0
LWPOLYLINE
  5
36B
100
AcDbEntity
  8
0
100
AcDbPolyline
  6
BYLAYER
370
0
 90
     3
 70
     1
 10
0.5
  20
-0.866025403784434
 10
1.5
  20
-0.866025403784434
 10
1
  20
0
  0
LWPOLYLINE
  5
36C
100
AcDbEntity
  8
0
100
AcDbPolyline
  6
BYLAYER
370
0
 90
     3
 70
     1
 10
-0.5
  20
-0.866025403784434
 10
0.5
  20
-0.866025403784434
 10
0
  20
0
  0
ENDBLK
  5
36D
100
AcDbEntity
  8
0
 67
     1
100
AcDbBlockEnd
  0
BLOCK
  5
36E
100
AcDbEntity
  8
0
100
AcDbBlockBegin
  2
AR
 70
    0
 10
0
 20
0
 30
0.0
  3
AR
  1

  0
LINE
  5
36F
100
AcDbEntity
  8
0
100
AcDbLine
  6
BYLAYER
 10
0
 20
0
 11
-1
 21
0
  0
ARC
  5
370
100
AcDbEntity
  8
0
100
AcDbCircle
  6
BYLAYER
370
15
 10
0
 20
9.18861341181501E-18
 40
0.0750000000000029
100
AcDbArc
 50
-180
 51
0
  0
ARC
  5
371
100
AcDbEntity
  8
0
100
AcDbCircle
  6
BYLAYER
370
15
 10
0
 20
1.83690953073364E-17
 40
0.0750000000000029
100
AcDbArc
 50
0
 51
180
  0
ENDBLK
  5
372
100
AcDbEntity
  8
0
 67
     1
100
AcDbBlockEnd
  0
BLOCK
  5
373
100
AcDbEntity
  8
0
100
AcDbBlockBegin
  2
JAME
 70
    0
 10
0
 20
0
 30
0.0
  3
JAME
  1

  0
TEXT
  5
374
100
AcDbEntity
  8
0
100
AcDbText
  6
BYLAYER
 10
200.830454348633
 20
31.5
 40
3
  1
､魘ﾁ
  7
Font_0
100
AcDbText
  0
LINE
  5
375
100
AcDbEntity
  8
0
100
AcDbLine
  6
BYLAYER
 10
0
 20
12
 11
278.4
 21
12
  0
LINE
  5
376
100
AcDbEntity
  8
0
100
AcDbLine
  6
BYLAYER
 10
0
 20
6
 11
278.4
 21
6
  0
LINE
  5
377
100
AcDbEntity
  8
0
100
AcDbLine
  6
BYLAYER
 10
0
 20
0
 11
278.4
 21
0
  0
LINE
  5
378
100
AcDbEntity
  8
0
100
AcDbLine
  6
BYLAYER
 10
96.85
 20
30
 11
278.4
 21
30
  0
LINE
  5
379
100
AcDbEntity
  8
0
100
AcDbLine
  6
BYLAYER
 10
96.85
 20
24
 11
278.4
 21
24
  0
LINE
  5
37A
100
AcDbEntity
  8
0
100
AcDbLine
  6
BYLAYER
 10
96.85
 20
18
 11
278.4
 21
18
  0
LWPOLYLINE
  5
37B
100
AcDbEntity
  8
0
100
AcDbPolyline
  6
BYLAYER
370
0
 90
     2
 70
     1
 10
0
  20
36
 10
278.4
  20
36
  0
LWPOLYLINE
  5
37C
100
AcDbEntity
  8
0
100
AcDbPolyline
  6
BYLAYER
 90
     2
 70
     1
 10
278.4
  20
186
 10
0
  20
186
  0
LINE
  5
37D
100
AcDbEntity
  8
0
100
AcDbLine
  6
BYLAYER
 10
0
 20
0
 11
0
 21
186
  0
TEXT
  5
37E
100
AcDbEntity
  8
0
100
AcDbText
  6
BYLAYER
 10
63.8643398403977
 20
7.09411371042404
 40
2.8
  1
(04)23322629
  7
Font_0
100
AcDbText
  0
TEXT
  5
37F
100
AcDbEntity
  8
0
100
AcDbText
  6
BYLAYER
 10
22.1680110084321
 20
15.7553550725962
 40
2.8
  1
CAM YORK INDUSTRIAL CO.,LTD.
  7
Font_0
100
AcDbText
  0
TEXT
  5
380
100
AcDbEntity
  8
0
100
AcDbText
  6
BYLAYER
 10
22.0468952754036
 20
26
 40
7
  1
ｫﾘｷﾔ､uｷ~ｪﾑ･ｳｭｭ､ｽ･q
  7
Font_0
100
AcDbText
  0
ARC
  5
381
100
AcDbEntity
  8
0
100
AcDbCircle
  6
BYLAYER
 10
5.4252294212235
 20
17.1818752606574
 40
0.704372460813671
100
AcDbArc
 50
233.852980631667
 51
29.2500716369477
  0
TEXT
  5
382
100
AcDbEntity
  8
0
100
AcDbText
  6
BYLAYER
 10
3.5
 20
1.5
 40
3
  1
ｳﾆｵ�
  7
Font_0
 72
1
 11
6.5
 21
3
100
AcDbText
 73
2
  0
TEXT
  5
383
100
AcDbEntity
  8
0
100
AcDbText
  6
BYLAYER
 10
2.6
 20
7.3
 40
3
  1
TEL
  7
Font_0
100
AcDbText
  0
ARC
  5
384
100
AcDbEntity
  8
0
100
AcDbCircle
  6
BYLAYER
 10
10.1054905349494
 20
24.350263158651
 40
4.41008790801462
100
AcDbArc
 50
90
 51
0
  0
CIRCLE
  5
385
100
AcDbEntity
  8
0
100
AcDbCircle
  6
BYLAYER
 10
10.1054905349494
 20
24.350263158651
 40
7.62237416200057
  0
CIRCLE
  5
386
100
AcDbEntity
  8
0
100
AcDbCircle
  6
BYLAYER
 10
10.1054905349494
 20
24.350263158651
 40
9.36463111331499
  0
ARC
  5
387
100
AcDbEntity
  8
0
100
AcDbCircle
  6
BYLAYER
 10
6.23761506796892
 20
31.9876821284788
 40
0.704372460813671
100
AcDbArc
 50
113.852980631667
 51
269.250071636948
  0
ARC
  5
388
100
AcDbEntity
  8
0
100
AcDbCircle
  6
BYLAYER
 10
2.46807156512152
 20
20.4823876916705
 40
0.704372460813671
100
AcDbArc
 50
203.852980631667
 51
359.250071636948
  0
ARC
  5
389
100
AcDbEntity
  8
0
100
AcDbCircle
  6
BYLAYER
 10
1.55735395424306
 20
24.8192942304852
 40
0.704372460813671
100
AcDbArc
 50
173.852980631667
 51
329.250071636948
  0
ARC
  5
38A
100
AcDbEntity
  8
0
100
AcDbCircle
  6
BYLAYER
 10
2.93710263695578
 20
29.0305242723768
 40
0.704372460813671
100
AcDbArc
 50
143.852980631667
 51
299.250071636948
  0
LINE
  5
38B
100
AcDbEntity
  8
0
100
AcDbLine
  6
BYLAYER
 10
62
 20
12
 11
62
 21
6
  0
TEXT
  5
38C
100
AcDbEntity
  8
0
100
AcDbText
  6
BYLAYER
 10
51.8
 20
7.2
 40
3
  1
FAX
  7
Font_0
100
AcDbText
  0
LINE
  5
38D
100
AcDbEntity
  8
0
100
AcDbLine
  6
BYLAYER
 10
49.4
 20
12
 11
49.4
 21
6
  0
TEXT
  5
38E
100
AcDbEntity
  8
0
100
AcDbText
  6
BYLAYER
 10
43.3478047909238
 20
7.2
 40
2.8
  1
~8
  7
Font_0
100
AcDbText
  0
LINE
  5
38F
100
AcDbEntity
  8
0
100
AcDbLine
  6
BYLAYER
 10
11.8
 20
12
 11
11.8
 21
0
  0
TEXT
  5
390
100
AcDbEntity
  8
0
100
AcDbText
  6
BYLAYER
 10
12.8764304985659
 20
7.2
 40
2.8
  1
(04)23322627
  7
Font_0
100
AcDbText
  0
ARC
  5
391
100
AcDbEntity
  8
0
100
AcDbCircle
  6
BYLAYER
 10
14.7857516486752
 20
31.5186510566446
 40
0.704372460813671
100
AcDbArc
 50
53.8529806316668
 51
209.250071636948
  0
ARC
  5
392
100
AcDbEntity
  8
0
100
AcDbCircle
  6
BYLAYER
 10
10.5745216067836
 20
32.8983997393573
 40
0.704372460813671
100
AcDbArc
 50
83.8529806316668
 51
239.250071636948
  0
ARC
  5
393
100
AcDbEntity
  8
0
100
AcDbCircle
  6
BYLAYER
 10
13.9733660019298
 20
16.7128441888231
 40
0.704372460813671
100
AcDbArc
 50
293.852980631667
 51
89.2500716369476
  0
ARC
  5
394
100
AcDbEntity
  8
0
100
AcDbCircle
  6
BYLAYER
 10
9.63645946311512
 20
15.8021265779447
 40
0.704372460813671
100
AcDbArc
 50
263.852980631667
 51
59.2500716369476
  0
ARC
  5
395
100
AcDbEntity
  8
0
100
AcDbCircle
  6
BYLAYER
 10
17.273878432943
 20
19.6700020449251
 40
0.704372460813671
100
AcDbArc
 50
323.852980631667
 51
119.250071636948
  0
LINE
  5
396
100
AcDbEntity
  8
0
100
AcDbLine
  6
BYLAYER
 10
14.515578442964
 20
24.350263158651
 11
15.4411524483498
 21
24.350263158651
  0
LINE
  5
397
100
AcDbEntity
  8
0
100
AcDbLine
  6
BYLAYER
 10
10.1054905349494
 20
28.7603510666656
 11
15.2233703294355
 21
28.7603510666656
  0
TEXT
  5
398
100
AcDbEntity
  8
0
100
AcDbText
  6
BYLAYER
 10
7.49210581170385
 20
21.8477388856442
 40
5
  1
Y
  7
Font_0
100
AcDbText
  0
ARC
  5
399
100
AcDbEntity
  8
0
100
AcDbCircle
  6
BYLAYER
 10
18.6536271156557
 20
23.8812320868167
 40
0.704372460813671
100
AcDbArc
 50
353.852980631667
 51
149.250071636947
  0
ARC
  5
39A
100
AcDbEntity
  8
0
100
AcDbCircle
  6
BYLAYER
 10
17.7429095047772
 20
28.2181386256314
 40
0.704372460813671
100
AcDbArc
 50
23.8529806316668
 51
179.250071636948
  0
LINE
  5
39B
100
AcDbEntity
  8
0
100
AcDbLine
  6
BYLAYER
 10
114
 20
36
 11
114
 21
0
  0
TEXT
  5
39C
100
AcDbEntity
  8
0
100
AcDbText
  6
BYLAYER
 10
100.4
 20
7.4
 40
3
  1
ｫ~ ｦW
  7
Font_0
100
AcDbText
  0
LINE
  5
39D
100
AcDbEntity
  8
0
100
AcDbLine
  6
BYLAYER
 10
97.15
 20
36
 11
97.15
 21
0
  0
LINE
  5
39E
100
AcDbEntity
  8
0
100
AcDbLine
  6
BYLAYER
 10
96.85
 20
36
 11
96.85
 21
0
  0
LWPOLYLINE
  5
39F
100
AcDbEntity
  8
0
100
AcDbPolyline
  6
BYLAYER
370
0
 90
     4
 10
96.85
  20
36
 10
96.85
  20
0
 10
97.15
  20
0
 10
97.15
  20
36
  0
TEXT
  5
3A0
100
AcDbEntity
  8
0
100
AcDbText
  6
BYLAYER
 10
100.4
 20
1.6
 40
3
  1
ｹﾏ ｸｹ
  7
Font_0
100
AcDbText
  0
TEXT
  5
3A1
100
AcDbEntity
  8
0
100
AcDbText
  6
BYLAYER
 10
100.4
 20
31.6
 40
3
  1
･D ｺﾞ
  7
Font_0
100
AcDbText
  0
TEXT
  5
3A2
100
AcDbEntity
  8
0
100
AcDbText
  6
BYLAYER
 10
100.4
 20
19.6
 40
3
  1
ﾃｸ ｹﾏ
  7
Font_0
100
AcDbText
  0
TEXT
  5
3A3
100
AcDbEntity
  8
0
100
AcDbText
  6
BYLAYER
 10
100.4
 20
25.4
 40
3
  1
ｮﾖ ｹ�
  7
Font_0
100
AcDbText
  0
TEXT
  5
3A4
100
AcDbEntity
  8
0
100
AcDbText
  6
BYLAYER
 10
100.316862435203
 20
13.8
 40
3
  1
ｾ� ｺﾘ
  7
Font_0
100
AcDbText
  0
LINE
  5
3A5
100
AcDbEntity
  8
0
100
AcDbLine
  6
BYLAYER
 10
195.15
 20
36
 11
195.15
 21
0
  0
LINE
  5
3A6
100
AcDbEntity
  8
0
100
AcDbLine
  6
BYLAYER
 10
194.85
 20
36
 11
194.85
 21
0
  0
LINE
  5
3A7
100
AcDbEntity
  8
0
100
AcDbLine
  6
BYLAYER
 10
195.025
 20
36
 11
195.025
 21
0
  0
TEXT
  5
3A8
100
AcDbEntity
  8
0
100
AcDbText
  6
BYLAYER
 10
146.967830348543
 20
7.5
 40
3
  1
ｻsｹﾏ､魘ﾁ
  7
Font_0
100
AcDbText
  0
LINE
  5
3A9
100
AcDbEntity
  8
0
100
AcDbLine
  6
BYLAYER
 10
163
 20
36
 11
163
 21
0
  0
LINE
  5
3AA
100
AcDbEntity
  8
0
100
AcDbLine
  6
BYLAYER
 10
144
 20
36
 11
144
 21
0
  0
TEXT
  5
3AB
100
AcDbEntity
  8
0
100
AcDbText
  6
BYLAYER
 10
147.076922819997
 20
1.5
 40
3
  1
ｹqｸ｣ｽsｸｹ
  7
Font_0
100
AcDbText
  0
TEXT
  5
3AC
100
AcDbEntity
  8
0
100
AcDbText
  6
BYLAYER
 10
148.5
 20
31.5
 40
3
  1
ｧ� ｽ�
  7
Font_0
100
AcDbText
  0
TEXT
  5
3AD
100
AcDbEntity
  8
0
100
AcDbText
  6
BYLAYER
 10
148.5
 20
25.5
 40
3
  1
ｼﾆ ｶq
  7
Font_0
100
AcDbText
  0
TEXT
  5
3AE
100
AcDbEntity
  8
0
100
AcDbText
  6
BYLAYER
 10
148.5
 20
19.5
 40
3
  1
ｳ� ｦ�
  7
Font_0
100
AcDbText
  0
TEXT
  5
3AF
100
AcDbEntity
  8
0
100
AcDbText
  6
BYLAYER
 10
146.967830348543
 20
13.5
 40
3
  1
ｪ揵ｱｳBｲz
  7
Font_0
100
AcDbText
  0
LINE
  5
3B0
100
AcDbEntity
  8
0
100
AcDbLine
  6
BYLAYER
 10
278.4
 20
186
 11
278.4
 21
0
  0
TEXT
  5
3B1
100
AcDbEntity
  8
0
100
AcDbText
  6
BYLAYER
 10
235
 20
31.5
 40
3
  1
ｧ�   ｧ�   ､ｺ   ｮe
  7
Font_0
100
AcDbText
  0
LINE
  5
3B2
100
AcDbEntity
  8
0
100
AcDbLine
  6
BYLAYER
 10
232
 20
36
 11
232
 21
0
  0
LINE
  5
3B3
100
AcDbEntity
  8
0
100
AcDbLine
  6
BYLAYER
 10
213
 20
36
 11
213
 21
0
  0
TEXT
  5
3B4
100
AcDbEntity
  8
0
100
AcDbText
  6
BYLAYER
 10
218.659856969007
 20
31.5
 40
3
  1
ｭtｳd､H
  7
Font_0
100
AcDbText
  0
ENDBLK
  5
3B5
100
AcDbEntity
  8
0
 67
     1
100
AcDbBlockEnd
  0
BLOCK
  5
3B6
100
AcDbEntity
  8
0
100
AcDbBlockBegin
  2
GENAXEH
 70
    0
 10
0
 20
0
 30
0.0
  3
GENAXEH
  1

  0
LINE
  5
3B7
100
AcDbEntity
  8
0
100
AcDbLine
  6
BYLAYER
 10
-1
 20
0
 11
1
 21
0
  0
ENDBLK
  5
3B8
100
AcDbEntity
  8
0
 67
     1
100
AcDbBlockEnd
  0
BLOCK
  5
3B9
100
AcDbEntity
  8
0
100
AcDbBlockBegin
  2
A$C7DF867E2
 70
    0
 10
0
 20
0
 30
0.0
  3
A$C7DF867E2
  1

  0
LINE
  5
3BA
100
AcDbEntity
  8
0
100
AcDbLine
  6
BYLAYER
 10
9.99999982259987
 20
6.496455853E-7
 11
9.99999982259987
 21
85.0000006496456
  0
LINE
  5
3BB
100
AcDbEntity
  8
0
100
AcDbLine
  6
BYLAYER
 10
11.4999998225999
 20
85.0000006496456
 11
11.4999998225999
 21
6.496455853E-7
  0
LINE
  5
3BC
100
AcDbEntity
  8
0
100
AcDbLine
  6
BYLAYER
 10
11.4999998225999
 20
6.496455853E-7
 11
9.99999982259987
 21
6.496455853E-7
  0
LINE
  5
3BD
100
AcDbEntity
  8
0
100
AcDbLine
  6
BYLAYER
 10
9.99999982259987
 20
85.0000006496456
 11
11.4999998225999
 21
85.0000006496456
  0
LINE
  5
3BE
100
AcDbEntity
  8
0
100
AcDbLine
  6
BYLAYER
 10
-1.774001248E-7
 20
70.5000006496456
 11
9.99999982259987
 21
70.5000006496456
  0
LINE
  5
3BF
100
AcDbEntity
  8
0
100
AcDbLine
  6
BYLAYER
 10
-1.774001248E-7
 20
14.5000006496456
 11
9.99999982259987
 21
14.5000006496456
  0
LINE
  5
3C0
100
AcDbEntity
  8
0
100
AcDbLine
  6
BYLAYER
 10
-1.774001248E-7
 20
72.0000006496456
 11
9.99999982259987
 21
72.0000006496456
  0
LINE
  5
3C1
100
AcDbEntity
  8
0
100
AcDbLine
  6
BYLAYER
 10
-1.774001248E-7
 20
13.0000006496456
 11
9.99999982259987
 21
13.0000006496456
  0
LINE
  5
3C2
100
AcDbEntity
  8
0
100
AcDbLine
  6
BYLAYER
 10
-1.774001248E-7
 20
72.0000006496456
 11
-1.774001248E-7
 21
70.5000006496456
  0
LINE
  5
3C3
100
AcDbEntity
  8
0
100
AcDbLine
  6
BYLAYER
 10
-1.774001248E-7
 20
14.5000006496456
 11
-1.774001248E-7
 21
13.0000006496456
  0
LINE
  5
3C4
100
AcDbEntity
  8
0
100
AcDbLine
  6
BYLAYER
 10
-1.774001248E-7
 20
56.9644667437128
 11
-1.774001248E-7
 21
28.0355345555784
  0
LINE
  5
3C5
100
AcDbEntity
  8
0
100
AcDbLine
  6
BYLAYER
 10
6.99999982259987
 20
67.5000006496456
 11
6.99999982259987
 21
63.9644667437128
  0
LINE
  5
3C6
100
AcDbEntity
  8
0
100
AcDbLine
  6
BYLAYER
 10
6.99999982259987
 20
21.0355345555784
 11
6.99999982259987
 21
17.5000006496456
  0
LINE
  5
3C7
100
AcDbEntity
  8
0
100
AcDbLine
  6
BYLAYER
 10
6.99999982259987
 20
21.0355345555784
 11
-1.774001248E-7
 21
28.0355345555784
  0
LINE
  5
3C8
100
AcDbEntity
  8
0
100
AcDbLine
  6
BYLAYER
 10
6.99999982259987
 20
63.9644667437128
 11
-1.774001248E-7
 21
56.9644667437128
  0
LINE
  5
3C9
100
AcDbEntity
  8
0
100
AcDbLine
  6
BYLAYER
 10
6.99999982259987
 20
67.5000006496456
 11
9.99999982259987
 21
70.5000006496456
  0
LINE
  5
3CA
100
AcDbEntity
  8
0
100
AcDbLine
  6
BYLAYER
 10
6.99999982259987
 20
17.5000006496456
 11
9.99999982259987
 21
14.5000006496456
  0
ENDBLK
  5
3CB
100
AcDbEntity
  8
0
 67
     1
100
AcDbBlockEnd
  0
BLOCK
  5
3CC
100
AcDbEntity
  8
0
100
AcDbBlockBegin
  2
A$C479A0421
 70
    0
 10
0
 20
0
 30
0.0
  3
A$C479A0421
  1

  0
CIRCLE
  5
3CD
100
AcDbEntity
  8
CEN
100
AcDbCircle
  6
BYLAYER
 10
70.9999997239245
 20
131.20000010131
 40
71
  0
CIRCLE
  5
3CE
100
AcDbEntity
  8
PV-236
100
AcDbCircle
  6
BYLAYER
 10
-20.7954182596757
 20
80.9954186370655
 40
2.75
  0
CIRCLE
  5
3CF
100
AcDbEntity
  8
PV-236
100
AcDbCircle
  6
BYLAYER
 10
-121.204581188166
 20
80.9954186370658
 40
2.75
  0
CIRCLE
  5
3D0
100
AcDbEntity
  8
PV-236
100
AcDbCircle
  6
BYLAYER
 10
-121.204581188166
 20
181.404581565556
 40
2.75
  0
CIRCLE
  5
3D1
100
AcDbEntity
  8
PV-236
100
AcDbCircle
  6
BYLAYER
 10
-20.7954182596757
 20
181.404581565556
 40
2.75
  0
LINE
  5
3D2
100
AcDbEntity
  8
PV-236
100
AcDbLine
  6
BYLAYER
 10
137.19999972393
 20
1.01309638E-7
 11
4.7999997239192
 21
1.01309638E-7
  0
ARC
  5
3D3
100
AcDbEntity
  8
BASE
100
AcDbCircle
  6
BYLAYER
 10
43.7763886482423
 20
160.544931520552
 40
2.75
100
AcDbArc
 50
315.000000000009
 51
135.000000000009
  0
ARC
  5
3D4
100
AcDbEntity
  8
BASE
100
AcDbCircle
  6
BYLAYER
 10
41.6550683046832
 20
158.423611176992
 40
2.75
100
AcDbArc
 50
135.000000000009
 51
315.000000000009
  0
LINE
  5
3D5
100
AcDbEntity
  8
BASE
100
AcDbLine
  6
BYLAYER
 10
39.7105246564195
 20
160.368154825256
 11
41.8318449999795
 21
162.489475168815
  0
LINE
  5
3D6
100
AcDbEntity
  8
BASE
100
AcDbLine
  6
BYLAYER
 10
43.5996119529452
 20
156.47906752873
 11
45.7209322965052
 21
158.600387872289
  0
CIRCLE
  5
3D7
100
AcDbEntity
  8
CEN
100
AcDbCircle
  6
BYLAYER
 10
70.9999997239245
 20
131.20000010131
 40
40
  0
ARC
  5
3D8
100
AcDbEntity
  8
BASE
100
AcDbCircle
  6
BYLAYER
 10
41.6550683046832
 20
103.976389025628
 40
2.75
100
AcDbArc
 50
44.9999999999908
 51
224.999999999991
  0
ARC
  5
3D9
100
AcDbEntity
  8
BASE
100
AcDbCircle
  6
BYLAYER
 10
43.7763886482423
 20
101.855068682069
 40
2.75
100
AcDbArc
 50
224.999999999991
 51
44.9999999999908
  0
LINE
  5
3DA
100
AcDbEntity
  8
BASE
100
AcDbLine
  6
BYLAYER
 10
41.8318449999795
 20
99.9105250338057
 11
39.7105246564195
 21
102.031845377365
  0
LINE
  5
3DB
100
AcDbEntity
  8
BASE
100
AcDbLine
  6
BYLAYER
 10
45.7209322965052
 20
103.799612330332
 11
43.5996119529461
 21
105.920932673891
  0
ARC
  5
3DC
100
AcDbEntity
  8
BASE
100
AcDbCircle
  6
BYLAYER
 10
98.2236107996066
 20
101.855068682069
 40
2.75
100
AcDbArc
 50
135.000000000009
 51
315.000000000009
  0
ARC
  5
3DD
100
AcDbEntity
  8
BASE
100
AcDbCircle
  6
BYLAYER
 10
100.344931143166
 20
103.976389025628
 40
2.75
100
AcDbArc
 50
315.000000000009
 51
135.000000000009
  0
LINE
  5
3DE
100
AcDbEntity
  8
BASE
100
AcDbLine
  6
BYLAYER
 10
102.28947479143
 20
102.031845377366
 11
100.168154447869
 21
99.910525033806
  0
LINE
  5
3DF
100
AcDbEntity
  8
BASE
100
AcDbLine
  6
BYLAYER
 10
98.4003874949037
 20
105.920932673892
 11
96.2790671513437
 21
103.799612330332
  0
ARC
  5
3E0
100
AcDbEntity
  8
BASE
100
AcDbCircle
  6
BYLAYER
 10
100.344931143166
 20
158.423611176992
 40
2.75
100
AcDbArc
 50
224.999999999991
 51
44.9999999999908
  0
ARC
  5
3E1
100
AcDbEntity
  8
BASE
100
AcDbCircle
  6
BYLAYER
 10
98.2236107996066
 20
160.544931520552
 40
2.75
100
AcDbArc
 50
44.9999999999908
 51
224.999999999991
  0
LINE
  5
3E2
100
AcDbEntity
  8
BASE
100
AcDbLine
  6
BYLAYER
 10
100.168154447869
 20
162.489475168815
 11
102.28947479143
 21
160.368154825255
  0
LINE
  5
3E3
100
AcDbEntity
  8
BASE
100
AcDbLine
  6
BYLAYER
 10
96.2790671513437
 20
158.600387872289
 11
98.4003874949037
 21
156.47906752873
  0
CIRCLE
  5
3E4
100
AcDbEntity
  8
0
100
AcDbCircle
  6
BYLAYER
 10
70.9999997239245
 20
131.20000010131
 40
10
  0
LINE
  5
3E5
100
AcDbEntity
  8
PV-236
100
AcDbLine
  6
BYLAYER
 10
137.19999972393
 20
15.0000001013096
 11
138.39999972393
 21
15.0000001013096
  0
LINE
  5
3E6
100
AcDbEntity
  8
0
100
AcDbLine
  6
BYLAYER
 10
137.19999972393
 20
189.594254159259
 11
137.199999723928
 21
1.20000010130968
  0
LINE
  5
3E7
100
AcDbEntity
  8
0
100
AcDbLine
  6
BYLAYER
 10
138.39999972393
 20
15.0000001013096
 11
138.39999972393
 21
1.20000010130968
  0
ARC
  5
3E8
100
AcDbEntity
  8
0
100
AcDbCircle
  6
BYLAYER
 10
137.19999972393
 20
1.20000010130968
 40
1.2
100
AcDbArc
 50
270
 51
0
  0
LINE
  5
3E9
100
AcDbEntity
  8
0
100
AcDbLine
  6
BYLAYER
 10
135.999999723929
 20
189.594254159259
 11
137.19999972393
 21
189.594254159259
  0
LINE
  5
3EA
100
AcDbEntity
  8
PV-236
100
AcDbLine
  6
BYLAYER
 10
4.7999997239192
 20
15.0000001013096
 11
3.59999972391938
 21
15.0000001013096
  0
LINE
  5
3EB
100
AcDbEntity
  8
0
100
AcDbLine
  6
BYLAYER
 10
3.59999972391938
 20
15.0000001013096
 11
3.59999972391938
 21
1.20000010130968
  0
ARC
  5
3EC
100
AcDbEntity
  8
0
100
AcDbCircle
  6
BYLAYER
 10
4.7999997239192
 20
1.20000010130968
 40
1.2
100
AcDbArc
 50
180
 51
270
  0
ARC
  5
3ED
100
AcDbEntity
  8
BASE
100
AcDbCircle
  6
BYLAYER
370
0
 10
57.9887630235119
 20
162.611904206694
 40
4
100
AcDbArc
 50
-157.499999999995
 51
-337.499999999995
  0
LINE
  5
3EE
100
AcDbEntity
  8
BASE
100
AcDbLine
  6
BYLAYER
370
0
 10
54.2932448934669
 20
161.081170477233
 11
44.917500800522
 21
183.71621902376
  0
ARC
  5
3EF
100
AcDbEntity
  8
BASE
100
AcDbCircle
  6
BYLAYER
370
0
 10
48.613018930567
 20
185.246952753221
 40
4.00000000000001
100
AcDbArc
 50
22.5000000000054
 51
-157.499999999995
  0
LINE
  5
3F0
100
AcDbEntity
  8
BASE
100
AcDbLine
  6
BYLAYER
370
0
 10
61.6842811535569
 20
164.142637936155
 11
52.308537060612
 21
186.777686482681
  0
ARC
  5
3F1
100
AcDbEntity
  8
BASE
100
AcDbCircle
  6
BYLAYER
370
0
 10
39.5880956185408
 20
144.211236801723
 40
4.00000000000001
100
AcDbArc
 50
-112.500000000006
 51
-292.500000000006
  0
LINE
  5
3F2
100
AcDbEntity
  8
BASE
100
AcDbLine
  6
BYLAYER
370
0
 10
38.0573618890801
 20
140.515718671678
 11
15.4223133425537
 21
149.891462764623
  0
ARC
  5
3F3
100
AcDbEntity
  8
BASE
100
AcDbCircle
  6
BYLAYER
370
0
 10
16.9530470720144
 20
153.586980894668
 40
4.00000000000001
100
AcDbArc
 50
67.4999999999942
 51
-112.500000000006
  0
LINE
  5
3F4
100
AcDbEntity
  8
BASE
100
AcDbLine
  6
BYLAYER
370
0
 10
41.1188293480015
 20
147.906754931768
 11
18.4837808014752
 21
157.282499024713
  0
ARC
  5
3F5
100
AcDbEntity
  8
BASE
100
AcDbCircle
  6
BYLAYER
370
0
 10
39.5880956185408
 20
118.188763400898
 40
4.00000000000005
100
AcDbArc
 50
-67.4999999999946
 51
-247.499999999995
  0
LINE
  5
3F6
100
AcDbEntity
  8
BASE
100
AcDbLine
  6
BYLAYER
370
0
 10
41.1188293480015
 20
114.493245270853
 11
18.4837808014752
 21
105.117501177908
  0
ARC
  5
3F7
100
AcDbEntity
  8
BASE
100
AcDbCircle
  6
BYLAYER
370
0
 10
16.9530470720144
 20
108.813019307953
 40
4.00000000000001
100
AcDbArc
 50
112.500000000006
 51
-67.4999999999942
  0
LINE
  5
3F8
100
AcDbEntity
  8
BASE
100
AcDbLine
  6
BYLAYER
370
0
 10
38.0573618890801
 20
121.884281530943
 11
15.4223133425537
 21
112.508537437998
  0
ARC
  5
3F9
100
AcDbEntity
  8
BASE
100
AcDbCircle
  6
BYLAYER
370
0
 10
57.9887630235119
 20
99.7880959959268
 40
3.99999999999984
100
AcDbArc
 50
-22.4999999999997
 51
-202.5
  0
LINE
  5
3FA
100
AcDbEntity
  8
BASE
100
AcDbLine
  6
BYLAYER
370
0
 10
61.6842811535569
 20
98.2573622664665
 11
52.308537060612
 21
75.6223137199402
  0
ARC
  5
3FB
100
AcDbEntity
  8
BASE
100
AcDbCircle
  6
BYLAYER
370
0
 10
48.613018930567
 20
77.1530474494004
 40
3.99999999999984
100
AcDbArc
 50
157.5
 51
-22.4999999999997
  0
LINE
  5
3FC
100
AcDbEntity
  8
BASE
100
AcDbLine
  6
BYLAYER
370
0
 10
54.2932448934669
 20
101.318829725387
 11
44.917500800522
 21
78.6837811788607
  0
ARC
  5
3FD
100
AcDbEntity
  8
BASE
100
AcDbCircle
  6
BYLAYER
370
0
 10
84.011236424338
 20
99.7880959959268
 40
3.99999999999984
100
AcDbArc
 50
22.4999999999998
 51
-157.5
  0
LINE
  5
3FE
100
AcDbEntity
  8
BASE
100
AcDbLine
  6
BYLAYER
370
0
 10
87.706754554383
 20
101.318829725387
 11
97.0824986473279
 21
78.6837811788607
  0
ARC
  5
3FF
100
AcDbEntity
  8
BASE
100
AcDbCircle
  6
BYLAYER
370
0
 10
93.3869805172824
 20
77.1530474494004
 40
4.00000000000026
100
AcDbArc
 50
-157.500000000003
 51
-337.500000000003
  0
LINE
  5
400
100
AcDbEntity
  8
BASE
100
AcDbLine
  6
BYLAYER
370
0
 10
80.315718294293
 20
98.2573622664665
 11
89.6914623872369
 21
75.6223137199402
  0
ARC
  5
401
100
AcDbEntity
  8
BASE
100
AcDbCircle
  6
BYLAYER
370
0
 10
102.411903829309
 20
118.188763400898
 40
3.99999999999987
100
AcDbArc
 50
67.500000000001
 51
-112.499999999999
  0
LINE
  5
402
100
AcDbEntity
  8
BASE
100
AcDbLine
  6
BYLAYER
370
0
 10
103.942637558769
 20
121.884281530943
 11
126.577686105295
 21
112.508537437998
  0
ARC
  5
403
100
AcDbEntity
  8
BASE
100
AcDbCircle
  6
BYLAYER
370
0
 10
125.046952375835
 20
108.813019307953
 40
3.99999999999984
100
AcDbArc
 50
-112.5
 51
-292.5
  0
LINE
  5
404
100
AcDbEntity
  8
BASE
100
AcDbLine
  6
BYLAYER
370
0
 10
100.881170099848
 20
114.493245270853
 11
123.516218646375
 21
105.117501177908
  0
ARC
  5
405
100
AcDbEntity
  8
BASE
100
AcDbCircle
  6
BYLAYER
370
0
 10
102.411903829309
 20
144.211236801723
 40
3.99999999999982
100
AcDbArc
 50
112.499999999999
 51
-67.5000000000007
  0
LINE
  5
406
100
AcDbEntity
  8
BASE
100
AcDbLine
  6
BYLAYER
370
0
 10
100.881170099848
 20
147.906754931768
 11
123.516218646375
 21
157.282499024713
  0
ARC
  5
407
100
AcDbEntity
  8
BASE
100
AcDbCircle
  6
BYLAYER
370
0
 10
125.046952375835
 20
153.586980894668
 40
3.99999999999984
100
AcDbArc
 50
-67.4999999999999
 51
-247.5
  0
LINE
  5
408
100
AcDbEntity
  8
BASE
100
AcDbLine
  6
BYLAYER
370
0
 10
103.942637558769
 20
140.515718671678
 11
126.577686105295
 21
149.891462764623
  0
ARC
  5
409
100
AcDbEntity
  8
BASE
100
AcDbCircle
  6
BYLAYER
370
0
 10
84.011236424338
 20
162.611904206694
 40
4
100
AcDbArc
 50
157.499999999995
 51
-22.5000000000054
  0
LINE
  5
40A
100
AcDbEntity
  8
BASE
100
AcDbLine
  6
BYLAYER
370
0
 10
80.315718294293
 20
164.142637936155
 11
89.6914623872369
 21
186.777686482681
  0
ARC
  5
40B
100
AcDbEntity
  8
BASE
100
AcDbCircle
  6
BYLAYER
370
0
 10
93.3869805172824
 20
185.246952753221
 40
4.00000000000043
100
AcDbArc
 50
-22.5000000000028
 51
-202.500000000003
  0
LINE
  5
40C
100
AcDbEntity
  8
BASE
100
AcDbLine
  6
BYLAYER
370
0
 10
87.706754554383
 20
161.081170477233
 11
97.0824986473279
 21
183.71621902376
  0
ARC
  5
40D
100
AcDbEntity
  8
BASE
100
AcDbCircle
  6
BYLAYER
 10
136.490303825588
 20
189.69224338264
 40
0.500000000001556
100
AcDbArc
 50
182.256860558877
 51
191.301887391719
  0
ARC
  5
40E
100
AcDbEntity
  8
BASE
100
AcDbCircle
  6
BYLAYER
 10
123.999999723925
 20
189.20000010131
 40
11.9999999999998
100
AcDbArc
 50
2.2568605590464
 51
90
  0
LINE
  5
40F
100
AcDbEntity
  8
BASE
100
AcDbLine
  6
BYLAYER
 10
123.999999723925
 20
201.20000010131
 11
17.9999997239245
 21
201.20000010131
  0
ARC
  5
410
100
AcDbEntity
  8
BASE
100
AcDbCircle
  6
BYLAYER
 10
17.9999997239263
 20
189.200000101309
 40
12.000000000001
100
AcDbArc
 50
90
 51
177.743139440967
  0
ARC
  5
411
100
AcDbEntity
  8
0
100
AcDbCircle
  6
BYLAYER
 10
5.50969562226305
 20
189.692243382639
 40
0.500000000000566
100
AcDbArc
 50
348.698112608114
 51
357.743139440875
  0
LINE
  5
412
100
AcDbEntity
  8
0
100
AcDbLine
  6
BYLAYER
 10
5.99999972391993
 20
189.594254159257
 11
4.79999972392011
 21
189.594254159257
  0
LINE
  5
413
100
AcDbEntity
  8
0
100
AcDbLine
  6
BYLAYER
 10
4.79999972392011
 20
189.594254159257
 11
4.79999972392102
 21
1.20000010130968
  0
ENDBLK
  5
414
100
AcDbEntity
  8
0
 67
     1
100
AcDbBlockEnd
  0
BLOCK
  5
415
100
AcDbEntity
  8
0
100
AcDbBlockBegin
  2
A$C0D537ECF
 70
    0
 10
0
 20
0
 30
0.0
  3
A$C0D537ECF
  1

  0
CIRCLE
  5
416
100
AcDbEntity
  8
CEN
100
AcDbCircle
  6
BYLAYER
 10
70.9999997239245
 20
131.200000671163
 40
71
  0
LINE
  5
417
100
AcDbEntity
  8
PV-236
100
AcDbLine
  6
BYLAYER
 10
137.19999972393
 20
6.711620131E-7
 11
4.7999997239192
 21
6.711620131E-7
  0
LINE
  5
418
100
AcDbEntity
  8
PV-236
100
AcDbLine
  6
BYLAYER
 10
137.19999972393
 20
15.000000671162
 11
138.39999972393
 21
15.000000671162
  0
LINE
  5
419
100
AcDbEntity
  8
0
100
AcDbLine
  6
BYLAYER
 10
137.19999972393
 20
189.594254729112
 11
137.199999723928
 21
1.20000067116206
  0
LINE
  5
41A
100
AcDbEntity
  8
0
100
AcDbLine
  6
BYLAYER
 10
138.39999972393
 20
15.000000671162
 11
138.39999972393
 21
1.20000067116206
  0
ARC
  5
41B
100
AcDbEntity
  8
0
100
AcDbCircle
  6
BYLAYER
 10
137.19999972393
 20
1.20000067116206
 40
1.2
100
AcDbArc
 50
270
 51
0
  0
LINE
  5
41C
100
AcDbEntity
  8
0
100
AcDbLine
  6
BYLAYER
 10
135.999999723929
 20
189.594254729112
 11
137.19999972393
 21
189.594254729112
  0
LINE
  5
41D
100
AcDbEntity
  8
PV-236
100
AcDbLine
  6
BYLAYER
 10
4.7999997239192
 20
15.000000671162
 11
3.59999972391938
 21
15.000000671162
  0
LINE
  5
41E
100
AcDbEntity
  8
0
100
AcDbLine
  6
BYLAYER
 10
3.59999972391938
 20
15.000000671162
 11
3.59999972391938
 21
1.20000067116206
  0
ARC
  5
41F
100
AcDbEntity
  8
0
100
AcDbCircle
  6
BYLAYER
 10
4.7999997239192
 20
1.20000067116206
 40
1.2
100
AcDbArc
 50
180
 51
270
  0
ARC
  5
420
100
AcDbEntity
  8
BASE
100
AcDbCircle
  6
BYLAYER
 10
136.490303825588
 20
189.692243952492
 40
0.500000000001556
100
AcDbArc
 50
182.256860558877
 51
191.301887391719
  0
ARC
  5
421
100
AcDbEntity
  8
BASE
100
AcDbCircle
  6
BYLAYER
 10
123.999999723925
 20
189.200000671162
 40
11.9999999999998
100
AcDbArc
 50
2.25686055904627
 51
90
  0
LINE
  5
422
100
AcDbEntity
  8
BASE
100
AcDbLine
  6
BYLAYER
 10
123.999999723925
 20
201.200000671162
 11
17.9999997239245
 21
201.200000671162
  0
ARC
  5
423
100
AcDbEntity
  8
BASE
100
AcDbCircle
  6
BYLAYER
 10
17.9999997239263
 20
189.200000671161
 40
12.000000000001
100
AcDbArc
 50
90
 51
177.743139440967
  0
ARC
  5
424
100
AcDbEntity
  8
0
100
AcDbCircle
  6
BYLAYER
 10
5.50969562226305
 20
189.692243952492
 40
0.500000000000566
100
AcDbArc
 50
348.698112608115
 51
357.743139440875
  0
LINE
  5
425
100
AcDbEntity
  8
0
100
AcDbLine
  6
BYLAYER
 10
5.99999972391993
 20
189.594254729109
 11
4.79999972392011
 21
189.594254729109
  0
LINE
  5
426
100
AcDbEntity
  8
0
100
AcDbLine
  6
BYLAYER
 10
4.79999972392011
 20
189.594254729109
 11
4.79999972392102
 21
1.20000067116206
  0
ENDBLK
  5
427
100
AcDbEntity
  8
0
 67
     1
100
AcDbBlockEnd
  0
BLOCK
  5
428
100
AcDbEntity
  8
0
100
AcDbBlockBegin
  2
A$C7C7C723F
 70
    0
 10
0
 20
0
 30
0.0
  3
A$C7C7C723F
  1

  0
LINE
  5
429
100
AcDbEntity
  8
M
100
AcDbLine
  6
BYLAYER
 10
115.00223028129
 20
113.900002754027
 11
109.00223028129
 21
113.900002754027
  0
ARC
  5
42A
100
AcDbEntity
  8
M
100
AcDbCircle
  6
BYLAYER
 10
109.00223028129
 20
117.400002754027
 40
3.5
100
AcDbArc
 50
90
 51
270
  0
LINE
  5
42B
100
AcDbEntity
  8
M
100
AcDbLine
  6
BYLAYER
 10
109.00223028129
 20
120.900002754027
 11
115.00223028129
 21
120.900002754027
  0
ARC
  5
42C
100
AcDbEntity
  8
M
100
AcDbCircle
  6
BYLAYER
 10
115.00223028129
 20
117.400002754027
 40
3.5
100
AcDbArc
 50
270
 51
90
  0
LINE
  5
42D
100
AcDbEntity
  8
M
100
AcDbLine
  6
BYLAYER
 10
15.0022266656804
 20
113.900002754028
 11
9.00222666568038
 21
113.900002754028
  0
ARC
  5
42E
100
AcDbEntity
  8
M
100
AcDbCircle
  6
BYLAYER
 10
9.00222666568038
 20
117.400002754027
 40
3.5
100
AcDbArc
 50
90
 51
270
  0
LINE
  5
42F
100
AcDbEntity
  8
M
100
AcDbLine
  6
BYLAYER
 10
9.00222666568038
 20
120.900002754028
 11
15.0022266656804
 21
120.900002754028
  0
ARC
  5
430
100
AcDbEntity
  8
M
100
AcDbCircle
  6
BYLAYER
 10
15.0022266656804
 20
117.400002754027
 40
3.5
100
AcDbArc
 50
270
 51
90
  0
LINE
  5
431
100
AcDbEntity
  8
M
100
AcDbLine
  6
BYLAYER
 10
14.9999937459822
 20
13.9000027540276
 11
8.99999374598224
 21
13.9000027540276
  0
ARC
  5
432
100
AcDbEntity
  8
M
100
AcDbCircle
  6
BYLAYER
 10
8.99999374598224
 20
17.4000027540276
 40
3.5
100
AcDbArc
 50
90
 51
270
  0
LINE
  5
433
100
AcDbEntity
  8
M
100
AcDbLine
  6
BYLAYER
 10
8.99999374598224
 20
20.9000027540276
 11
14.9999937459822
 21
20.9000027540276
  0
ARC
  5
434
100
AcDbEntity
  8
M
100
AcDbCircle
  6
BYLAYER
 10
14.9999937459822
 20
17.4000027540276
 40
3.5
100
AcDbArc
 50
270
 51
90
  0
LINE
  5
435
100
AcDbEntity
  8
M
100
AcDbLine
  6
BYLAYER
 10
114.999997361592
 20
13.9000027540285
 11
108.999997361592
 21
13.9000027540285
  0
ARC
  5
436
100
AcDbEntity
  8
M
100
AcDbCircle
  6
BYLAYER
 10
108.999997361592
 20
17.4000027540276
 40
3.5
100
AcDbArc
 50
90
 51
270
  0
LINE
  5
437
100
AcDbEntity
  8
M
100
AcDbLine
  6
BYLAYER
 10
108.999997361592
 20
20.9000027540285
 11
114.999997361592
 21
20.9000027540285
  0
ARC
  5
438
100
AcDbEntity
  8
M
100
AcDbCircle
  6
BYLAYER
 10
114.999997361592
 20
17.4000027540276
 40
3.5
100
AcDbArc
 50
270
 51
90
  0
LINE
  5
439
100
AcDbEntity
  8
M
100
AcDbLine
  6
BYLAYER
 10
129.999997361592
 20
132.400002754026
 11
129.999997361592
 21
2.40000275402758
  0
LINE
  5
43A
100
AcDbEntity
  8
M
100
AcDbLine
  6
BYLAYER
 10
114.999997361592
 20
2.40000275403213
 11
114.999997361591
 21
1.20000275402685
  0
LINE
  5
43B
100
AcDbEntity
  8
M
100
AcDbLine
  6
BYLAYER
 10
131.199997361591
 20
2.40000275402667
 11
131.199997361592
 21
132.400002754027
  0
LINE
  5
43C
100
AcDbEntity
  8
M
100
AcDbLine
  6
BYLAYER
 10
114.999997361592
 20
2.40000275403213
 11
129.999997361592
 21
2.40000275402758
  0
LINE
  5
43D
100
AcDbEntity
  8
M
100
AcDbLine
  6
BYLAYER
 10
12.0480726005349
 20
1.20000275402685
 11
129.999997361591
 21
1.20000275402685
  0
ARC
  5
43E
100
AcDbEntity
  8
M
100
AcDbCircle
  6
BYLAYER
 10
129.999997361591
 20
2.40000275402667
 40
1.2
100
AcDbArc
 50
270
 51
0
  0
LINE
  5
43F
100
AcDbEntity
  8
M
100
AcDbLine
  6
BYLAYER
 10
12.0480726005351
 20
2.7540270366E-6
 11
128.749997361591
 21
2.7540279461E-6
  0
LINE
  5
440
100
AcDbEntity
  8
M
100
AcDbLine
  6
BYLAYER
 10
114.999997361592
 20
132.40000275402
 11
114.999997361591
 21
133.600002754026
  0
LINE
  5
441
100
AcDbEntity
  8
M
100
AcDbLine
  6
BYLAYER
 10
114.999997361592
 20
132.40000275402
 11
129.999997361592
 21
132.400002754026
  0
LINE
  5
442
100
AcDbEntity
  8
M
100
AcDbLine
  6
BYLAYER
 10
12.0480726005349
 20
133.600002754027
 11
129.999997361592
 21
133.600002754026
  0
ARC
  5
443
100
AcDbEntity
  8
M
100
AcDbCircle
  6
BYLAYER
 10
129.999997361592
 20
132.400002754027
 40
1.2
100
AcDbArc
 50
0
 51
90
  0
LINE
  5
444
100
AcDbEntity
  8
M
100
AcDbLine
  6
BYLAYER
 10
12.0480726005351
 20
134.800002754026
 11
128.749997361591
 21
134.800002754026
  0
LINE
  5
445
100
AcDbEntity
  8
M
100
AcDbLine
  6
BYLAYER
 10
128.749997361591
 20
133.600002754026
 11
128.749997361591
 21
134.800002754025
  0
LINE
  5
446
100
AcDbEntity
  8
M
100
AcDbLine
  6
BYLAYER
 10
128.749997361591
 20
1.20000275402685
 11
128.749997361591
 21
2.7540279461E-6
  0
LINE
  5
447
100
AcDbEntity
  8
M
100
AcDbLine
  6
BYLAYER
 10
133.199997361591
 20
78.9082957292919
 11
133.199997361592
 21
91.2899272725397
  0
LINE
  5
448
100
AcDbEntity
  8
M
100
AcDbLine
  6
BYLAYER
 10
131.999997361591
 20
78.908295729291
 11
131.999997361593
 21
91.2899272725406
  0
ARC
  5
449
100
AcDbEntity
  8
M
100
AcDbCircle
  6
BYLAYER
 10
131.999997361593
 20
91.2899272725406
 40
1.2
100
AcDbArc
 50
0
 51
45.0000000000089
  0
ARC
  5
44A
100
AcDbEntity
  8
M
100
AcDbCircle
  6
BYLAYER
 10
131.999997361592
 20
78.9082957292919
 40
1.2
100
AcDbArc
 50
314.999999999991
 51
0
  0
LINE
  5
44B
100
AcDbEntity
  8
M
100
AcDbLine
  6
BYLAYER
 10
131.199997361591
 20
76.4112394544434
 11
132.848525499016
 21
78.0597675918677
  0
LINE
  5
44C
100
AcDbEntity
  8
M
100
AcDbLine
  6
BYLAYER
 10
130.351469224167
 20
77.2597675918666
 11
131.999997361592
 21
78.9082957292919
  0
LINE
  5
44D
100
AcDbEntity
  8
M
100
AcDbLine
  6
BYLAYER
 10
132.848525499016
 20
92.1384554099648
 11
131.199997361592
 21
93.7869835473891
  0
LINE
  5
44E
100
AcDbEntity
  8
M
100
AcDbLine
  6
BYLAYER
 10
131.999997361593
 20
91.2899272725406
 11
130.351469224168
 21
92.9384554099658
  0
ARC
  5
44F
100
AcDbEntity
  8
M
100
AcDbCircle
  6
BYLAYER
 10
131.199997361592
 20
76.4112394544434
 40
1.2
100
AcDbArc
 50
134.999999999991
 51
180
  0
ARC
  5
450
100
AcDbEntity
  8
M
100
AcDbCircle
  6
BYLAYER
 10
131.199997361592
 20
93.7869835473891
 40
1.2
100
AcDbArc
 50
180
 51
225.000000000009
  0
LINE
  5
451
100
AcDbEntity
  8
M
100
AcDbLine
  6
BYLAYER
 10
133.199997361592
 20
97.3089631342634
 11
133.199997361592
 21
122.949899131094
  0
LINE
  5
452
100
AcDbEntity
  8
M
100
AcDbLine
  6
BYLAYER
 10
131.999997361591
 20
97.3089631342634
 11
131.999997361591
 21
122.949899131094
  0
ARC
  5
453
100
AcDbEntity
  8
M
100
AcDbCircle
  6
BYLAYER
 10
131.199997361592
 20
94.8119068594158
 40
1.2
100
AcDbArc
 50
134.999999999991
 51
180
  0
LINE
  5
454
100
AcDbEntity
  8
M
100
AcDbLine
  6
BYLAYER
 10
131.199997361592
 20
94.8119068594158
 11
132.848525499015
 21
96.4604349968383
  0
LINE
  5
455
100
AcDbEntity
  8
M
100
AcDbLine
  6
BYLAYER
 10
130.351469224168
 20
95.660434996839
 11
131.999997361591
 21
97.3089631342634
  0
ARC
  5
456
100
AcDbEntity
  8
M
100
AcDbCircle
  6
BYLAYER
 10
131.999997361591
 20
97.3089631342634
 40
1.2
100
AcDbArc
 50
314.999999999991
 51
0
  0
ARC
  5
457
100
AcDbEntity
  8
M
100
AcDbCircle
  6
BYLAYER
 10
131.199997361592
 20
125.446955405942
 40
1.2
100
AcDbArc
 50
180
 51
225.000000000009
  0
LINE
  5
458
100
AcDbEntity
  8
M
100
AcDbLine
  6
BYLAYER
 10
131.199997361592
 20
125.446955405942
 11
132.848525499015
 21
123.798427268518
  0
LINE
  5
459
100
AcDbEntity
  8
M
100
AcDbLine
  6
BYLAYER
 10
130.351469224168
 20
124.598427268517
 11
131.999997361591
 21
122.949899131094
  0
ARC
  5
45A
100
AcDbEntity
  8
M
100
AcDbCircle
  6
BYLAYER
 10
131.999997361591
 20
122.949899131094
 40
1.2
100
AcDbArc
 50
0
 51
45.0000000000089
  0
LINE
  5
45B
100
AcDbEntity
  8
M
100
AcDbLine
  6
BYLAYER
 10
133.199997361591
 20
55.8917097787614
 11
133.199997361592
 21
43.5100782355137
  0
LINE
  5
45C
100
AcDbEntity
  8
M
100
AcDbLine
  6
BYLAYER
 10
131.999997361591
 20
55.8917097787623
 11
131.999997361593
 21
43.5100782355128
  0
ARC
  5
45D
100
AcDbEntity
  8
M
100
AcDbCircle
  6
BYLAYER
 10
131.999997361593
 20
43.5100782355128
 40
1.2
100
AcDbArc
 50
314.999999999991
 51
0
  0
ARC
  5
45E
100
AcDbEntity
  8
M
100
AcDbCircle
  6
BYLAYER
 10
131.999997361592
 20
55.8917097787614
 40
1.2
100
AcDbArc
 50
0
 51
45.0000000000089
  0
LINE
  5
45F
100
AcDbEntity
  8
M
100
AcDbLine
  6
BYLAYER
 10
131.199997361591
 20
58.38876605361
 11
132.848525499016
 21
56.7402379161856
  0
LINE
  5
460
100
AcDbEntity
  8
M
100
AcDbLine
  6
BYLAYER
 10
130.351469224167
 20
57.5402379161867
 11
131.999997361592
 21
55.8917097787614
  0
LINE
  5
461
100
AcDbEntity
  8
M
100
AcDbLine
  6
BYLAYER
 10
132.848525499016
 20
42.6615500980886
 11
131.199997361592
 21
41.0130219606642
  0
LINE
  5
462
100
AcDbEntity
  8
M
100
AcDbLine
  6
BYLAYER
 10
131.999997361593
 20
43.5100782355128
 11
130.351469224168
 21
41.8615500980875
  0
ARC
  5
463
100
AcDbEntity
  8
M
100
AcDbCircle
  6
BYLAYER
 10
131.199997361592
 20
58.38876605361
 40
1.2
100
AcDbArc
 50
180
 51
225.000000000009
  0
ARC
  5
464
100
AcDbEntity
  8
M
100
AcDbCircle
  6
BYLAYER
 10
131.199997361592
 20
41.0130219606642
 40
1.2
100
AcDbArc
 50
134.999999999991
 51
180
  0
LINE
  5
465
100
AcDbEntity
  8
M
100
AcDbLine
  6
BYLAYER
 10
133.199997361592
 20
37.4910423737899
 11
133.199997361592
 21
11.8501063769588
  0
LINE
  5
466
100
AcDbEntity
  8
M
100
AcDbLine
  6
BYLAYER
 10
131.999997361591
 20
37.4910423737899
 11
131.999997361591
 21
11.8501063769597
  0
ARC
  5
467
100
AcDbEntity
  8
M
100
AcDbCircle
  6
BYLAYER
 10
131.199997361592
 20
39.9880986486376
 40
1.2
100
AcDbArc
 50
180
 51
225.000000000009
  0
LINE
  5
468
100
AcDbEntity
  8
M
100
AcDbLine
  6
BYLAYER
 10
131.199997361592
 20
39.9880986486376
 11
132.848525499015
 21
38.339570511215
  0
LINE
  5
469
100
AcDbEntity
  8
M
100
AcDbLine
  6
BYLAYER
 10
130.351469224168
 20
39.1395705112143
 11
131.999997361591
 21
37.4910423737899
  0
ARC
  5
46A
100
AcDbEntity
  8
M
100
AcDbCircle
  6
BYLAYER
 10
131.999997361591
 20
37.4910423737899
 40
1.2
100
AcDbArc
 50
0
 51
45.0000000000089
  0
ARC
  5
46B
100
AcDbEntity
  8
M
100
AcDbCircle
  6
BYLAYER
 10
131.199997361592
 20
9.35305010211118
 40
1.2
100
AcDbArc
 50
134.999999999991
 51
180
  0
LINE
  5
46C
100
AcDbEntity
  8
M
100
AcDbLine
  6
BYLAYER
 10
131.199997361592
 20
9.35305010211118
 11
132.848525499015
 21
11.0015782395355
  0
LINE
  5
46D
100
AcDbEntity
  8
M
100
AcDbLine
  6
BYLAYER
 10
130.351469224168
 20
10.2015782395363
 11
131.999997361591
 21
11.8501063769588
  0
ARC
  5
46E
100
AcDbEntity
  8
M
100
AcDbCircle
  6
BYLAYER
 10
131.999997361591
 20
11.8501063769588
 40
1.2
100
AcDbArc
 50
314.999999999991
 51
0
  0
ARC
  5
46F
100
AcDbEntity
  8
M
100
AcDbCircle
  6
BYLAYER
 10
11.9999973615918
 20
120.400002754026
 40
12.0000000000011
100
AcDbArc
 50
92.2568605590399
 51
179.999999999974
  0
LINE
  5
470
100
AcDbEntity
  8
M
100
AcDbLine
  6
BYLAYER
 10
-2.6384093417E-6
 20
120.400002754027
 11
-2.6384075227E-6
 21
14.4000027540267
  0
ARC
  5
471
100
AcDbEntity
  8
M
100
AcDbCircle
  6
BYLAYER
 10
11.9999973615936
 20
14.4000027540276
 40
12.000000000001
100
AcDbArc
 50
180
 51
267.74313944096
  0
ARC
  5
472
100
AcDbEntity
  8
M
100
AcDbCircle
  6
BYLAYER
 10
11.5077522724575
 20
1.90969865236525
 40
0.500000000000094
100
AcDbArc
 50
1.81271243604719
 51
87.7431394409275
  0
ARC
  5
473
100
AcDbEntity
  8
M
100
AcDbCircle
  6
BYLAYER
 10
26.9999955537876
 20
2.40000275402758
 40
15.0000000000003
100
AcDbArc
 50
181.812712436099
 51
184.588565735782
  0
LINE
  5
474
100
AcDbEntity
  8
M
100
AcDbLine
  6
BYLAYER
 10
12.0480726005349
 20
1.20000275402594
 11
12.0480726005349
 21
2.7540270366E-6
  0
ARC
  5
475
100
AcDbEntity
  8
M
100
AcDbCircle
  6
BYLAYER
 10
11.5077522724575
 20
132.890306855688
 40
0.500000000000094
100
AcDbArc
 50
272.256860559072
 51
358.187287563953
  0
ARC
  5
476
100
AcDbEntity
  8
M
100
AcDbCircle
  6
BYLAYER
 10
26.9999955537876
 20
132.400002754026
 40
15.0000000000003
100
AcDbArc
 50
175.411434264218
 51
178.187287563901
  0
LINE
  5
477
100
AcDbEntity
  8
M
100
AcDbLine
  6
BYLAYER
 10
12.0480726005349
 20
133.600002754027
 11
12.0480726005349
 21
134.800002754026
  0
ENDBLK
  5
478
100
AcDbEntity
  8
0
 67
     1
100
AcDbBlockEnd
  0
BLOCK
  5
479
100
AcDbEntity
  8
0
100
AcDbBlockBegin
  2
A$C0E457A76
 70
    0
 10
0
 20
0
 30
0.0
  3
A$C0E457A76
  1

  0
LINE
  5
47A
100
AcDbEntity
  8
M
100
AcDbLine
  6
BYLAYER
 10
115.002237887763
 20
113.900001153885
 11
109.002237887763
 21
113.900001153885
  0
ARC
  5
47B
100
AcDbEntity
  8
M
100
AcDbCircle
  6
BYLAYER
 10
109.002237887763
 20
117.400001153885
 40
3.5
100
AcDbArc
 50
90
 51
270
  0
LINE
  5
47C
100
AcDbEntity
  8
M
100
AcDbLine
  6
BYLAYER
 10
109.002237887763
 20
120.900001153885
 11
115.002237887763
 21
120.900001153885
  0
ARC
  5
47D
100
AcDbEntity
  8
M
100
AcDbCircle
  6
BYLAYER
 10
115.002237887763
 20
117.400001153885
 40
3.5
100
AcDbArc
 50
270
 51
90
  0
LINE
  5
47E
100
AcDbEntity
  8
M
100
AcDbLine
  6
BYLAYER
 10
15.0022342721538
 20
113.900001153886
 11
9.00223427215377
 21
113.900001153886
  0
ARC
  5
47F
100
AcDbEntity
  8
M
100
AcDbCircle
  6
BYLAYER
 10
9.00223427215377
 20
117.400001153886
 40
3.5
100
AcDbArc
 50
90
 51
270
  0
LINE
  5
480
100
AcDbEntity
  8
M
100
AcDbLine
  6
BYLAYER
 10
9.00223427215377
 20
120.900001153886
 11
15.0022342721538
 21
120.900001153886
  0
ARC
  5
481
100
AcDbEntity
  8
M
100
AcDbCircle
  6
BYLAYER
 10
15.0022342721538
 20
117.400001153886
 40
3.5
100
AcDbArc
 50
270
 51
90
  0
LINE
  5
482
100
AcDbEntity
  8
M
100
AcDbLine
  6
BYLAYER
 10
15.0000013524556
 20
13.9000011538862
 11
9.00000135245563
 21
13.9000011538862
  0
ARC
  5
483
100
AcDbEntity
  8
M
100
AcDbCircle
  6
BYLAYER
 10
9.00000135245563
 20
17.4000011538862
 40
3.5
100
AcDbArc
 50
90
 51
270
  0
LINE
  5
484
100
AcDbEntity
  8
M
100
AcDbLine
  6
BYLAYER
 10
9.00000135245563
 20
20.9000011538862
 11
15.0000013524556
 21
20.9000011538862
  0
ARC
  5
485
100
AcDbEntity
  8
M
100
AcDbCircle
  6
BYLAYER
 10
15.0000013524556
 20
17.4000011538862
 40
3.5
100
AcDbArc
 50
270
 51
90
  0
LINE
  5
486
100
AcDbEntity
  8
M
100
AcDbLine
  6
BYLAYER
 10
115.000004968065
 20
13.9000011538872
 11
109.000004968065
 21
13.9000011538872
  0
ARC
  5
487
100
AcDbEntity
  8
M
100
AcDbCircle
  6
BYLAYER
 10
109.000004968065
 20
17.4000011538862
 40
3.5
100
AcDbArc
 50
90
 51
270
  0
LINE
  5
488
100
AcDbEntity
  8
M
100
AcDbLine
  6
BYLAYER
 10
109.000004968065
 20
20.9000011538872
 11
115.000004968065
 21
20.9000011538872
  0
ARC
  5
489
100
AcDbEntity
  8
M
100
AcDbCircle
  6
BYLAYER
 10
115.000004968065
 20
17.4000011538862
 40
3.5
100
AcDbArc
 50
270
 51
90
  0
LINE
  5
48A
100
AcDbEntity
  8
M
100
AcDbLine
  6
BYLAYER
 10
130.000004968065
 20
132.400001153884
 11
130.000004968065
 21
2.40000115388625
  0
LINE
  5
48B
100
AcDbEntity
  8
M
100
AcDbLine
  6
BYLAYER
 10
115.000004968065
 20
2.4000011538908
 11
115.000004968065
 21
1.20000115388552
  0
LINE
  5
48C
100
AcDbEntity
  8
M
100
AcDbLine
  6
BYLAYER
 10
131.200004968065
 20
2.40000115388534
 11
131.200004968065
 21
132.400001153885
  0
LINE
  5
48D
100
AcDbEntity
  8
M
100
AcDbLine
  6
BYLAYER
 10
115.000004968065
 20
2.4000011538908
 11
130.000004968065
 21
2.40000115388625
  0
LINE
  5
48E
100
AcDbEntity
  8
M
100
AcDbLine
  6
BYLAYER
 10
12.0480802070082
 20
1.20000115388552
 11
130.000004968065
 21
1.20000115388552
  0
ARC
  5
48F
100
AcDbEntity
  8
M
100
AcDbCircle
  6
BYLAYER
 10
130.000004968065
 20
2.40000115388534
 40
1.2
100
AcDbArc
 50
270
 51
0
  0
LINE
  5
490
100
AcDbEntity
  8
M
100
AcDbLine
  6
BYLAYER
 10
12.0480802070085
 20
1.1538857052E-6
 11
128.750004968065
 21
1.1538866147E-6
  0
LINE
  5
491
100
AcDbEntity
  8
M
100
AcDbLine
  6
BYLAYER
 10
115.000004968065
 20
132.400001153879
 11
115.000004968065
 21
133.600001153884
  0
LINE
  5
492
100
AcDbEntity
  8
M
100
AcDbLine
  6
BYLAYER
 10
115.000004968065
 20
132.400001153879
 11
130.000004968065
 21
132.400001153884
  0
LINE
  5
493
100
AcDbEntity
  8
M
100
AcDbLine
  6
BYLAYER
 10
12.0480802070082
 20
133.600001153886
 11
130.000004968065
 21
133.600001153885
  0
ARC
  5
494
100
AcDbEntity
  8
M
100
AcDbCircle
  6
BYLAYER
 10
130.000004968065
 20
132.400001153885
 40
1.2
100
AcDbArc
 50
0
 51
90
  0
LINE
  5
495
100
AcDbEntity
  8
M
100
AcDbLine
  6
BYLAYER
 10
12.0480802070085
 20
134.800001153885
 11
128.750004968065
 21
134.800001153885
  0
LINE
  5
496
100
AcDbEntity
  8
M
100
AcDbLine
  6
BYLAYER
 10
128.750004968065
 20
133.600001153885
 11
128.750004968065
 21
134.800001153884
  0
LINE
  5
497
100
AcDbEntity
  8
M
100
AcDbLine
  6
BYLAYER
 10
128.750004968065
 20
1.20000115388552
 11
128.750004968065
 21
1.1538866147E-6
  0
LINE
  5
498
100
AcDbEntity
  8
M
100
AcDbLine
  6
BYLAYER
 10
133.200004968064
 20
78.9082941291506
 11
133.200004968066
 21
91.2899256723983
  0
LINE
  5
499
100
AcDbEntity
  8
M
100
AcDbLine
  6
BYLAYER
 10
132.000004968064
 20
78.9082941291497
 11
132.000004968066
 21
91.2899256723992
  0
ARC
  5
49A
100
AcDbEntity
  8
M
100
AcDbCircle
  6
BYLAYER
 10
132.000004968066
 20
91.2899256723992
 40
1.2
100
AcDbArc
 50
0
 51
45.0000000000092
  0
ARC
  5
49B
100
AcDbEntity
  8
M
100
AcDbCircle
  6
BYLAYER
 10
132.000004968066
 20
78.9082941291506
 40
1.2
100
AcDbArc
 50
314.999999999991
 51
0
  0
LINE
  5
49C
100
AcDbEntity
  8
M
100
AcDbLine
  6
BYLAYER
 10
131.200004968064
 20
76.411237854302
 11
132.848533105489
 21
78.0597659917264
  0
LINE
  5
49D
100
AcDbEntity
  8
M
100
AcDbLine
  6
BYLAYER
 10
130.351476830641
 20
77.2597659917253
 11
132.000004968066
 21
78.9082941291506
  0
LINE
  5
49E
100
AcDbEntity
  8
M
100
AcDbLine
  6
BYLAYER
 10
132.84853310549
 20
92.1384538098234
 11
131.200004968065
 21
93.7869819472478
  0
LINE
  5
49F
100
AcDbEntity
  8
M
100
AcDbLine
  6
BYLAYER
 10
132.000004968066
 20
91.2899256723992
 11
130.351476830641
 21
92.9384538098245
  0
ARC
  5
4A0
100
AcDbEntity
  8
M
100
AcDbCircle
  6
BYLAYER
 10
131.200004968065
 20
76.411237854302
 40
1.2
100
AcDbArc
 50
134.999999999991
 51
180
  0
ARC
  5
4A1
100
AcDbEntity
  8
M
100
AcDbCircle
  6
BYLAYER
 10
131.200004968065
 20
93.7869819472478
 40
1.2
100
AcDbArc
 50
180
 51
225.000000000009
  0
LINE
  5
4A2
100
AcDbEntity
  8
M
100
AcDbLine
  6
BYLAYER
 10
133.200004968065
 20
97.3089615341221
 11
133.200004968065
 21
122.949897530953
  0
LINE
  5
4A3
100
AcDbEntity
  8
M
100
AcDbLine
  6
BYLAYER
 10
132.000004968065
 20
97.3089615341221
 11
132.000004968065
 21
122.949897530952
  0
ARC
  5
4A4
100
AcDbEntity
  8
M
100
AcDbCircle
  6
BYLAYER
 10
131.200004968065
 20
94.8119052592745
 40
1.2
100
AcDbArc
 50
134.999999999991
 51
180
  0
LINE
  5
4A5
100
AcDbEntity
  8
M
100
AcDbLine
  6
BYLAYER
 10
131.200004968065
 20
94.8119052592745
 11
132.848533105488
 21
96.460433396697
  0
LINE
  5
4A6
100
AcDbEntity
  8
M
100
AcDbLine
  6
BYLAYER
 10
130.351476830641
 20
95.6604333966977
 11
132.000004968065
 21
97.3089615341221
  0
ARC
  5
4A7
100
AcDbEntity
  8
M
100
AcDbCircle
  6
BYLAYER
 10
132.000004968065
 20
97.3089615341221
 40
1.2
100
AcDbArc
 50
314.999999999991
 51
0
  0
ARC
  5
4A8
100
AcDbEntity
  8
M
100
AcDbCircle
  6
BYLAYER
 10
131.200004968065
 20
125.446953805801
 40
1.2
100
AcDbArc
 50
180
 51
225.000000000009
  0
LINE
  5
4A9
100
AcDbEntity
  8
M
100
AcDbLine
  6
BYLAYER
 10
131.200004968065
 20
125.446953805801
 11
132.848533105488
 21
123.798425668376
  0
LINE
  5
4AA
100
AcDbEntity
  8
M
100
AcDbLine
  6
BYLAYER
 10
130.351476830641
 20
124.598425668376
 11
132.000004968065
 21
122.949897530953
  0
ARC
  5
4AB
100
AcDbEntity
  8
M
100
AcDbCircle
  6
BYLAYER
 10
132.000004968065
 20
122.949897530953
 40
1.2
100
AcDbArc
 50
0
 51
45.0000000000092
  0
LINE
  5
4AC
100
AcDbEntity
  8
M
100
AcDbLine
  6
BYLAYER
 10
133.200004968064
 20
55.8917081786201
 11
133.200004968066
 21
43.5100766353723
  0
LINE
  5
4AD
100
AcDbEntity
  8
M
100
AcDbLine
  6
BYLAYER
 10
132.000004968064
 20
55.891708178621
 11
132.000004968066
 21
43.5100766353714
  0
ARC
  5
4AE
100
AcDbEntity
  8
M
100
AcDbCircle
  6
BYLAYER
 10
132.000004968066
 20
43.5100766353714
 40
1.2
100
AcDbArc
 50
314.999999999991
 51
0
  0
ARC
  5
4AF
100
AcDbEntity
  8
M
100
AcDbCircle
  6
BYLAYER
 10
132.000004968066
 20
55.8917081786201
 40
1.2
100
AcDbArc
 50
0
 51
45.0000000000092
  0
LINE
  5
4B0
100
AcDbEntity
  8
M
100
AcDbLine
  6
BYLAYER
 10
131.200004968064
 20
58.3887644534686
 11
132.848533105489
 21
56.7402363160443
  0
LINE
  5
4B1
100
AcDbEntity
  8
M
100
AcDbLine
  6
BYLAYER
 10
130.351476830641
 20
57.5402363160454
 11
132.000004968066
 21
55.8917081786201
  0
LINE
  5
4B2
100
AcDbEntity
  8
M
100
AcDbLine
  6
BYLAYER
 10
132.84853310549
 20
42.6615484979473
 11
131.200004968065
 21
41.0130203605229
  0
LINE
  5
4B3
100
AcDbEntity
  8
M
100
AcDbLine
  6
BYLAYER
 10
132.000004968066
 20
43.5100766353714
 11
130.351476830641
 21
41.8615484979462
  0
ARC
  5
4B4
100
AcDbEntity
  8
M
100
AcDbCircle
  6
BYLAYER
 10
131.200004968065
 20
58.3887644534686
 40
1.2
100
AcDbArc
 50
180
 51
225.000000000009
  0
ARC
  5
4B5
100
AcDbEntity
  8
M
100
AcDbCircle
  6
BYLAYER
 10
131.200004968065
 20
41.0130203605229
 40
1.2
100
AcDbArc
 50
134.999999999991
 51
180
  0
LINE
  5
4B6
100
AcDbEntity
  8
M
100
AcDbLine
  6
BYLAYER
 10
133.200004968065
 20
37.4910407736486
 11
133.200004968065
 21
11.8501047768175
  0
LINE
  5
4B7
100
AcDbEntity
  8
M
100
AcDbLine
  6
BYLAYER
 10
132.000004968065
 20
37.4910407736486
 11
132.000004968065
 21
11.8501047768184
  0
ARC
  5
4B8
100
AcDbEntity
  8
M
100
AcDbCircle
  6
BYLAYER
 10
131.200004968065
 20
39.9880970484962
 40
1.2
100
AcDbArc
 50
180
 51
225.000000000009
  0
LINE
  5
4B9
100
AcDbEntity
  8
M
100
AcDbLine
  6
BYLAYER
 10
131.200004968065
 20
39.9880970484962
 11
132.848533105488
 21
38.3395689110737
  0
LINE
  5
4BA
100
AcDbEntity
  8
M
100
AcDbLine
  6
BYLAYER
 10
130.351476830641
 20
39.139568911073
 11
132.000004968065
 21
37.4910407736486
  0
ARC
  5
4BB
100
AcDbEntity
  8
M
100
AcDbCircle
  6
BYLAYER
 10
132.000004968065
 20
37.4910407736486
 40
1.2
100
AcDbArc
 50
0
 51
45.0000000000092
  0
ARC
  5
4BC
100
AcDbEntity
  8
M
100
AcDbCircle
  6
BYLAYER
 10
131.200004968065
 20
9.35304850196985
 40
1.2
100
AcDbArc
 50
134.999999999991
 51
180
  0
LINE
  5
4BD
100
AcDbEntity
  8
M
100
AcDbLine
  6
BYLAYER
 10
131.200004968065
 20
9.35304850196985
 11
132.848533105488
 21
11.0015766393942
  0
LINE
  5
4BE
100
AcDbEntity
  8
M
100
AcDbLine
  6
BYLAYER
 10
130.351476830641
 20
10.2015766393949
 11
132.000004968065
 21
11.8501047768175
  0
ARC
  5
4BF
100
AcDbEntity
  8
M
100
AcDbCircle
  6
BYLAYER
 10
132.000004968065
 20
11.8501047768175
 40
1.2
100
AcDbArc
 50
314.999999999991
 51
0
  0
ARC
  5
4C0
100
AcDbEntity
  8
M
100
AcDbCircle
  6
BYLAYER
 10
12.0000049680652
 20
120.400001153884
 40
12.0000000000011
100
AcDbArc
 50
92.2568605590398
 51
179.999999999974
  0
LINE
  5
4C1
100
AcDbEntity
  8
M
100
AcDbLine
  6
BYLAYER
 10
4.9680640473E-6
 20
120.400001153885
 11
4.9680658663E-6
 21
14.4000011538853
  0
ARC
  5
4C2
100
AcDbEntity
  8
M
100
AcDbCircle
  6
BYLAYER
 10
12.000004968067
 20
14.4000011538862
 40
12.000000000001
100
AcDbArc
 50
180
 51
267.74313944096
  0
ARC
  5
4C3
100
AcDbEntity
  8
M
100
AcDbCircle
  6
BYLAYER
 10
11.5077598789309
 20
1.90969705222392
 40
0.500000000000094
100
AcDbArc
 50
1.81271243604713
 51
87.7431394409274
  0
ARC
  5
4C4
100
AcDbEntity
  8
M
100
AcDbCircle
  6
BYLAYER
 10
27.000003160261
 20
2.40000115388625
 40
15.0000000000003
100
AcDbArc
 50
181.812712436099
 51
184.588565735782
  0
LINE
  5
4C5
100
AcDbEntity
  8
M
100
AcDbLine
  6
BYLAYER
 10
12.0480802070082
 20
1.20000115388461
 11
12.0480802070082
 21
1.1538857052E-6
  0
ARC
  5
4C6
100
AcDbEntity
  8
M
100
AcDbCircle
  6
BYLAYER
 10
11.5077598789309
 20
132.890305255547
 40
0.500000000000094
100
AcDbArc
 50
272.256860559072
 51
358.187287563953
  0
ARC
  5
4C7
100
AcDbEntity
  8
M
100
AcDbCircle
  6
BYLAYER
 10
27.000003160261
 20
132.400001153884
 40
15.0000000000003
100
AcDbArc
 50
175.411434264218
 51
178.187287563901
  0
LINE
  5
4C8
100
AcDbEntity
  8
M
100
AcDbLine
  6
BYLAYER
 10
12.0480802070082
 20
133.600001153886
 11
12.0480802070082
 21
134.800001153885
  0
ENDBLK
  5
4C9
100
AcDbEntity
  8
0
 67
     1
100
AcDbBlockEnd
  0
ENDSEC
  0
SECTION
  2
ENTITIES
  0
LINE
  5
4CA
100
AcDbEntity
  8
BASE
100
AcDbLine
  6
BYLAYER
 10
1575.95585582997
 20
-295.730469394138
 11
1575.95585582997
 21
-244.530469394138
  0
LINE
  5
4CB
100
AcDbEntity
  8
BASE
100
AcDbLine
  6
BYLAYER
 10
1656.75585582997
 20
-291.330469394138
 11
1575.95585582997
 21
-291.330469394138
  0
ARC
  5
4CC
100
AcDbEntity
  8
BASE
100
AcDbCircle
  6
BYLAYER
 10
1544.95585582997
 20
-285.730469394138
 40
10
100
AcDbArc
 50
180
 51
270
  0
LINE
  5
4CD
100
AcDbEntity
  8
BASE
100
AcDbLine
  6
BYLAYER
 10
1575.95585582997
 20
-295.730469394138
 11
1544.95585582997
 21
-295.730469394138
  0
LINE
  5
4CE
100
AcDbEntity
  8
BASE
100
AcDbLine
  6
BYLAYER
 10
1680.50585582997
 20
-279.530475741999
 11
1680.50585582997
 21
-301.530469901965
  0
LINE
  5
4CF
100
AcDbEntity
  8
BASE
100
AcDbLine
  6
BYLAYER
 10
1742.50585582997
 20
-279.530475741999
 11
1742.50585582997
 21
-308.030469901965
  0
LINE
  5
4D0
100
AcDbEntity
  8
BASE
100
AcDbLine
  6
BYLAYER
 10
1741.50585582997
 20
-279.530475741999
 11
1741.50585582997
 21
-308.030469901965
  0
ELLIPSE
  5
4D1
100
AcDbEntity
  8
BASE
100
AcDbEllipse
  6
BYLAYER
 10
1752.59777844762
 20
-279.66901232112
 30
0.0
 11
-20.4734861558183
 21
-20.4734861558183
 31
0.0
210
0.0
220
0.0
230
1.0
 40
0.228243474390148
 41
0.473362525432607
 42
0.673281452810784
  0
ELLIPSE
  5
4D2
100
AcDbEntity
  8
BASE
100
AcDbEllipse
  6
BYLAYER
 10
1673.41393321232
 20
-279.66901232112
 30
0.0
 11
20.4734861558183
 21
-20.4734861558183
 31
0.0
210
0.0
220
0.0
230
1.0
 40
0.228243474390154
 41
5.60990385436882
 42
5.80982278174698
  0
LINE
  5
4D3
100
AcDbEntity
  8
BASE
100
AcDbLine
  6
BYLAYER
 10
1739.50585582997
 20
-298.58860197611
 11
1739.50585582997
 21
-299.135726653437
  0
LINE
  5
4D4
100
AcDbEntity
  8
BASE
100
AcDbLine
  6
BYLAYER
 10
1686.50585582997
 20
-299.135726653437
 11
1686.50585582997
 21
-298.58860197611
  0
LINE
  5
4D5
100
AcDbEntity
  8
BASE
100
AcDbLine
  6
BYLAYER
 10
1736.50585582997
 20
-300.021549692116
 11
1689.50585582997
 21
-300.021549692116
  0
LINE
  5
4D6
100
AcDbEntity
  8
BASE
100
AcDbLine
  6
BYLAYER
 10
1735.73957380056
 20
-300.990718138354
 11
1690.27213785938
 21
-300.990718138353
  0
LINE
  5
4D7
100
AcDbEntity
  8
BASE
100
AcDbLine
  6
BYLAYER
 10
1736.50585582997
 20
-306.390571704724
 11
1689.50585582997
 21
-306.390571704724
  0
LINE
  5
4D8
100
AcDbEntity
  8
BASE
100
AcDbLine
  6
BYLAYER
 10
1735.73957380056
 20
-307.24405530269
 11
1690.27213785938
 21
-307.24405530269
  0
LINE
  5
4D9
100
AcDbEntity
  8
BASE
100
AcDbLine
  6
BYLAYER
 10
1736.50585582997
 20
-307.263052203572
 11
1689.50585582997
 21
-307.263052203572
  0
LINE
  5
4DA
100
AcDbEntity
  8
BASE
100
AcDbLine
  6
BYLAYER
 10
1735.73957380056
 20
-307.925015190136
 11
1690.27213785938
 21
-307.925015190136
  0
ARC
  5
4DB
100
AcDbEntity
  8
BASE
100
AcDbCircle
  6
BYLAYER
 10
1683.50585582997
 20
-301.530469901965
 40
3
100
AcDbArc
 50
180
 51
270
  0
ELLIPSE
  5
4DC
100
AcDbEntity
  8
BASE
100
AcDbEllipse
  6
BYLAYER
 10
1673.41393321232
 20
-288.467416147438
 30
0.0
 11
20.9412797408048
 21
-20.9412797408048
 31
0.0
210
0.0
220
0.0
230
1.0
 40
0.074939640019091
 41
5.46030420419786
 42
5.66022313157607
  0
ELLIPSE
  5
4DD
100
AcDbEntity
  8
BASE
100
AcDbEllipse
  6
BYLAYER
 10
1673.41393321232
 20
-288.467416147438
 30
0.0
 11
21.9384835379861
 21
-21.938483537986
 31
0.0
210
0.0
220
0.0
230
1.0
 40
0.074939640019091
 41
5.42456319180228
 42
5.66022313157604
  0
LINE
  5
4DE
100
AcDbEntity
  8
BASE
100
AcDbLine
  6
BYLAYER
 10
1689.50585582997
 20
-306.390571704724
 11
1690.27213785938
 21
-307.24405530269
  0
ELLIPSE
  5
4DF
100
AcDbEntity
  8
BASE
100
AcDbEllipse
  6
BYLAYER
 10
1673.41393321232
 20
-293.361829485732
 30
0.0
 11
20.9412797408048
 21
-20.9412797408048
 31
0.0
210
0.0
220
0.0
230
1.0
 40
0.0749396400190828
 41
0.772561825774511
 42
0.923930986065556
  0
LINE
  5
4E0
100
AcDbEntity
  8
BASE
100
AcDbLine
  6
BYLAYER
 10
1689.50585582997
 20
-307.263052203572
 11
1690.27213785938
 21
-307.925015190136
  0
LINE
  5
4E1
100
AcDbEntity
  8
BASE
100
AcDbLine
  6
BYLAYER
 10
1683.50585582997
 20
-304.530469901965
 11
1686.50585582997
 21
-304.530469901965
  0
LINE
  5
4E2
100
AcDbEntity
  8
BASE
100
AcDbLine
  6
BYLAYER
 10
1689.50585582997
 20
-300.021549692116
 11
1690.27213785938
 21
-300.990718138353
  0
ELLIPSE
  5
4E3
100
AcDbEntity
  8
BASE
100
AcDbEllipse
  6
BYLAYER
 10
1673.41393321232
 20
-279.66901232112
 30
0.0
 11
21.4484140680002
 21
-21.4484140680002
 31
0.0
210
0.0
220
0.0
230
1.0
 40
0.228243474390154
 41
5.57416284197324
 42
5.80982278174698
  0
LINE
  5
4E4
100
AcDbEntity
  8
BASE
100
AcDbLine
  6
BYLAYER
 10
1686.50585582997
 20
-299.135726653437
 11
1686.50585582997
 21
-303.860319475473
  0
LINE
  5
4E5
100
AcDbEntity
  8
BASE
100
AcDbLine
  6
BYLAYER
 10
1686.50585582997
 20
-304.048260839571
 11
1686.50585582997
 21
-303.860319475473
  0
LINE
  5
4E6
100
AcDbEntity
  8
BASE
100
AcDbLine
  6
BYLAYER
 10
1686.50585582997
 20
-304.048260839571
 11
1686.50585582997
 21
-304.530469901965
  0
ARC
  5
4E7
100
AcDbEntity
  8
BASE
100
AcDbCircle
  6
BYLAYER
 10
1740.50585582997
 20
-305.530469901965
 40
1
100
AcDbArc
 50
0
 51
90
  0
ELLIPSE
  5
4E8
100
AcDbEntity
  8
BASE
100
AcDbEllipse
  6
BYLAYER
 10
1752.59777844762
 20
-288.467416147438
 30
0.0
 11
-20.9412797408048
 21
-20.9412797408048
 31
0.0
210
0.0
220
0.0
230
1.0
 40
0.074939640019085
 41
0.622962175603578
 42
0.822881102981744
  0
ELLIPSE
  5
4E9
100
AcDbEntity
  8
BASE
100
AcDbEllipse
  6
BYLAYER
 10
1752.59777844762
 20
-288.467416147438
 30
0.0
 11
-21.938483537986
 21
-21.938483537986
 31
0.0
210
0.0
220
0.0
230
1.0
 40
0.074939640019085
 41
0.622962175603581
 42
0.858622115377294
  0
LINE
  5
4EA
100
AcDbEntity
  8
BASE
100
AcDbLine
  6
BYLAYER
 10
1741.50585582997
 20
-308.030469901965
 11
1742.50585582997
 21
-308.030469901965
  0
LINE
  5
4EB
100
AcDbEntity
  8
BASE
100
AcDbLine
  6
BYLAYER
 10
1735.73957380056
 20
-307.24405530269
 11
1736.50585582997
 21
-306.390571704724
  0
LINE
  5
4EC
100
AcDbEntity
  8
BASE
100
AcDbLine
  6
BYLAYER
 10
1735.73957380056
 20
-307.925015190136
 11
1736.50585582997
 21
-307.263052203572
  0
ELLIPSE
  5
4ED
100
AcDbEntity
  8
BASE
100
AcDbEllipse
  6
BYLAYER
 10
1752.59777844762
 20
-293.361829485732
 30
0.0
 11
-20.9412797408048
 21
-20.9412797408048
 31
0.0
210
0.0
220
0.0
230
1.0
 40
0.0749396400190889
 41
5.35925432111408
 42
5.51062348140511
  0
LINE
  5
4EE
100
AcDbEntity
  8
BASE
100
AcDbLine
  6
BYLAYER
 10
1739.50585582997
 20
-304.530469901965
 11
1740.50585582997
 21
-304.530469901965
  0
LINE
  5
4EF
100
AcDbEntity
  8
BASE
100
AcDbLine
  6
BYLAYER
 10
1735.73957380056
 20
-300.990718138353
 11
1736.50585582997
 21
-300.021549692116
  0
ELLIPSE
  5
4F0
100
AcDbEntity
  8
BASE
100
AcDbEllipse
  6
BYLAYER
 10
1752.59777844762
 20
-279.66901232112
 30
0.0
 11
-21.4484140680002
 21
-21.4484140680002
 31
0.0
210
0.0
220
0.0
230
1.0
 40
0.228243474390148
 41
0.473362525432594
 42
0.709022465206343
  0
LINE
  5
4F1
100
AcDbEntity
  8
BASE
100
AcDbLine
  6
BYLAYER
 10
1739.50585582997
 20
-299.135726653437
 11
1739.50585582997
 21
-303.860319475473
  0
LINE
  5
4F2
100
AcDbEntity
  8
BASE
100
AcDbLine
  6
BYLAYER
 10
1739.50585582997
 20
-303.860319475473
 11
1739.50585582997
 21
-304.048260839571
  0
LINE
  5
4F3
100
AcDbEntity
  8
BASE
100
AcDbLine
  6
BYLAYER
 10
1739.50585582997
 20
-304.048260839571
 11
1739.50585582997
 21
-304.530469901965
  0
LINE
  5
4F4
100
AcDbEntity
  8
BASE
100
AcDbLine
  6
BYLAYER
 10
1739.50585582997
 20
-279.530475741999
 11
1739.50585582997
 21
-288.513582211754
  0
LINE
  5
4F5
100
AcDbEntity
  8
BASE
100
AcDbLine
  6
BYLAYER
 10
1686.50585582997
 20
-279.530475741999
 11
1686.50585582997
 21
-288.513582211754
  0
LINE
  5
4F6
100
AcDbEntity
  8
BASE
100
AcDbLine
  6
BYLAYER
 10
1736.47063726736
 20
-289.748394797907
 11
1689.54107439257
 21
-289.748394797906
  0
LINE
  5
4F7
100
AcDbEntity
  8
BASE
100
AcDbLine
  6
BYLAYER
 10
1736.50585582997
 20
-288.72190172156
 11
1689.50585582997
 21
-288.721901721559
  0
LINE
  5
4F8
100
AcDbEntity
  8
BASE
100
AcDbLine
  6
BYLAYER
 10
1735.73957380056
 20
-289.720640146495
 11
1690.27213785938
 21
-289.720640146495
  0
LINE
  5
4F9
100
AcDbEntity
  8
BASE
100
AcDbLine
  6
BYLAYER
 10
1686.50585582997
 20
-289.371275773713
 11
1686.50585582997
 21
-298.58860197611
  0
ELLIPSE
  5
4FA
100
AcDbEntity
  8
BASE
100
AcDbEllipse
  6
BYLAYER
 10
1673.41393321232
 20
-267.748394797906
 30
0.0
 11
19.5483487215283
 21
-19.5483487215283
 31
0.0
210
0.0
220
0.0
230
1.0
 40
0.392471078810106
 41
5.75950350453976
 42
5.95942243191792
  0
LINE
  5
4FB
100
AcDbEntity
  8
BASE
100
AcDbLine
  6
BYLAYER
 10
1689.50585582997
 20
-288.72190172156
 11
1690.27213785938
 21
-289.720640146495
  0
ELLIPSE
  5
4FC
100
AcDbEntity
  8
BASE
100
AcDbEllipse
  6
BYLAYER
 10
1673.41393321232
 20
-267.748394797906
 30
0.0
 11
20.4792224701726
 21
-20.4792224701726
 31
0.0
210
0.0
220
0.0
230
1.0
 40
0.392471078810106
 41
5.72376249214419
 42
5.95942243191792
  0
LINE
  5
4FD
100
AcDbEntity
  8
BASE
100
AcDbLine
  6
BYLAYER
 10
1686.50585582997
 20
-289.371275773713
 11
1686.50585582997
 21
-288.513582211754
  0
LINE
  5
4FE
100
AcDbEntity
  8
BASE
100
AcDbLine
  6
BYLAYER
 10
1739.50585582997
 20
-289.371275773713
 11
1739.50585582997
 21
-298.58860197611
  0
LINE
  5
4FF
100
AcDbEntity
  8
BASE
100
AcDbLine
  6
BYLAYER
 10
1735.73957380056
 20
-289.720640146495
 11
1736.50585582997
 21
-288.721901721559
  0
ELLIPSE
  5
500
100
AcDbEntity
  8
BASE
100
AcDbEllipse
  6
BYLAYER
 10
1752.59777844762
 20
-267.748394797907
 30
0.0
 11
-19.5483487215283
 21
-19.5483487215283
 31
0.0
210
0.0
220
0.0
230
1.0
 40
0.392471078810101
 41
0.323762875261663
 42
0.523681802639839
  0
ELLIPSE
  5
501
100
AcDbEntity
  8
BASE
100
AcDbEllipse
  6
BYLAYER
 10
1752.59777844762
 20
-267.748394797906
 30
0.0
 11
-20.4792224701726
 21
-20.4792224701726
 31
0.0
210
0.0
220
0.0
230
1.0
 40
0.392471078810101
 41
0.323762875261668
 42
0.559422815035414
  0
LINE
  5
502
100
AcDbEntity
  8
BASE
100
AcDbLine
  6
BYLAYER
 10
1739.50585582997
 20
-288.513582211754
 11
1739.50585582997
 21
-289.371275773713
  0
LINE
  5
503
100
AcDbEntity
  8
BASE
100
AcDbLine
  6
BYLAYER
 10
1739.50585582997
 20
-282.063756899755
 11
1686.50585582997
 21
-282.063756899755
  0
LINE
  5
504
100
AcDbEntity
  8
BASE
100
AcDbLine
  6
BYLAYER
 10
1575.95585582997
 20
-244.530469394138
 11
1575.95585582997
 21
-193.330469394138
  0
LINE
  5
505
100
AcDbEntity
  8
BASE
100
AcDbLine
  6
BYLAYER
 10
1657.2451701122
 20
-197.730469394138
 11
1575.95585582997
 21
-197.730469394138
  0
ARC
  5
506
100
AcDbEntity
  8
BASE
100
AcDbCircle
  6
BYLAYER
 10
1544.95585582997
 20
-203.330469394138
 40
10
100
AcDbArc
 50
90
 51
180
  0
LINE
  5
507
100
AcDbEntity
  8
BASE
100
AcDbLine
  6
BYLAYER
 10
1575.95585582997
 20
-193.330469394138
 11
1544.95585582997
 21
-193.330469394138
  0
LINE
  5
508
100
AcDbEntity
  8
CEN
100
AcDbLine
  6
BYLAYER
 10
1553.7528510858
 20
-378.126686047951
 11
1553.7528510858
 21
-372.134252740324
  0
LINE
  5
509
100
AcDbEntity
  8
CEN
100
AcDbLine
  6
BYLAYER
 10
1653.7528510858
 20
-378.126686047952
 11
1653.7528510858
 21
-372.134252740324
  0
LINE
  5
50A
100
AcDbEntity
  8
0
100
AcDbLine
  6
BYLAYER
 10
1534.95585582997
 20
-285.730469394138
 11
1534.95585582997
 21
-203.330469394138
  0
LINE
  5
50B
100
AcDbEntity
  8
0
100
AcDbLine
  6
BYLAYER
 10
1874.97570412826
 20
-266.330475646782
 11
1874.97570412826
 21
-365.030475646782
  0
LINE
  5
50C
100
AcDbEntity
  8
0
100
AcDbLine
  6
BYLAYER
 10
1875.27570412826
 20
-366.030475646782
 11
1901.97570412826
 21
-366.030475646782
  0
LINE
  5
50D
100
AcDbEntity
  8
0
100
AcDbLine
  6
BYLAYER
 10
1874.97570412826
 20
-365.730475646782
 11
1874.97570412826
 21
-365.030475646782
  0
ARC
  5
50E
100
AcDbEntity
  8
0
100
AcDbCircle
  6
BYLAYER
 10
1875.27570412826
 20
-365.730475646782
 40
0.3
100
AcDbArc
 50
180.000000000006
 51
270
  0
LINE
  5
50F
100
AcDbEntity
  8
0
100
AcDbLine
  6
BYLAYER
 10
1903.97570412826
 20
-371.030475646782
 11
1904.97570412826
 21
-371.030475646782
  0
ARC
  5
510
100
AcDbEntity
  8
0
100
AcDbCircle
  6
BYLAYER
 10
1901.97570412826
 20
-368.030475646782
 40
2
100
AcDbArc
 50
0
 51
90
  0
LINE
  5
511
100
AcDbEntity
  8
0
100
AcDbLine
  6
BYLAYER
 10
1875.27570412826
 20
-266.030475646782
 11
1901.97570412826
 21
-266.030475646782
  0
ARC
  5
512
100
AcDbEntity
  8
0
100
AcDbCircle
  6
BYLAYER
 10
1875.27570412826
 20
-266.330475646782
 40
0.3
100
AcDbArc
 50
90
 51
180
  0
LINE
  5
513
100
AcDbEntity
  8
0
100
AcDbLine
  6
BYLAYER
 10
1903.97570412826
 20
-261.030475646782
 11
1904.97570412826
 21
-261.030475646782
  0
ARC
  5
514
100
AcDbEntity
  8
0
100
AcDbCircle
  6
BYLAYER
 10
1901.97570412826
 20
-264.030475646782
 40
2
100
AcDbArc
 50
270
 51
0
  0
LINE
  5
515
100
AcDbEntity
  8
0
100
AcDbLine
  6
BYLAYER
 10
1903.97570412826
 20
-371.030475646782
 11
1903.97570412826
 21
-261.030475646782
  0
LINE
  5
516
100
AcDbEntity
  8
0
100
AcDbLine
  6
BYLAYER
 10
1901.97570412826
 20
-266.030475646782
 11
1901.97570412826
 21
-366.030475646782
  0
LINE
  5
517
100
AcDbEntity
  8
DIM
100
AcDbLine
  6
BYLAYER
 62
0
370
  -2
 10
1957.62405825046
 20
-312.379972831575
 11
1968.12405825046
 21
-312.379972831575
  0
LINE
  5
518
100
AcDbEntity
  8
DIM
100
AcDbLine
  6
BYLAYER
 62
0
370
  -2
 10
1968.12405825046
 20
-312.379972831575
 11
1974.78679544756
 21
-298.825517017009
  0
TEXT
  5
519
100
AcDbEntity
  8
DIM
 62
0
100
AcDbText
  6
BYLAYER
 62
0
 10
1916.99905825046
 20
-318.629972831574
 40
12.5
  1
φ100
  7
Font_0
 72
1
 11
1932.62405825046
 21
-312.379972831574
100
AcDbText
 73
2
  0
SOLID
  5
51A
100
AcDbEntity
  8
DIM
100
AcDbTrace
 10
1973.2162775503
 20
-298.053523795298
 30
0.0
 11
1976.35731334483
 21
-299.59751023872
 31
0.0
 12
1979.41875477783
 22
-289.402409633414
 32
0.0
 13
1979.41875477783
 23
-289.402409633414
 33
0.0
  0
ARC
  5
51B
100
AcDbEntity
  8
0
100
AcDbCircle
  6
BYLAYER
 10
1975.7998878875
 20
-332.030474388371
 40
2
100
AcDbArc
 50
0
 51
90
  0
LINE
  5
51C
100
AcDbEntity
  8
0
100
AcDbLine
  6
BYLAYER
 10
1928.9054606965
 20
-333.241620006371
 11
1944.9054606965
 21
-325.241620006371
  0
ARC
  5
51D
100
AcDbEntity
  8
0
100
AcDbCircle
  6
BYLAYER
 10
1945.7998878875
 20
-327.030474388371
 40
2
100
AcDbArc
 50
0
 51
116.565051177094
  0
LINE
  5
51E
100
AcDbEntity
  8
0
100
AcDbLine
  6
BYLAYER
 10
1975.7998878875
 20
-330.030474388371
 11
1947.7998878875
 21
-330.030474388371
  0
LINE
  5
51F
100
AcDbEntity
  8
0
100
AcDbLine
  6
BYLAYER
 10
1947.7998878875
 20
-330.030474388371
 11
1947.7998878875
 21
-327.030474388371
  0
ARC
  5
520
100
AcDbEntity
  8
0
100
AcDbCircle
  6
BYLAYER
 10
1945.7998878875
 20
-343.030474388371
 40
2
100
AcDbArc
 50
243.434948822906
 51
0
  0
LINE
  5
521
100
AcDbEntity
  8
0
100
AcDbLine
  6
BYLAYER
 10
1975.7998878875
 20
-340.030474388371
 11
1947.7998878875
 21
-340.030474388371
  0
ARC
  5
522
100
AcDbEntity
  8
0
100
AcDbCircle
  6
BYLAYER
 10
1975.7998878875
 20
-338.030474388371
 40
2
100
AcDbArc
 50
270
 51
0
  0
LINE
  5
523
100
AcDbEntity
  8
0
100
AcDbLine
  6
BYLAYER
 10
1977.7998878875
 20
-332.030474388371
 11
1977.7998878875
 21
-338.030474388371
  0
LINE
  5
524
100
AcDbEntity
  8
0
100
AcDbLine
  6
BYLAYER
 10
1947.7998878875
 20
-343.030474388371
 11
1947.7998878875
 21
-340.030474388371
  0
LINE
  5
525
100
AcDbEntity
  8
0
100
AcDbLine
  6
BYLAYER
 10
1928.9054606965
 20
-336.819328770371
 11
1944.9054606965
 21
-344.819328770371
  0
ARC
  5
526
100
AcDbEntity
  8
0
100
AcDbCircle
  6
BYLAYER
 10
1929.7998878875
 20
-335.030474388371
 40
2
100
AcDbArc
 50
116.565051177094
 51
243.434948822906
  0
LWPOLYLINE
  5
527
100
AcDbEntity
  8
0
100
AcDbPolyline
  6
BYLAYER
370
0
 90
     2
 10
1906.47570409653
  20
-276.030475551564
 10
1925.50306866381
  20
-276.030475551564
  0
LINE
  5
528
100
AcDbEntity
  8
0
100
AcDbLine
  6
BYLAYER
 10
1673.95585582997
 20
-159.204998821445
 11
1681.45585582997
 21
-159.204998821445
  0
LINE
  5
529
100
AcDbEntity
  8
0
100
AcDbLine
  6
BYLAYER
 10
2001.47570396957
 20
-356.030469711532
 11
1906.47570416
 21
-356.030475742001
  0
LINE
  5
52A
100
AcDbEntity
  8
0
100
AcDbLine
  6
BYLAYER
 10
1672.95585582997
 20
-261.030475741999
 11
1672.95585582997
 21
-160.204998821445
  0
ARC
  5
52B
100
AcDbEntity
  8
0
100
AcDbCircle
  6
BYLAYER
 10
1673.95585582997
 20
-160.204998821445
 40
1
100
AcDbArc
 50
90
 51
180
  0
LINE
  5
52C
100
AcDbEntity
  8
0
100
AcDbLine
  6
BYLAYER
 10
1681.45585582997
 20
-261.030475741999
 11
1681.45585582997
 21
-159.204998821445
  0
LINE
  5
52D
100
AcDbEntity
  8
0
100
AcDbLine
  6
BYLAYER
 10
1681.45585582997
 20
-160.204998821445
 11
1742.95585582997
 21
-160.204998821445
  0
LINE
  5
52E
100
AcDbEntity
  8
0
100
AcDbLine
  6
BYLAYER
 10
1750.45585582997
 20
-159.204998821445
 11
1742.95585582997
 21
-159.204998821445
  0
LINE
  5
52F
100
AcDbEntity
  8
0
100
AcDbLine
  6
BYLAYER
 10
1751.45585582997
 20
-261.030475741999
 11
1751.45585582997
 21
-160.204998821445
  0
ARC
  5
530
100
AcDbEntity
  8
0
100
AcDbCircle
  6
BYLAYER
 10
1750.45585582997
 20
-160.204998821445
 40
1
100
AcDbArc
 50
0
 51
90
  0
LINE
  5
531
100
AcDbEntity
  8
0
100
AcDbLine
  6
BYLAYER
 10
1742.95585582997
 20
-261.030475741999
 11
1742.95585582997
 21
-159.204998821445
  0
LINE
  5
532
100
AcDbEntity
  8
0
100
AcDbLine
  6
BYLAYER
 10
1744.89759790652
 20
-279.530475741999
 11
1679.51411375341
 21
-279.530475741999
  0
LINE
  5
533
100
AcDbEntity
  8
0
100
AcDbLine
  6
BYLAYER
 10
1675.70585582997
 20
-283.338733665444
 11
1675.70585582997
 21
-348.722217818554
  0
LINE
  5
534
100
AcDbEntity
  8
0
100
AcDbLine
  6
BYLAYER
 10
1679.51411375341
 20
-352.530475741999
 11
1744.89759790652
 21
-352.530475741999
  0
LINE
  5
535
100
AcDbEntity
  8
0
100
AcDbLine
  6
BYLAYER
 10
1748.70585582997
 20
-348.722217818554
 11
1748.70585582997
 21
-283.338733665444
  0
LINE
  5
536
100
AcDbEntity
  8
0
100
AcDbLine
  6
BYLAYER
 10
1762.20585582997
 20
-261.030475741999
 11
1662.20585582997
 21
-261.030475741999
  0
ARC
  5
537
100
AcDbEntity
  8
0
100
AcDbCircle
  6
BYLAYER
 10
1662.20585582997
 20
-266.030475741999
 40
5
100
AcDbArc
 50
90
 51
180
  0
LINE
  5
538
100
AcDbEntity
  8
0
100
AcDbLine
  6
BYLAYER
 10
1657.20585582997
 20
-266.030475741999
 11
1657.20585582997
 21
-366.030475741999
  0
ARC
  5
539
100
AcDbEntity
  8
0
100
AcDbCircle
  6
BYLAYER
 10
1662.20585582997
 20
-366.030475741999
 40
5
100
AcDbArc
 50
180
 51
270
  0
LINE
  5
53A
100
AcDbEntity
  8
0
100
AcDbLine
  6
BYLAYER
 10
1662.20585582997
 20
-371.030475741999
 11
1762.20585582997
 21
-371.030475741999
  0
ARC
  5
53B
100
AcDbEntity
  8
0
100
AcDbCircle
  6
BYLAYER
 10
1762.20585582997
 20
-366.030475741999
 40
5
100
AcDbArc
 50
270
 51
0
  0
LINE
  5
53C
100
AcDbEntity
  8
0
100
AcDbLine
  6
BYLAYER
 10
1767.20585582997
 20
-366.030475741999
 11
1767.20585582997
 21
-266.030475741999
  0
ARC
  5
53D
100
AcDbEntity
  8
0
100
AcDbCircle
  6
BYLAYER
 10
1762.20585582997
 20
-266.030475741999
 40
5
100
AcDbArc
 50
0
 51
90
  0
CIRCLE
  5
53E
100
AcDbEntity
  8
0
100
AcDbCircle
  6
BYLAYER
 10
1758.20585582997
 20
-270.030475741999
 40
3.25
  0
CIRCLE
  5
53F
100
AcDbEntity
  8
0
100
AcDbCircle
  6
BYLAYER
 10
1666.20585582997
 20
-270.030475741999
 40
3.25
  0
CIRCLE
  5
540
100
AcDbEntity
  8
0
100
AcDbCircle
  6
BYLAYER
 10
1758.20585582997
 20
-362.030475741999
 40
3.25
  0
CIRCLE
  5
541
100
AcDbEntity
  8
0
100
AcDbCircle
  6
BYLAYER
 10
1666.20585582997
 20
-362.030475741999
 40
3.25
  0
LINE
  5
542
100
AcDbEntity
  8
0
100
AcDbLine
  6
BYLAYER
 10
1904.97570412826
 20
-371.030475646782
 11
1904.97570412826
 21
-261.030475646782
  0
LINE
  5
543
100
AcDbEntity
  8
0
100
AcDbLine
  6
BYLAYER
 10
1904.97570412826
 20
-261.030475646782
 11
1906.47570412826
 21
-261.030475646782
  0
LINE
  5
544
100
AcDbEntity
  8
0
100
AcDbLine
  6
BYLAYER
 10
1906.47570412826
 20
-371.030475646782
 11
1904.97570412826
 21
-371.030475646782
  0
LINE
  5
545
100
AcDbEntity
  8
0
100
AcDbLine
  6
BYLAYER
 10
1906.47570412826
 20
-371.030475646782
 11
1906.47570412826
 21
-261.030475646782
  0
CIRCLE
  5
546
100
AcDbEntity
  8
BASE
100
AcDbCircle
  6
BYLAYER
 10
1951.27112250532
 20
-194.325888247287
 40
2.75
  0
CIRCLE
  5
547
100
AcDbEntity
  8
BASE
100
AcDbCircle
  6
BYLAYER
 10
1951.27112250532
 20
-294.735051175777
 40
2.75
  0
CIRCLE
  5
548
100
AcDbEntity
  8
BASE
100
AcDbCircle
  6
BYLAYER
 10
2051.68028543381
 20
-294.735051175777
 40
2.75
  0
CIRCLE
  5
549
100
AcDbEntity
  8
BASE
100
AcDbCircle
  6
BYLAYER
 10
2051.68028543381
 20
-194.325888247287
 40
2.75
  0
CIRCLE
  5
54A
100
AcDbEntity
  8
BASE
100
AcDbCircle
  6
BYLAYER
 10
2001.47570396957
 20
-244.530469711532
 40
76
  0
CIRCLE
  5
54B
100
AcDbEntity
  8
BASE
100
AcDbCircle
  6
BYLAYER
 10
2001.47570396957
 20
-244.530469711532
 40
50
  0
CIRCLE
  5
54C
100
AcDbEntity
  8
0
100
AcDbCircle
  6
BYLAYER
 10
2001.47570396957
 20
-244.530469711532
 40
48.75
  0
LINE
  5
54D
100
AcDbEntity
  8
BASE
100
AcDbLine
  6
BYLAYER
 10
1767.20585582997
 20
-294.530469394137
 11
1785.95585582997
 21
-294.530469394137
  0
LINE
  5
54E
100
AcDbEntity
  8
BASE
100
AcDbLine
  6
BYLAYER
 10
1785.95585582997
 20
-194.530469394137
 11
1757.45585582997
 21
-194.530469394137
  0
ARC
  5
54F
100
AcDbEntity
  8
BASE
100
AcDbCircle
  6
BYLAYER
 10
1785.95585582997
 20
-195.530469394137
 40
1
100
AcDbArc
 50
0
 51
90
  0
LINE
  5
550
100
AcDbEntity
  8
BASE
100
AcDbLine
  6
BYLAYER
 10
1786.95585582997
 20
-195.530469394137
 11
1786.95585582997
 21
-293.530469394137
  0
ARC
  5
551
100
AcDbEntity
  8
BASE
100
AcDbCircle
  6
BYLAYER
 10
1785.95585582997
 20
-293.530469394137
 40
1
100
AcDbArc
 50
270
 51
0
  0
CIRCLE
  5
552
100
AcDbEntity
  8
0
100
AcDbCircle
  6
BYLAYER
 10
1712.20585582997
 20
-316.030475741999
 40
50
  0
CIRCLE
  5
553
100
AcDbEntity
  8
0
100
AcDbCircle
  6
BYLAYER
 10
1712.20585582997
 20
-316.030475741999
 40
49
  0
ARC
  5
554
100
AcDbEntity
  8
BASE
100
AcDbCircle
  6
BYLAYER
 10
1741.20585582997
 20
-305.530469394138
 40
10
100
AcDbArc
 50
41.4096221092723
 51
82.5304076835899
  0
LINE
  5
555
100
AcDbEntity
  8
DIM
100
AcDbLine
  6
BYLAYER
 62
0
370
  -2
 10
1666.20585582997
 20
-363.780475741999
 11
1666.20585582997
 21
-386.802552249451
  0
LINE
  5
556
100
AcDbEntity
  8
DIM
100
AcDbLine
  6
BYLAYER
 62
0
370
  -2
 10
1758.20585582997
 20
-363.780475741999
 11
1758.20585582997
 21
-386.802552249451
  0
LINE
  5
557
100
AcDbEntity
  8
DIM
100
AcDbLine
  6
BYLAYER
 62
0
370
  -2
 10
1676.70585582997
 20
-383.052552249451
 11
1695.5391891633
 21
-383.052552249451
  0
LINE
  5
558
100
AcDbEntity
  8
DIM
100
AcDbLine
  6
BYLAYER
 62
0
370
  -2
 10
1747.70585582997
 20
-383.052552249451
 11
1728.87252249664
 21
-383.052552249451
  0
SOLID
  5
559
100
AcDbEntity
  8
DIM
100
AcDbTrace
 10
1666.20585582997
 20
-383.052552249451
 30
0.0
 11
1676.70585582997
 21
-384.802552249451
 31
0.0
 12
1676.70585582997
 22
-381.302552249451
 32
0.0
 13
1676.70585582997
 23
-381.302552249451
 33
0.0
  0
SOLID
  5
55A
100
AcDbEntity
  8
DIM
100
AcDbTrace
 10
1747.70585582997
 20
-381.302552249451
 30
0.0
 11
1747.70585582997
 21
-384.802552249451
 31
0.0
 12
1758.20585582997
 22
-383.052552249451
 32
0.0
 13
1758.20585582997
 23
-383.052552249451
 33
0.0
  0
TEXT
  5
55B
100
AcDbEntity
  8
DIM
 62
0
100
AcDbText
  6
BYLAYER
 62
0
 10
1705.95585582997
 20
-389.302552249451
 40
12.5
  1
92
  7
Font_0
 72
1
 11
1712.20585582997
 21
-383.052552249451
100
AcDbText
 73
2
  0
LINE
  5
55C
100
AcDbEntity
  8
DIM
100
AcDbLine
  6
BYLAYER
 62
0
370
  -2
 10
1767.20585582997
 20
-367.780475741999
 11
1767.20585582997
 21
-407.15653129367
  0
LINE
  5
55D
100
AcDbEntity
  8
DIM
100
AcDbLine
  6
BYLAYER
 62
0
370
  -2
 10
1657.20585582997
 20
-367.780475741999
 11
1657.20585582997
 21
-407.15653129367
  0
LINE
  5
55E
100
AcDbEntity
  8
DIM
100
AcDbLine
  6
BYLAYER
 62
0
370
  -2
 10
1756.70585582997
 20
-403.40653129367
 11
1729.9141891633
 21
-403.40653129367
  0
LINE
  5
55F
100
AcDbEntity
  8
DIM
100
AcDbLine
  6
BYLAYER
 62
0
370
  -2
 10
1667.70585582997
 20
-403.40653129367
 11
1694.49752249664
 21
-403.40653129367
  0
SOLID
  5
560
100
AcDbEntity
  8
DIM
100
AcDbTrace
 10
1756.70585582997
 20
-401.65653129367
 30
0.0
 11
1756.70585582997
 21
-405.15653129367
 31
0.0
 12
1767.20585582997
 22
-403.40653129367
 32
0.0
 13
1767.20585582997
 23
-403.40653129367
 33
0.0
  0
SOLID
  5
561
100
AcDbEntity
  8
DIM
100
AcDbTrace
 10
1657.20585582997
 20
-403.40653129367
 30
0.0
 11
1667.70585582997
 21
-405.15653129367
 31
0.0
 12
1667.70585582997
 22
-401.65653129367
 32
0.0
 13
1667.70585582997
 23
-401.65653129367
 33
0.0
  0
TEXT
  5
562
100
AcDbEntity
  8
DIM
 62
0
100
AcDbText
  6
BYLAYER
 62
0
 10
1702.83085582997
 20
-409.65653129367
 40
12.5
  1
110
  7
Font_0
 72
1
 11
1712.20585582997
 21
-403.40653129367
100
AcDbText
 73
2
  0
LINE
  5
563
100
AcDbEntity
  8
DIM
100
AcDbLine
  6
BYLAYER
 62
0
370
  -2
 10
1781.59636675463
 20
-387.078753110081
 11
1771.09636675463
 21
-387.078753110081
  0
LINE
  5
564
100
AcDbEntity
  8
DIM
100
AcDbLine
  6
BYLAYER
 62
0
370
  -2
 10
1771.09636675463
 20
-387.078753110081
 11
1764.4976871345
 21
-374.256487308957
  0
TEXT
  5
565
100
AcDbEntity
  8
DIM
 62
0
100
AcDbText
  6
BYLAYER
 62
0
 10
1797.22136675463
 20
-393.328753110081
 40
12.5
  1
4-φ6.5
  7
Font_0
 72
1
 11
1819.09636675463
 21
-387.078753110081
100
AcDbText
 73
2
  0
SOLID
  5
566
100
AcDbEntity
  8
DIM
100
AcDbTrace
 10
1759.69301595649
 20
-364.920260294189
 30
0.0
 11
1762.9416492987
 21
-375.057265838624
 31
0.0
 12
1766.05372497029
 22
-373.45570877929
 32
0.0
 13
1766.05372497029
 23
-373.45570877929
 33
0.0
  0
LINE
  5
567
100
AcDbEntity
  8
DIM
100
AcDbLine
  6
BYLAYER
 62
0
370
  -2
 10
1786.95585582997
 20
-193.780469394137
 11
1786.95585582997
 21
-140.972424240919
  0
LINE
  5
568
100
AcDbEntity
  8
DIM
100
AcDbLine
  6
BYLAYER
 62
0
370
  -2
 10
1751.45585582997
 20
-158.454998821445
 11
1751.45585582997
 21
-140.972424240919
  0
LINE
  5
569
100
AcDbEntity
  8
DIM
100
AcDbLine
  6
BYLAYER
 62
0
370
  -2
 10
1797.45585582997
 20
-144.722424240919
 11
1807.95585582997
 21
-144.722424240919
  0
LINE
  5
56A
100
AcDbEntity
  8
DIM
100
AcDbLine
  6
BYLAYER
 62
0
370
  -2
 10
1740.95585582997
 20
-144.722424240919
 11
1730.45585582997
 21
-144.722424240919
  0
SOLID
  5
56B
100
AcDbEntity
  8
DIM
100
AcDbTrace
 10
1786.95585582997
 20
-144.722424240919
 30
0.0
 11
1797.45585582997
 21
-146.472424240919
 31
0.0
 12
1797.45585582997
 22
-142.972424240919
 32
0.0
 13
1797.45585582997
 23
-142.972424240919
 33
0.0
  0
SOLID
  5
56C
100
AcDbEntity
  8
DIM
100
AcDbTrace
 10
1740.95585582997
 20
-142.972424240919
 30
0.0
 11
1740.95585582997
 21
-146.472424240919
 31
0.0
 12
1751.45585582997
 22
-144.722424240919
 32
0.0
 13
1751.45585582997
 23
-144.722424240919
 33
0.0
  0
TEXT
  5
56D
100
AcDbEntity
  8
DIM
 62
0
100
AcDbText
  6
BYLAYER
 62
0
 10
1762.95585582997
 20
-150.972424240919
 40
12.5
  1
36
  7
Font_0
 72
1
 11
1769.20585582997
 21
-144.722424240919
100
AcDbText
 73
2
  0
LINE
  5
56E
100
AcDbEntity
  8
DIM
100
AcDbLine
  6
BYLAYER
 62
0
370
  -2
 10
1751.45585582997
 20
-158.454998821445
 11
1751.45585582997
 21
-140.972424240919
  0
LINE
  5
56F
100
AcDbEntity
  8
DIM
100
AcDbLine
  6
BYLAYER
 62
0
370
  -2
 10
1672.95585582997
 20
-158.454998821446
 11
1672.95585582997
 21
-140.972424240919
  0
LINE
  5
570
100
AcDbEntity
  8
DIM
100
AcDbLine
  6
BYLAYER
 62
0
370
  -2
 10
1740.95585582997
 20
-144.722424240919
 11
1728.87252249664
 21
-144.722424240919
  0
LINE
  5
571
100
AcDbEntity
  8
DIM
100
AcDbLine
  6
BYLAYER
 62
0
370
  -2
 10
1683.45585582997
 20
-144.722424240919
 11
1695.5391891633
 21
-144.722424240919
  0
SOLID
  5
572
100
AcDbEntity
  8
DIM
100
AcDbTrace
 10
1740.95585582997
 20
-142.972424240919
 30
0.0
 11
1740.95585582997
 21
-146.472424240919
 31
0.0
 12
1751.45585582997
 22
-144.722424240919
 32
0.0
 13
1751.45585582997
 23
-144.722424240919
 33
0.0
  0
SOLID
  5
573
100
AcDbEntity
  8
DIM
100
AcDbTrace
 10
1672.95585582997
 20
-144.722424240919
 30
0.0
 11
1683.45585582997
 21
-146.472424240919
 31
0.0
 12
1683.45585582997
 22
-142.972424240919
 32
0.0
 13
1683.45585582997
 23
-142.972424240919
 33
0.0
  0
TEXT
  5
574
100
AcDbEntity
  8
DIM
 62
0
100
AcDbText
  6
BYLAYER
 62
0
 10
1705.95585582997
 20
-150.972424240919
 40
12.5
  1
78
  7
Font_0
 72
1
 11
1712.20585582997
 21
-144.722424240919
100
AcDbText
 73
2
  0
LINE
  5
575
100
AcDbEntity
  8
DIM
100
AcDbLine
  6
BYLAYER
 62
0
370
  -2
 10
1873.52570412826
 20
-266.030475646782
 11
1855.55233454356
 21
-266.030475646782
  0
LINE
  5
576
100
AcDbEntity
  8
DIM
100
AcDbLine
  6
BYLAYER
 62
0
370
  -2
 10
1873.52570412826
 20
-366.030475646782
 11
1855.55233454356
 21
-366.030475646782
  0
LINE
  5
577
100
AcDbEntity
  8
DIM
100
AcDbLine
  6
BYLAYER
 62
0
370
  -2
 10
1859.30233454356
 20
-276.530475646782
 11
1859.30233454356
 21
-291.030475646782
  0
LINE
  5
578
100
AcDbEntity
  8
DIM
100
AcDbLine
  6
BYLAYER
 62
0
370
  -2
 10
1859.30233454356
 20
-355.530475646782
 11
1859.30233454356
 21
-341.030475646782
  0
SOLID
  5
579
100
AcDbEntity
  8
DIM
100
AcDbTrace
 10
1857.55233454356
 20
-276.530475646782
 30
0.0
 11
1861.05233454356
 21
-276.530475646782
 31
0.0
 12
1859.30233454356
 22
-266.030475646782
 32
0.0
 13
1859.30233454356
 23
-266.030475646782
 33
0.0
  0
SOLID
  5
57A
100
AcDbEntity
  8
DIM
100
AcDbTrace
 10
1859.30233454356
 20
-366.030475646782
 30
0.0
 11
1861.05233454356
 21
-355.530475646782
 31
0.0
 12
1857.55233454356
 22
-355.530475646782
 32
0.0
 13
1857.55233454356
 23
-355.530475646782
 33
0.0
  0
TEXT
  5
57B
100
AcDbEntity
  8
DIM
 62
0
100
AcDbText
  6
BYLAYER
 62
0
 10
1865.55233454356
 20
-331.655475646782
 40
12.5
  1
Φ100
  7
Font_0
 50
90
 72
1
 11
1859.30233454356
 21
-316.030475646782
100
AcDbText
 73
2
  0
LINE
  5
57C
100
AcDbEntity
  8
DIM
100
AcDbLine
  6
BYLAYER
 62
0
370
  -2
 10
1759.95585582997
 20
-270.030475741999
 11
1796.43493034104
 21
-270.030475741999
  0
LINE
  5
57D
100
AcDbEntity
  8
DIM
100
AcDbLine
  6
BYLAYER
 62
0
370
  -2
 10
1759.95585582997
 20
-362.030475741999
 11
1796.43493034104
 21
-362.030475741999
  0
LINE
  5
57E
100
AcDbEntity
  8
DIM
100
AcDbLine
  6
BYLAYER
 62
0
370
  -2
 10
1792.68493034104
 20
-280.530475741999
 11
1792.68493034104
 21
-299.363809075332
  0
LINE
  5
57F
100
AcDbEntity
  8
DIM
100
AcDbLine
  6
BYLAYER
 62
0
370
  -2
 10
1792.68493034104
 20
-351.530475741999
 11
1792.68493034104
 21
-332.697142408666
  0
SOLID
  5
580
100
AcDbEntity
  8
DIM
100
AcDbTrace
 10
1790.93493034104
 20
-280.530475741999
 30
0.0
 11
1794.43493034104
 21
-280.530475741999
 31
0.0
 12
1792.68493034104
 22
-270.030475741999
 32
0.0
 13
1792.68493034104
 23
-270.030475741999
 33
0.0
  0
SOLID
  5
581
100
AcDbEntity
  8
DIM
100
AcDbTrace
 10
1792.68493034104
 20
-362.030475741999
 30
0.0
 11
1794.43493034104
 21
-351.530475741999
 31
0.0
 12
1790.93493034104
 22
-351.530475741999
 32
0.0
 13
1790.93493034104
 23
-351.530475741999
 33
0.0
  0
TEXT
  5
582
100
AcDbEntity
  8
DIM
 62
0
100
AcDbText
  6
BYLAYER
 62
0
 10
1798.93493034104
 20
-322.280475741998
 40
12.5
  1
92
  7
Font_0
 50
90
 72
1
 11
1792.68493034104
 21
-316.030475741998
100
AcDbText
 73
2
  0
LINE
  5
583
100
AcDbEntity
  8
DIM
100
AcDbLine
  6
BYLAYER
 62
0
370
  -2
 10
1763.95585582997
 20
-261.030475741999
 11
1816.719433461
 21
-261.030475741999
  0
LINE
  5
584
100
AcDbEntity
  8
DIM
100
AcDbLine
  6
BYLAYER
 62
0
370
  -2
 10
1763.95585582997
 20
-371.030475741999
 11
1816.719433461
 21
-371.030475741999
  0
LINE
  5
585
100
AcDbEntity
  8
DIM
100
AcDbLine
  6
BYLAYER
 62
0
370
  -2
 10
1812.969433461
 20
-271.530475741999
 11
1812.969433461
 21
-298.322142408666
  0
LINE
  5
586
100
AcDbEntity
  8
DIM
100
AcDbLine
  6
BYLAYER
 62
0
370
  -2
 10
1812.969433461
 20
-360.530475741999
 11
1812.969433461
 21
-333.738809075332
  0
SOLID
  5
587
100
AcDbEntity
  8
DIM
100
AcDbTrace
 10
1811.219433461
 20
-271.530475741999
 30
0.0
 11
1814.719433461
 21
-271.530475741999
 31
0.0
 12
1812.969433461
 22
-261.030475741999
 32
0.0
 13
1812.969433461
 23
-261.030475741999
 33
0.0
  0
SOLID
  5
588
100
AcDbEntity
  8
DIM
100
AcDbTrace
 10
1812.969433461
 20
-371.030475741999
 30
0.0
 11
1814.719433461
 21
-360.530475741999
 31
0.0
 12
1811.219433461
 22
-360.530475741999
 32
0.0
 13
1811.219433461
 23
-360.530475741999
 33
0.0
  0
TEXT
  5
589
100
AcDbEntity
  8
DIM
 62
0
100
AcDbText
  6
BYLAYER
 62
0
 10
1819.219433461
 20
-325.405475741999
 40
12.5
  1
110
  7
Font_0
 50
90
 72
1
 11
1812.969433461
 21
-316.030475741999
100
AcDbText
 73
2
  0
LINE
  5
58A
100
AcDbEntity
  8
DIM
100
AcDbLine
  6
BYLAYER
 62
0
370
  -2
 10
1658.50808874967
 20
-477.489634864225
 11
1693.67030962754
 21
-477.489634864225
  0
LINE
  5
58B
100
AcDbEntity
  8
DIM
100
AcDbLine
  6
BYLAYER
 62
0
370
  -2
 10
1658.50585582997
 20
-577.489634864225
 11
1693.67030962754
 21
-577.489634864225
  0
LINE
  5
58C
100
AcDbEntity
  8
DIM
100
AcDbLine
  6
BYLAYER
 62
0
370
  -2
 10
1689.92030962754
 20
-487.989634864225
 11
1689.92030962754
 21
-508.739634864225
  0
LINE
  5
58D
100
AcDbEntity
  8
DIM
100
AcDbLine
  6
BYLAYER
 62
0
370
  -2
 10
1689.92030962754
 20
-566.989634864225
 11
1689.92030962754
 21
-546.239634864225
  0
SOLID
  5
58E
100
AcDbEntity
  8
DIM
100
AcDbTrace
 10
1688.17030962754
 20
-487.989634864225
 30
0.0
 11
1691.67030962754
 21
-487.989634864225
 31
0.0
 12
1689.92030962754
 22
-477.489634864225
 32
0.0
 13
1689.92030962754
 23
-477.489634864225
 33
0.0
  0
SOLID
  5
58F
100
AcDbEntity
  8
DIM
100
AcDbTrace
 10
1689.92030962754
 20
-577.489634864225
 30
0.0
 11
1691.67030962754
 21
-566.989634864225
 31
0.0
 12
1688.17030962754
 22
-566.989634864225
 32
0.0
 13
1688.17030962754
 23
-566.989634864225
 33
0.0
  0
TEXT
  5
590
100
AcDbEntity
  8
DIM
 62
0
100
AcDbText
  6
BYLAYER
 62
0
 10
1696.17030962754
 20
-536.864634864225
 40
12.5
  1
100
  7
Font_0
 50
90
 72
1
 11
1689.92030962754
 21
-527.489634864225
100
AcDbText
 73
2
  0
LINE
  5
591
100
AcDbEntity
  8
DIM
100
AcDbLine
  6
BYLAYER
 62
0
370
  -2
 10
1579.53818204119
 20
-498.689852314795
 11
1569.03818204119
 21
-498.689852314794
  0
LINE
  5
592
100
AcDbEntity
  8
DIM
100
AcDbLine
  6
BYLAYER
 62
0
370
  -2
 10
1569.03818204119
 20
-498.689852314794
 11
1563.7752833667
 21
-489.604044835979
  0
TEXT
  5
593
100
AcDbEntity
  8
DIM
 62
0
100
AcDbText
  6
BYLAYER
 62
0
 10
1592.03818204119
 20
-504.939852314795
 40
12.5
  1
R3.5
  7
Font_0
 72
1
 11
1604.53818204119
 21
-498.689852314795
100
AcDbText
 73
2
  0
SOLID
  5
594
100
AcDbEntity
  8
DIM
100
AcDbTrace
 10
1558.51238469222
 20
-480.518237357163
 30
0.0
 11
1562.26098212023
 21
-490.48119461506
 31
0.0
 12
1565.28958461317
 22
-488.726895056898
 32
0.0
 13
1565.28958461317
 23
-488.726895056898
 33
0.0
  0
LINE
  5
595
100
AcDbEntity
  8
DIM
100
AcDbLine
  6
BYLAYER
 62
0
370
  -2
 10
1560.25585221436
 20
-575.739634864225
 11
1560.25585221436
 21
-559.051402131729
  0
LINE
  5
596
100
AcDbEntity
  8
DIM
100
AcDbLine
  6
BYLAYER
 62
0
370
  -2
 10
1547.25585221436
 20
-575.739634864225
 11
1547.25585221436
 21
-559.051402131729
  0
LINE
  5
597
100
AcDbEntity
  8
DIM
100
AcDbLine
  6
BYLAYER
 62
0
370
  -2
 10
1536.75585221436
 20
-562.801402131729
 11
1526.25585221436
 21
-562.801402131729
  0
LINE
  5
598
100
AcDbEntity
  8
DIM
100
AcDbLine
  6
BYLAYER
 62
0
370
  -2
 10
1570.75585221436
 20
-562.801402131729
 11
1581.25585221436
 21
-562.801402131729
  0
SOLID
  5
599
100
AcDbEntity
  8
DIM
100
AcDbTrace
 10
1536.75585221436
 20
-561.051402131729
 30
0.0
 11
1536.75585221436
 21
-564.551402131729
 31
0.0
 12
1547.25585221436
 22
-562.801402131729
 32
0.0
 13
1547.25585221436
 23
-562.801402131729
 33
0.0
  0
SOLID
  5
59A
100
AcDbEntity
  8
DIM
100
AcDbTrace
 10
1560.25585221436
 20
-562.801402131729
 30
0.0
 11
1570.75585221436
 21
-564.551402131729
 31
0.0
 12
1570.75585221436
 22
-561.051402131729
 32
0.0
 13
1570.75585221436
 23
-561.051402131729
 33
0.0
  0
TEXT
  5
59B
100
AcDbEntity
  8
DIM
 62
0
100
AcDbText
  6
BYLAYER
 62
0
 10
1589.58918554769
 20
-569.051402131729
 40
12.5
  1
13
  7
Font_0
 72
1
 11
1595.83918554769
 21
-562.801402131729
100
AcDbText
 73
2
  0
LINE
  5
59C
100
AcDbEntity
  8
DIM
100
AcDbLine
  6
BYLAYER
 62
0
370
  -2
 10
1636.26392201817
 20
-343.568690988679
 11
1646.76392201817
 21
-343.568690988679
  0
LINE
  5
59D
100
AcDbEntity
  8
DIM
100
AcDbLine
  6
BYLAYER
 62
0
370
  -2
 10
1646.76392201817
 20
-343.568690988679
 11
1656.4419544833
 21
-339.496138029663
  0
TEXT
  5
59E
100
AcDbEntity
  8
DIM
 62
0
100
AcDbText
  6
BYLAYER
 62
0
 10
1595.63892201817
 20
-349.818690988679
 40
12.5
  1
φ100
  7
Font_0
 72
1
 11
1611.26392201817
 21
-343.568690988679
100
AcDbText
 73
2
  0
SOLID
  5
59F
100
AcDbEntity
  8
DIM
100
AcDbTrace
 10
1655.76319565679
 20
-337.883132618808
 30
0.0
 11
1657.1207133098
 21
-341.109143440517
 31
0.0
 12
1666.11998694842
 22
-335.423585070647
 32
0.0
 13
1666.11998694842
 23
-335.423585070647
 33
0.0
  0
LINE
  5
5A0
100
AcDbEntity
  8
BASE
100
AcDbLine
  6
BYLAYER
 10
1672.95585582997
 20
-373.280469394138
 11
1670.50585582997
 21
-373.280469394138
  0
LINE
  5
5A1
100
AcDbEntity
  8
BASE
100
AcDbLine
  6
BYLAYER
 10
1656.75585582997
 20
-360.730469394137
 11
1656.75585582997
 21
-201.530469394137
  0
LINE
  5
5A2
100
AcDbEntity
  8
PV-236
100
AcDbLine
  6
BYLAYER
 10
1672.95585582997
 20
-174.530469394137
 11
1671.75585582997
 21
-174.530469394137
  0
LINE
  5
5A3
100
AcDbEntity
  8
0
100
AcDbLine
  6
BYLAYER
 10
1672.95585582997
 20
-174.530469394137
 11
1672.95585582997
 21
-261.030475741999
  0
LINE
  5
5A4
100
AcDbEntity
  8
0
100
AcDbLine
  6
BYLAYER
 10
1672.95585582997
 20
-371.030475741999
 11
1672.95585582997
 21
-374.530469394137
  0
ARC
  5
5A5
100
AcDbEntity
  8
0
100
AcDbCircle
  6
BYLAYER
 10
1671.75585582997
 20
-374.530469394137
 40
1.2
100
AcDbArc
 50
270
 51
0
  0
LINE
  5
5A6
100
AcDbEntity
  8
0
100
AcDbLine
  6
BYLAYER
 10
1541.75585582997
 20
-374.530469394138
 11
1541.75585582997
 21
-375.730469394137
  0
LINE
  5
5A7
100
AcDbEntity
  8
0
100
AcDbLine
  6
BYLAYER
 10
1671.75585582997
 20
-174.530469394137
 11
1671.75585582997
 21
-186.136215336167
  0
LINE
  5
5A8
100
AcDbEntity
  8
0
100
AcDbLine
  6
BYLAYER
 10
1671.75585582997
 20
-375.730469394137
 11
1541.75585582997
 21
-375.730469394137
  0
LINE
  5
5A9
100
AcDbEntity
  8
0
100
AcDbLine
  6
BYLAYER
 10
1671.75585582997
 20
-373.280469394138
 11
1671.75585582997
 21
-374.530469394137
  0
LINE
  5
5AA
100
AcDbEntity
  8
0
100
AcDbLine
  6
BYLAYER
 10
1670.50585582997
 20
-371.030475741999
 11
1670.50585582997
 21
-373.280469394138
  0
LINE
  5
5AB
100
AcDbEntity
  8
0
100
AcDbLine
  6
BYLAYER
 10
1553.80393287672
 20
-374.530469394138
 11
1541.75585582997
 21
-374.530469394138
  0
LINE
  5
5AC
100
AcDbEntity
  8
0
100
AcDbLine
  6
BYLAYER
 10
1657.20585582997
 20
-360.730469394137
 11
1568.75585582997
 21
-360.730469394137
  0
ARC
  5
5AD
100
AcDbEntity
  8
0
100
AcDbCircle
  6
BYLAYER
 10
1568.75585582997
 20
-375.730469394137
 40
15
100
AcDbArc
 50
90
 51
175.411434264211
  0
LINE
  5
5AE
100
AcDbEntity
  8
0
100
AcDbLine
  6
BYLAYER
 10
1670.50585582997
 20
-373.280469394137
 11
1670.50585582997
 21
-375.730469394137
  0
LINE
  5
5AF
100
AcDbEntity
  8
0
100
AcDbLine
  6
BYLAYER
 10
1670.50585582997
 20
-374.530469394137
 11
1671.75585582997
 21
-374.530469394137
  0
ARC
  5
5B0
100
AcDbEntity
  8
0
100
AcDbCircle
  6
BYLAYER
 10
1671.75585582997
 20
-201.530469394138
 40
15
100
AcDbArc
 50
91.8127124360993
 51
180
  0
ARC
  5
5B1
100
AcDbEntity
  8
0
100
AcDbCircle
  6
BYLAYER
 10
1671.26555172831
 20
-186.038226112807
 40
0.500000000001556
100
AcDbArc
 50
271.812712436256
 51
348.698112610642
  0
LINE
  5
5B2
100
AcDbEntity
  8
PV-236
100
AcDbLine
  6
BYLAYER
 10
1656.75808874967
 20
-480.989634864225
 11
1650.75808874967
 21
-480.989634864225
  0
ARC
  5
5B3
100
AcDbEntity
  8
PV-236
100
AcDbCircle
  6
BYLAYER
 10
1650.75808874967
 20
-477.489634864225
 40
3.5
100
AcDbArc
 50
90
 51
270
  0
LINE
  5
5B4
100
AcDbEntity
  8
PV-236
100
AcDbLine
  6
BYLAYER
 10
1650.75808874967
 20
-473.989634864225
 11
1656.75808874967
 21
-473.989634864225
  0
ARC
  5
5B5
100
AcDbEntity
  8
PV-236
100
AcDbCircle
  6
BYLAYER
 10
1656.75808874967
 20
-477.489634864225
 40
3.5
100
AcDbArc
 50
270
 51
90
  0
LINE
  5
5B6
100
AcDbEntity
  8
PV-236
100
AcDbLine
  6
BYLAYER
 10
1556.75808513406
 20
-480.989634864224
 11
1550.75808513406
 21
-480.989634864224
  0
ARC
  5
5B7
100
AcDbEntity
  8
PV-236
100
AcDbCircle
  6
BYLAYER
 10
1550.75808513406
 20
-477.489634864224
 40
3.5
100
AcDbArc
 50
90
 51
270
  0
LINE
  5
5B8
100
AcDbEntity
  8
PV-236
100
AcDbLine
  6
BYLAYER
 10
1550.75808513406
 20
-473.989634864224
 11
1556.75808513406
 21
-473.989634864224
  0
ARC
  5
5B9
100
AcDbEntity
  8
PV-236
100
AcDbCircle
  6
BYLAYER
 10
1556.75808513406
 20
-477.489634864224
 40
3.5
100
AcDbArc
 50
270
 51
90
  0
LINE
  5
5BA
100
AcDbEntity
  8
PV-236
100
AcDbLine
  6
BYLAYER
 10
1556.75585221436
 20
-580.989634864224
 11
1550.75585221436
 21
-580.989634864224
  0
ARC
  5
5BB
100
AcDbEntity
  8
PV-236
100
AcDbCircle
  6
BYLAYER
 10
1550.75585221436
 20
-577.489634864224
 40
3.5
100
AcDbArc
 50
90
 51
270
  0
LINE
  5
5BC
100
AcDbEntity
  8
PV-236
100
AcDbLine
  6
BYLAYER
 10
1550.75585221436
 20
-573.989634864224
 11
1556.75585221436
 21
-573.989634864224
  0
ARC
  5
5BD
100
AcDbEntity
  8
PV-236
100
AcDbCircle
  6
BYLAYER
 10
1556.75585221436
 20
-577.489634864224
 40
3.5
100
AcDbArc
 50
270
 51
90
  0
LINE
  5
5BE
100
AcDbEntity
  8
PV-236
100
AcDbLine
  6
BYLAYER
 10
1656.75585582997
 20
-580.989634864223
 11
1650.75585582997
 21
-580.989634864223
  0
ARC
  5
5BF
100
AcDbEntity
  8
PV-236
100
AcDbCircle
  6
BYLAYER
 10
1650.75585582997
 20
-577.489634864224
 40
3.5
100
AcDbArc
 50
90
 51
270
  0
LINE
  5
5C0
100
AcDbEntity
  8
PV-236
100
AcDbLine
  6
BYLAYER
 10
1650.75585582997
 20
-573.989634864223
 11
1656.75585582997
 21
-573.989634864223
  0
ARC
  5
5C1
100
AcDbEntity
  8
PV-236
100
AcDbCircle
  6
BYLAYER
 10
1656.75585582997
 20
-577.489634864224
 40
3.5
100
AcDbArc
 50
270
 51
90
  0
LINE
  5
5C2
100
AcDbEntity
  8
HIDDEN
100
AcDbLine
  6
BYLAYER
 10
1671.75585582997
 20
-462.489634864226
 11
1671.75585582997
 21
-592.489634864224
  0
LINE
  5
5C3
100
AcDbEntity
  8
HIDDEN
100
AcDbLine
  6
BYLAYER
 10
1656.75585582997
 20
-592.48963486422
 11
1656.75585582997
 21
-593.689634864225
  0
LINE
  5
5C4
100
AcDbEntity
  8
PV-236
100
AcDbLine
  6
BYLAYER
 10
1672.95585582997
 20
-592.489634864225
 11
1672.95585582997
 21
-462.489634864225
  0
LINE
  5
5C5
100
AcDbEntity
  8
HIDDEN
100
AcDbLine
  6
BYLAYER
 10
1656.75585582997
 20
-592.48963486422
 11
1671.75585582997
 21
-592.489634864224
  0
LINE
  5
5C6
100
AcDbEntity
  8
HIDDEN
100
AcDbLine
  6
BYLAYER
 10
1553.80393106891
 20
-593.689634864225
 11
1670.50585582997
 21
-593.689634864225
  0
ARC
  5
5C7
100
AcDbEntity
  8
0
100
AcDbCircle
  6
BYLAYER
 10
1671.75585582997
 20
-592.489634864225
 40
1.2
100
AcDbArc
 50
270
 51
0
  0
LINE
  5
5C8
100
AcDbEntity
  8
0
100
AcDbLine
  6
BYLAYER
 10
1553.80393106891
 20
-594.889634864225
 11
1670.50585582997
 21
-594.889634864224
  0
LINE
  5
5C9
100
AcDbEntity
  8
HIDDEN
100
AcDbLine
  6
BYLAYER
 10
1656.75585582997
 20
-462.489634864231
 11
1656.75585582997
 21
-461.289634864226
  0
LINE
  5
5CA
100
AcDbEntity
  8
HIDDEN
100
AcDbLine
  6
BYLAYER
 10
1656.75585582997
 20
-462.489634864231
 11
1671.75585582997
 21
-462.489634864226
  0
LINE
  5
5CB
100
AcDbEntity
  8
HIDDEN
100
AcDbLine
  6
BYLAYER
 10
1553.80393106891
 20
-461.289634864224
 11
1670.50585582997
 21
-461.289634864225
  0
ARC
  5
5CC
100
AcDbEntity
  8
0
100
AcDbCircle
  6
BYLAYER
 10
1671.75585582997
 20
-462.489634864225
 40
1.2
100
AcDbArc
 50
0
 51
90
  0
LINE
  5
5CD
100
AcDbEntity
  8
0
100
AcDbLine
  6
BYLAYER
 10
1553.80393106891
 20
-460.089634864225
 11
1670.50585582997
 21
-460.089634864225
  0
LINE
  5
5CE
100
AcDbEntity
  8
0
100
AcDbLine
  6
BYLAYER
 10
1670.50585582997
 20
-461.289634864225
 11
1670.50585582997
 21
-460.089634864226
  0
LINE
  5
5CF
100
AcDbEntity
  8
0
100
AcDbLine
  6
BYLAYER
 10
1670.50585582997
 20
-593.689634864225
 11
1670.50585582997
 21
-594.889634864224
  0
LINE
  5
5D0
100
AcDbEntity
  8
0
100
AcDbLine
  6
BYLAYER
 10
1674.95585582997
 20
-515.98134188896
 11
1674.95585582997
 21
-503.599710345712
  0
LINE
  5
5D1
100
AcDbEntity
  8
HIDDEN
100
AcDbLine
  6
BYLAYER
 10
1673.75585582997
 20
-515.981341888961
 11
1673.75585582997
 21
-503.599710345711
  0
ARC
  5
5D2
100
AcDbEntity
  8
0
100
AcDbCircle
  6
BYLAYER
 10
1673.75585582997
 20
-503.599710345711
 40
1.2
100
AcDbArc
 50
0
 51
45.0000000000044
  0
ARC
  5
5D3
100
AcDbEntity
  8
0
100
AcDbCircle
  6
BYLAYER
 10
1673.75585582997
 20
-515.98134188896
 40
1.2
100
AcDbArc
 50
314.999999999996
 51
0
  0
LINE
  5
5D4
100
AcDbEntity
  8
0
100
AcDbLine
  6
BYLAYER
 10
1672.95585582997
 20
-518.478398163808
 11
1674.60438396739
 21
-516.829870026384
  0
LINE
  5
5D5
100
AcDbEntity
  8
HIDDEN
100
AcDbLine
  6
BYLAYER
 10
1672.10732769254
 20
-517.629870026385
 11
1673.75585582997
 21
-515.98134188896
  0
LINE
  5
5D6
100
AcDbEntity
  8
0
100
AcDbLine
  6
BYLAYER
 10
1674.60438396739
 20
-502.751182208287
 11
1672.95585582997
 21
-501.102654070863
  0
LINE
  5
5D7
100
AcDbEntity
  8
HIDDEN
100
AcDbLine
  6
BYLAYER
 10
1673.75585582997
 20
-503.599710345711
 11
1672.10732769254
 21
-501.951182208286
  0
ARC
  5
5D8
100
AcDbEntity
  8
HIDDEN
100
AcDbCircle
  6
BYLAYER
 10
1672.95585582997
 20
-518.478398163808
 40
1.2
100
AcDbArc
 50
134.999999999996
 51
180
  0
ARC
  5
5D9
100
AcDbEntity
  8
HIDDEN
100
AcDbCircle
  6
BYLAYER
 10
1672.95585582997
 20
-501.102654070863
 40
1.2
100
AcDbArc
 50
180
 51
225.000000000004
  0
LINE
  5
5DA
100
AcDbEntity
  8
0
100
AcDbLine
  6
BYLAYER
 10
1674.95585582997
 20
-497.580674483988
 11
1674.95585582997
 21
-471.939738487157
  0
LINE
  5
5DB
100
AcDbEntity
  8
HIDDEN
100
AcDbLine
  6
BYLAYER
 10
1673.75585582997
 20
-497.580674483988
 11
1673.75585582997
 21
-471.939738487158
  0
ARC
  5
5DC
100
AcDbEntity
  8
HIDDEN
100
AcDbCircle
  6
BYLAYER
 10
1672.95585582997
 20
-500.077730758836
 40
1.2
100
AcDbArc
 50
134.999999999996
 51
180
  0
LINE
  5
5DD
100
AcDbEntity
  8
0
100
AcDbLine
  6
BYLAYER
 10
1672.95585582997
 20
-500.077730758836
 11
1674.60438396739
 21
-498.429202621413
  0
LINE
  5
5DE
100
AcDbEntity
  8
HIDDEN
100
AcDbLine
  6
BYLAYER
 10
1672.10732769254
 20
-499.229202621413
 11
1673.75585582997
 21
-497.580674483988
  0
ARC
  5
5DF
100
AcDbEntity
  8
0
100
AcDbCircle
  6
BYLAYER
 10
1673.75585582997
 20
-497.580674483988
 40
1.2
100
AcDbArc
 50
314.999999999996
 51
0
  0
ARC
  5
5E0
100
AcDbEntity
  8
HIDDEN
100
AcDbCircle
  6
BYLAYER
 10
1672.95585582997
 20
-469.44268221231
 40
1.2
100
AcDbArc
 50
180
 51
225.000000000004
  0
LINE
  5
5E1
100
AcDbEntity
  8
0
100
AcDbLine
  6
BYLAYER
 10
1672.95585582997
 20
-469.44268221231
 11
1674.60438396739
 21
-471.091210349734
  0
LINE
  5
5E2
100
AcDbEntity
  8
HIDDEN
100
AcDbLine
  6
BYLAYER
 10
1672.10732769254
 20
-470.291210349735
 11
1673.75585582997
 21
-471.939738487157
  0
ARC
  5
5E3
100
AcDbEntity
  8
0
100
AcDbCircle
  6
BYLAYER
 10
1673.75585582997
 20
-471.939738487157
 40
1.2
100
AcDbArc
 50
0
 51
45.0000000000044
  0
LINE
  5
5E4
100
AcDbEntity
  8
0
100
AcDbLine
  6
BYLAYER
 10
1674.95585582997
 20
-538.99792783949
 11
1674.95585582997
 21
-551.379559382738
  0
LINE
  5
5E5
100
AcDbEntity
  8
HIDDEN
100
AcDbLine
  6
BYLAYER
 10
1673.75585582997
 20
-538.997927839489
 11
1673.75585582997
 21
-551.379559382739
  0
ARC
  5
5E6
100
AcDbEntity
  8
0
100
AcDbCircle
  6
BYLAYER
 10
1673.75585582997
 20
-551.379559382739
 40
1.2
100
AcDbArc
 50
314.999999999991
 51
0
  0
ARC
  5
5E7
100
AcDbEntity
  8
0
100
AcDbCircle
  6
BYLAYER
 10
1673.75585582997
 20
-538.99792783949
 40
1.2
100
AcDbArc
 50
0
 51
45.000000000009
  0
LINE
  5
5E8
100
AcDbEntity
  8
0
100
AcDbLine
  6
BYLAYER
 10
1672.95585582997
 20
-536.500871564642
 11
1674.60438396739
 21
-538.149399702066
  0
LINE
  5
5E9
100
AcDbEntity
  8
HIDDEN
100
AcDbLine
  6
BYLAYER
 10
1672.10732769254
 20
-537.349399702065
 11
1673.75585582997
 21
-538.99792783949
  0
LINE
  5
5EA
100
AcDbEntity
  8
0
100
AcDbLine
  6
BYLAYER
 10
1674.60438396739
 20
-552.228087520163
 11
1672.95585582997
 21
-553.876615657588
  0
LINE
  5
5EB
100
AcDbEntity
  8
HIDDEN
100
AcDbLine
  6
BYLAYER
 10
1673.75585582997
 20
-551.379559382739
 11
1672.10732769254
 21
-553.028087520164
  0
ARC
  5
5EC
100
AcDbEntity
  8
HIDDEN
100
AcDbCircle
  6
BYLAYER
 10
1672.95585582997
 20
-536.500871564642
 40
1.2
100
AcDbArc
 50
180
 51
225.000000000009
  0
ARC
  5
5ED
100
AcDbEntity
  8
HIDDEN
100
AcDbCircle
  6
BYLAYER
 10
1672.95585582997
 20
-553.876615657588
 40
1.2
100
AcDbArc
 50
134.999999999991
 51
180
  0
LINE
  5
5EE
100
AcDbEntity
  8
0
100
AcDbLine
  6
BYLAYER
 10
1674.95585582997
 20
-557.398595244462
 11
1674.95585582997
 21
-583.039531241293
  0
LINE
  5
5EF
100
AcDbEntity
  8
HIDDEN
100
AcDbLine
  6
BYLAYER
 10
1673.75585582997
 20
-557.398595244462
 11
1673.75585582997
 21
-583.039531241292
  0
ARC
  5
5F0
100
AcDbEntity
  8
HIDDEN
100
AcDbCircle
  6
BYLAYER
 10
1672.95585582997
 20
-554.901538969614
 40
1.2
100
AcDbArc
 50
180
 51
225.000000000009
  0
LINE
  5
5F1
100
AcDbEntity
  8
0
100
AcDbLine
  6
BYLAYER
 10
1672.95585582997
 20
-554.901538969614
 11
1674.60438396739
 21
-556.550067107037
  0
LINE
  5
5F2
100
AcDbEntity
  8
HIDDEN
100
AcDbLine
  6
BYLAYER
 10
1672.10732769254
 20
-555.750067107037
 11
1673.75585582997
 21
-557.398595244462
  0
ARC
  5
5F3
100
AcDbEntity
  8
0
100
AcDbCircle
  6
BYLAYER
 10
1673.75585582997
 20
-557.398595244462
 40
1.2
100
AcDbArc
 50
0
 51
45.000000000009
  0
ARC
  5
5F4
100
AcDbEntity
  8
HIDDEN
100
AcDbCircle
  6
BYLAYER
 10
1672.95585582997
 20
-585.53658751614
 40
1.2
100
AcDbArc
 50
134.999999999991
 51
180
  0
LINE
  5
5F5
100
AcDbEntity
  8
0
100
AcDbLine
  6
BYLAYER
 10
1672.95585582997
 20
-585.53658751614
 11
1674.60438396739
 21
-583.888059378716
  0
LINE
  5
5F6
100
AcDbEntity
  8
HIDDEN
100
AcDbLine
  6
BYLAYER
 10
1672.10732769254
 20
-584.688059378716
 11
1673.75585582997
 21
-583.039531241293
  0
ARC
  5
5F7
100
AcDbEntity
  8
0
100
AcDbCircle
  6
BYLAYER
 10
1673.75585582997
 20
-583.039531241293
 40
1.2
100
AcDbArc
 50
314.999999999991
 51
0
  0
ARC
  5
5F8
100
AcDbEntity
  8
BASE
100
AcDbCircle
  6
BYLAYER
 10
1553.75585582997
 20
-474.489634864226
 40
12.0000000000011
100
AcDbArc
 50
92.2568605590334
 51
179.999999999974
  0
LINE
  5
5F9
100
AcDbEntity
  8
BASE
100
AcDbLine
  6
BYLAYER
 10
1541.75585582997
 20
-474.489634864225
 11
1541.75585582997
 21
-580.489634864225
  0
ARC
  5
5FA
100
AcDbEntity
  8
BASE
100
AcDbCircle
  6
BYLAYER
 10
1553.75585582997
 20
-580.489634864224
 40
12.000000000001
100
AcDbArc
 50
180
 51
267.743139440954
  0
ARC
  5
5FB
100
AcDbEntity
  8
0
100
AcDbCircle
  6
BYLAYER
 10
1553.26361074083
 20
-592.979938965886
 40
0.500000000000094
100
AcDbArc
 50
1.81271243604708
 51
87.7431394409275
  0
ARC
  5
5FC
100
AcDbEntity
  8
0
100
AcDbCircle
  6
BYLAYER
 10
1568.75585402216
 20
-592.489634864224
 40
15.0000000000003
100
AcDbArc
 50
181.812712436099
 51
184.588565735782
  0
LINE
  5
5FD
100
AcDbEntity
  8
0
100
AcDbLine
  6
BYLAYER
 10
1553.80393106891
 20
-593.689634864226
 11
1553.80393106891
 21
-594.889634864225
  0
ARC
  5
5FE
100
AcDbEntity
  8
0
100
AcDbCircle
  6
BYLAYER
 10
1553.26361074083
 20
-461.999330762564
 40
0.500000000000094
100
AcDbArc
 50
272.256860559072
 51
358.187287563953
  0
ARC
  5
5FF
100
AcDbEntity
  8
0
100
AcDbCircle
  6
BYLAYER
 10
1568.75585402216
 20
-462.489634864226
 40
15.0000000000003
100
AcDbArc
 50
175.411434264218
 51
178.187287563901
  0
LINE
  5
600
100
AcDbEntity
  8
0
100
AcDbLine
  6
BYLAYER
 10
1553.80393106891
 20
-461.289634864224
 11
1553.80393106891
 21
-460.089634864225
  0
LINE
  5
601
100
AcDbEntity
  8
0
100
AcDbLine
  6
BYLAYER
 10
1670.50585582997
 20
-461.289634864225
 11
1671.75585582997
 21
-461.289634864225
  0
LINE
  5
602
100
AcDbEntity
  8
0
100
AcDbLine
  6
BYLAYER
 10
1671.75585582997
 20
-593.689634864225
 11
1670.50585582997
 21
-593.689634434485
  0
LINE
  5
603
100
AcDbEntity
  8
0
100
AcDbLine
  6
BYLAYER
 10
1671.75585582997
 20
-186.136215336167
 11
1672.95585582997
 21
-186.136215336167
  0
LINE
  5
604
100
AcDbEntity
  8
DIM
100
AcDbLine
  6
BYLAYER
 62
0
370
  -2
 10
1653.7528510858
 20
-379.876686047952
 11
1653.7528510858
 21
-395.59564354005
  0
LINE
  5
605
100
AcDbEntity
  8
DIM
100
AcDbLine
  6
BYLAYER
 62
0
370
  -2
 10
1553.7528510858
 20
-379.876686047951
 11
1553.7528510858
 21
-395.59564354005
  0
LINE
  5
606
100
AcDbEntity
  8
DIM
100
AcDbLine
  6
BYLAYER
 62
0
370
  -2
 10
1643.2528510858
 20
-391.84564354005
 11
1622.5028510858
 21
-391.84564354005
  0
LINE
  5
607
100
AcDbEntity
  8
DIM
100
AcDbLine
  6
BYLAYER
 62
0
370
  -2
 10
1564.2528510858
 20
-391.84564354005
 11
1585.0028510858
 21
-391.84564354005
  0
SOLID
  5
608
100
AcDbEntity
  8
DIM
100
AcDbTrace
 10
1643.2528510858
 20
-390.09564354005
 30
0.0
 11
1643.2528510858
 21
-393.59564354005
 31
0.0
 12
1653.7528510858
 22
-391.84564354005
 32
0.0
 13
1653.7528510858
 23
-391.84564354005
 33
0.0
  0
SOLID
  5
609
100
AcDbEntity
  8
DIM
100
AcDbTrace
 10
1553.7528510858
 20
-391.84564354005
 30
0.0
 11
1564.2528510858
 21
-393.59564354005
 31
0.0
 12
1564.2528510858
 22
-390.09564354005
 32
0.0
 13
1564.2528510858
 23
-390.09564354005
 33
0.0
  0
TEXT
  5
60A
100
AcDbEntity
  8
DIM
 62
0
100
AcDbText
  6
BYLAYER
 62
0
 10
1594.3778510858
 20
-398.09564354005
 40
12.5
  1
100
  7
Font_0
 72
1
 11
1603.7528510858
 21
-391.84564354005
100
AcDbText
 73
2
  0
LINE
  5
60B
100
AcDbEntity
  8
DIM
100
AcDbLine
  6
BYLAYER
 62
0
370
  -2
 10
1553.7528510858
 20
-379.876686047951
 11
1553.7528510858
 21
-395.59564354005
  0
LINE
  5
60C
100
AcDbEntity
  8
DIM
100
AcDbLine
  6
BYLAYER
 62
0
370
  -2
 10
1541.75585582997
 20
-377.480469394137
 11
1541.75585582997
 21
-395.59564354005
  0
LINE
  5
60D
100
AcDbEntity
  8
DIM
100
AcDbLine
  6
BYLAYER
 62
0
370
  -2
 10
1564.2528510858
 20
-391.84564354005
 11
1574.7528510858
 21
-391.84564354005
  0
LINE
  5
60E
100
AcDbEntity
  8
DIM
100
AcDbLine
  6
BYLAYER
 62
0
370
  -2
 10
1531.25585582997
 20
-391.84564354005
 11
1520.75585582997
 21
-391.84564354005
  0
SOLID
  5
60F
100
AcDbEntity
  8
DIM
100
AcDbTrace
 10
1553.7528510858
 20
-391.84564354005
 30
0.0
 11
1564.2528510858
 21
-393.59564354005
 31
0.0
 12
1564.2528510858
 22
-390.09564354005
 32
0.0
 13
1564.2528510858
 23
-390.09564354005
 33
0.0
  0
SOLID
  5
610
100
AcDbEntity
  8
DIM
100
AcDbTrace
 10
1531.25585582997
 20
-390.09564354005
 30
0.0
 11
1531.25585582997
 21
-393.59564354005
 31
0.0
 12
1541.75585582997
 22
-391.84564354005
 32
0.0
 13
1541.75585582997
 23
-391.84564354005
 33
0.0
  0
TEXT
  5
611
100
AcDbEntity
  8
DIM
 62
0
100
AcDbText
  6
BYLAYER
 62
0
 10
1499.92252249664
 20
-398.09564354005
 40
12.5
  1
12
  7
Font_0
 72
1
 11
1506.17252249664
 21
-391.84564354005
100
AcDbText
 73
2
  0
LINE
  5
612
100
AcDbEntity
  8
DIM
100
AcDbLine
  6
BYLAYER
 62
0
370
  -2
 10
1672.95585582997
 20
-376.280469394137
 11
1672.95585582997
 21
-418.25458165841
  0
LINE
  5
613
100
AcDbEntity
  8
DIM
100
AcDbLine
  6
BYLAYER
 62
0
370
  -2
 10
1541.75585582997
 20
-377.480469394137
 11
1541.75585582997
 21
-418.25458165841
  0
LINE
  5
614
100
AcDbEntity
  8
DIM
100
AcDbLine
  6
BYLAYER
 62
0
370
  -2
 10
1662.45585582997
 20
-414.50458165841
 11
1622.5028510858
 21
-414.50458165841
  0
LINE
  5
615
100
AcDbEntity
  8
DIM
100
AcDbLine
  6
BYLAYER
 62
0
370
  -2
 10
1552.25585582997
 20
-414.50458165841
 11
1585.0028510858
 21
-414.50458165841
  0
SOLID
  5
616
100
AcDbEntity
  8
DIM
100
AcDbTrace
 10
1662.45585582997
 20
-412.75458165841
 30
0.0
 11
1662.45585582997
 21
-416.25458165841
 31
0.0
 12
1672.95585582997
 22
-414.50458165841
 32
0.0
 13
1672.95585582997
 23
-414.50458165841
 33
0.0
  0
SOLID
  5
617
100
AcDbEntity
  8
DIM
100
AcDbTrace
 10
1541.75585582997
 20
-414.50458165841
 30
0.0
 11
1552.25585582997
 21
-416.25458165841
 31
0.0
 12
1552.25585582997
 22
-412.75458165841
 32
0.0
 13
1552.25585582997
 23
-412.75458165841
 33
0.0
  0
TEXT
  5
618
100
AcDbEntity
  8
DIM
 62
0
100
AcDbText
  6
BYLAYER
 62
0
 10
1594.3778510858
 20
-420.75458165841
 40
12.5
  1
131
  7
Font_0
 72
1
 11
1603.7528510858
 21
-414.50458165841
100
AcDbText
 73
2
  0
LINE
  5
619
100
AcDbEntity
  8
DIM
100
AcDbLine
  6
BYLAYER
 62
0
370
  -2
 10
1653.75585582997
 20
-582.739634864223
 11
1653.75585582997
 21
-615.870889656692
  0
LINE
  5
61A
100
AcDbEntity
  8
DIM
100
AcDbLine
  6
BYLAYER
 62
0
370
  -2
 10
1553.75585221436
 20
-582.739634864224
 11
1553.75585221436
 21
-615.870889656692
  0
LINE
  5
61B
100
AcDbEntity
  8
DIM
100
AcDbLine
  6
BYLAYER
 62
0
370
  -2
 10
1643.25585582997
 20
-612.120889656692
 11
1622.50585402216
 21
-612.120889656692
  0
LINE
  5
61C
100
AcDbEntity
  8
DIM
100
AcDbLine
  6
BYLAYER
 62
0
370
  -2
 10
1564.25585221436
 20
-612.120889656692
 11
1585.00585402216
 21
-612.120889656692
  0
SOLID
  5
61D
100
AcDbEntity
  8
DIM
100
AcDbTrace
 10
1643.25585582997
 20
-610.370889656692
 30
0.0
 11
1643.25585582997
 21
-613.870889656692
 31
0.0
 12
1653.75585582997
 22
-612.120889656692
 32
0.0
 13
1653.75585582997
 23
-612.120889656692
 33
0.0
  0
SOLID
  5
61E
100
AcDbEntity
  8
DIM
100
AcDbTrace
 10
1553.75585221436
 20
-612.120889656692
 30
0.0
 11
1564.25585221436
 21
-613.870889656692
 31
0.0
 12
1564.25585221436
 22
-610.370889656692
 32
0.0
 13
1564.25585221436
 23
-610.370889656692
 33
0.0
  0
TEXT
  5
61F
100
AcDbEntity
  8
DIM
 62
0
100
AcDbText
  6
BYLAYER
 62
0
 10
1594.38085402216
 20
-618.370889656692
 40
12.5
  1
100
  7
Font_0
 72
1
 11
1603.75585402216
 21
-612.120889656692
100
AcDbText
 73
2
  0
LINE
  5
620
100
AcDbEntity
  8
DIM
100
AcDbLine
  6
BYLAYER
 62
0
370
  -2
 10
1553.75585221436
 20
-582.739634864224
 11
1553.75585221436
 21
-615.870889656692
  0
LINE
  5
621
100
AcDbEntity
  8
DIM
100
AcDbLine
  6
BYLAYER
 62
0
370
  -2
 10
1541.75585582997
 20
-582.239634864224
 11
1541.75585582997
 21
-615.870889656692
  0
LINE
  5
622
100
AcDbEntity
  8
DIM
100
AcDbLine
  6
BYLAYER
 62
0
370
  -2
 10
1564.25585221436
 20
-612.120889656692
 11
1574.75585221436
 21
-612.120889656692
  0
LINE
  5
623
100
AcDbEntity
  8
DIM
100
AcDbLine
  6
BYLAYER
 62
0
370
  -2
 10
1531.25585582997
 20
-612.120889656692
 11
1520.75585582997
 21
-612.120889656692
  0
SOLID
  5
624
100
AcDbEntity
  8
DIM
100
AcDbTrace
 10
1553.75585221436
 20
-612.120889656692
 30
0.0
 11
1564.25585221436
 21
-613.870889656692
 31
0.0
 12
1564.25585221436
 22
-610.370889656692
 32
0.0
 13
1564.25585221436
 23
-610.370889656692
 33
0.0
  0
SOLID
  5
625
100
AcDbEntity
  8
DIM
100
AcDbTrace
 10
1531.25585582997
 20
-610.370889656692
 30
0.0
 11
1531.25585582997
 21
-613.870889656692
 31
0.0
 12
1541.75585582997
 22
-612.120889656692
 32
0.0
 13
1541.75585582997
 23
-612.120889656692
 33
0.0
  0
TEXT
  5
626
100
AcDbEntity
  8
DIM
 62
0
100
AcDbText
  6
BYLAYER
 62
0
 10
1499.92252249664
 20
-618.370889656692
 40
12.5
  1
12
  7
Font_0
 72
1
 11
1506.17252249664
 21
-612.120889656692
100
AcDbText
 73
2
  0
LINE
  5
627
100
AcDbEntity
  8
DIM
100
AcDbLine
  6
BYLAYER
 62
0
370
  -2
 10
1786.95585582997
 20
-193.780469394137
 11
1786.95585582997
 21
-122.307853173135
  0
LINE
  5
628
100
AcDbEntity
  8
DIM
100
AcDbLine
  6
BYLAYER
 62
0
370
  -2
 10
1534.95585582997
 20
-201.580469394138
 11
1534.95585582997
 21
-122.307853173135
  0
LINE
  5
629
100
AcDbEntity
  8
DIM
100
AcDbLine
  6
BYLAYER
 62
0
370
  -2
 10
1776.45585582997
 20
-126.057853173135
 11
1683.87252249663
 21
-126.057853173135
  0
LINE
  5
62A
100
AcDbEntity
  8
DIM
100
AcDbLine
  6
BYLAYER
 62
0
370
  -2
 10
1545.45585582997
 20
-126.057853173135
 11
1638.0391891633
 21
-126.057853173135
  0
SOLID
  5
62B
100
AcDbEntity
  8
DIM
100
AcDbTrace
 10
1776.45585582997
 20
-124.307853173135
 30
0.0
 11
1776.45585582997
 21
-127.807853173135
 31
0.0
 12
1786.95585582997
 22
-126.057853173135
 32
0.0
 13
1786.95585582997
 23
-126.057853173135
 33
0.0
  0
SOLID
  5
62C
100
AcDbEntity
  8
DIM
100
AcDbTrace
 10
1534.95585582997
 20
-126.057853173135
 30
0.0
 11
1545.45585582997
 21
-127.807853173135
 31
0.0
 12
1545.45585582997
 22
-124.307853173135
 32
0.0
 13
1545.45585582997
 23
-124.307853173135
 33
0.0
  0
TEXT
  5
62D
100
AcDbEntity
  8
DIM
 62
0
100
AcDbText
  6
BYLAYER
 62
0
 10
1651.58085582997
 20
-132.307853173135
 40
12.5
  1
252
  7
Font_0
 72
1
 11
1660.95585582997
 21
-126.057853173135
100
AcDbText
 73
2
  0
LINE
  5
62E
100
AcDbEntity
  8
CEN
100
AcDbLine
  6
BYLAYER
 10
1951.47570396957
 20
-378.726686365346
 11
1951.47570396957
 21
-372.734253057718
  0
LINE
  5
62F
100
AcDbEntity
  8
CEN
100
AcDbLine
  6
BYLAYER
 10
2051.47570396957
 20
-378.726686365346
 11
2051.47570396957
 21
-372.734253057718
  0
LINE
  5
630
100
AcDbEntity
  8
DIM
100
AcDbLine
  6
BYLAYER
 62
0
370
  -2
 10
2051.47570396957
 20
-380.476686365346
 11
2051.47570396957
 21
-395.049969557744
  0
LINE
  5
631
100
AcDbEntity
  8
DIM
100
AcDbLine
  6
BYLAYER
 62
0
370
  -2
 10
1951.47570396957
 20
-380.476686365346
 11
1951.47570396957
 21
-395.049969557744
  0
LINE
  5
632
100
AcDbEntity
  8
DIM
100
AcDbLine
  6
BYLAYER
 62
0
370
  -2
 10
2040.97570396957
 20
-391.299969557744
 11
2020.22570396957
 21
-391.299969557744
  0
LINE
  5
633
100
AcDbEntity
  8
DIM
100
AcDbLine
  6
BYLAYER
 62
0
370
  -2
 10
1961.97570396957
 20
-391.299969557744
 11
1982.72570396957
 21
-391.299969557744
  0
SOLID
  5
634
100
AcDbEntity
  8
DIM
100
AcDbTrace
 10
2040.97570396957
 20
-389.549969557744
 30
0.0
 11
2040.97570396957
 21
-393.049969557744
 31
0.0
 12
2051.47570396957
 22
-391.299969557744
 32
0.0
 13
2051.47570396957
 23
-391.299969557744
 33
0.0
  0
SOLID
  5
635
100
AcDbEntity
  8
DIM
100
AcDbTrace
 10
1951.47570396957
 20
-391.299969557744
 30
0.0
 11
1961.97570396957
 21
-393.049969557744
 31
0.0
 12
1961.97570396957
 22
-389.549969557744
 32
0.0
 13
1961.97570396957
 23
-389.549969557744
 33
0.0
  0
TEXT
  5
636
100
AcDbEntity
  8
DIM
 62
0
100
AcDbText
  6
BYLAYER
 62
0
 10
1992.10070396957
 20
-397.549969557744
 40
12.5
  1
100
  7
Font_0
 72
1
 11
2001.47570396957
 21
-391.299969557744
100
AcDbText
 73
2
  0
LINE
  5
637
100
AcDbEntity
  8
DIM
100
AcDbLine
  6
BYLAYER
 62
0
370
  -2
 10
2068.87570396957
 20
-376.280469711532
 11
2068.87570396957
 21
-416.342298923992
  0
LINE
  5
638
100
AcDbEntity
  8
DIM
100
AcDbLine
  6
BYLAYER
 62
0
370
  -2
 10
1934.07570396956
 20
-376.280469711532
 11
1934.07570396956
 21
-416.342298923992
  0
LINE
  5
639
100
AcDbEntity
  8
DIM
100
AcDbLine
  6
BYLAYER
 62
0
370
  -2
 10
2058.37570396957
 20
-412.592298923992
 11
2022.3090373029
 21
-412.592298923992
  0
LINE
  5
63A
100
AcDbEntity
  8
DIM
100
AcDbLine
  6
BYLAYER
 62
0
370
  -2
 10
1944.57570396956
 20
-412.592298923992
 11
1980.64237063623
 21
-412.592298923992
  0
SOLID
  5
63B
100
AcDbEntity
  8
DIM
100
AcDbTrace
 10
2058.37570396957
 20
-410.842298923992
 30
0.0
 11
2058.37570396957
 21
-414.342298923992
 31
0.0
 12
2068.87570396957
 22
-412.592298923992
 32
0.0
 13
2068.87570396957
 23
-412.592298923992
 33
0.0
  0
SOLID
  5
63C
100
AcDbEntity
  8
DIM
100
AcDbTrace
 10
1934.07570396956
 20
-412.592298923992
 30
0.0
 11
1944.57570396956
 21
-414.342298923992
 31
0.0
 12
1944.57570396956
 22
-410.842298923992
 32
0.0
 13
1944.57570396956
 23
-410.842298923992
 33
0.0
  0
TEXT
  5
63D
100
AcDbEntity
  8
DIM
 62
0
100
AcDbText
  6
BYLAYER
 62
0
 10
1992.10070396957
 20
-418.842298923992
 40
12.5
  1
135
  7
Font_0
 72
1
 11
2001.47570396957
 21
-412.592298923992
100
AcDbText
 73
2
  0
LINE
  5
63E
100
AcDbEntity
  8
DIM
100
AcDbLine
  6
BYLAYER
 62
0
370
  -2
 10
2101.38570396957
 20
-244.53046971153
 11
2118.45289272895
 21
-244.53046971153
  0
LINE
  5
63F
100
AcDbEntity
  8
DIM
100
AcDbLine
  6
BYLAYER
 62
0
370
  -2
 10
2012.59692083082
 20
-159.204999456233
 11
2118.45289272895
 21
-159.204999456233
  0
LINE
  5
640
100
AcDbEntity
  8
DIM
100
AcDbLine
  6
BYLAYER
 62
0
370
  -2
 10
2114.70289272895
 20
-234.03046971153
 11
2114.70289272895
 21
-218.534401250548
  0
LINE
  5
641
100
AcDbEntity
  8
DIM
100
AcDbLine
  6
BYLAYER
 62
0
370
  -2
 10
2114.70289272895
 20
-169.704999456233
 11
2114.70289272895
 21
-185.201067917215
  0
SOLID
  5
642
100
AcDbEntity
  8
DIM
100
AcDbTrace
 10
2114.70289272895
 20
-244.53046971153
 30
0.0
 11
2116.45289272895
 21
-234.03046971153
 31
0.0
 12
2112.95289272895
 22
-234.03046971153
 32
0.0
 13
2112.95289272895
 23
-234.03046971153
 33
0.0
  0
SOLID
  5
643
100
AcDbEntity
  8
DIM
100
AcDbTrace
 10
2112.95289272895
 20
-169.704999456233
 30
0.0
 11
2116.45289272895
 21
-169.704999456233
 31
0.0
 12
2114.70289272895
 22
-159.204999456233
 32
0.0
 13
2114.70289272895
 23
-159.204999456233
 33
0.0
  0
TEXT
  5
644
100
AcDbEntity
  8
DIM
 62
0
100
AcDbText
  6
BYLAYER
 62
0
 10
2120.95289272895
 20
-208.117734583881
 40
12.5
  1
86
  7
Font_0
 50
90
 72
1
 11
2114.70289272895
 21
-201.867734583881
100
AcDbText
 73
2
  0
LINE
  5
645
100
AcDbEntity
  8
DIM
100
AcDbLine
  6
BYLAYER
 62
0
370
  -2
 10
2012.59692083082
 20
-159.204999456233
 11
2134.2839415879
 21
-159.204999456233
  0
LINE
  5
646
100
AcDbEntity
  8
DIM
100
AcDbLine
  6
BYLAYER
 62
0
370
  -2
 10
2069.42570396957
 20
-375.730469711532
 11
2134.2839415879
 21
-375.730469711532
  0
LINE
  5
647
100
AcDbEntity
  8
DIM
100
AcDbLine
  6
BYLAYER
 62
0
370
  -2
 10
2130.5339415879
 20
-169.704999456233
 11
2130.5339415879
 21
-246.13440125055
  0
LINE
  5
648
100
AcDbEntity
  8
DIM
100
AcDbLine
  6
BYLAYER
 62
0
370
  -2
 10
2130.5339415879
 20
-365.230469711532
 11
2130.5339415879
 21
-287.801067917216
  0
SOLID
  5
649
100
AcDbEntity
  8
DIM
100
AcDbTrace
 10
2128.7839415879
 20
-169.704999456233
 30
0.0
 11
2132.2839415879
 21
-169.704999456233
 31
0.0
 12
2130.5339415879
 22
-159.204999456233
 32
0.0
 13
2130.5339415879
 23
-159.204999456233
 33
0.0
  0
SOLID
  5
64A
100
AcDbEntity
  8
DIM
100
AcDbTrace
 10
2130.5339415879
 20
-375.730469711532
 30
0.0
 11
2132.2839415879
 21
-365.230469711532
 31
0.0
 12
2128.7839415879
 22
-365.230469711532
 32
0.0
 13
2128.7839415879
 23
-365.230469711532
 33
0.0
  0
TEXT
  5
64B
100
AcDbEntity
  8
DIM
 62
0
100
AcDbText
  6
BYLAYER
 62
0
 10
2136.7839415879
 20
-276.342734583883
 40
12.5
  1
217
  7
Font_0
 50
90
 72
1
 11
2130.5339415879
 21
-266.967734583883
100
AcDbText
 73
2
  0
LINE
  5
64C
100
AcDbEntity
  8
DIM
100
AcDbLine
  6
BYLAYER
 62
0
370
  -2
 10
2100.0748878875
 20
-252.055581800028
 11
2100.0748878875
 21
-140.972424240919
  0
LINE
  5
64D
100
AcDbEntity
  8
DIM
100
AcDbLine
  6
BYLAYER
 62
0
370
  -2
 10
2001.47570396957
 20
-157.960469711532
 11
2001.47570396957
 21
-140.972424240919
  0
LINE
  5
64E
100
AcDbEntity
  8
DIM
100
AcDbLine
  6
BYLAYER
 62
0
370
  -2
 10
2089.5748878875
 20
-144.722424240919
 11
2067.4419625952
 21
-144.722424240919
  0
LINE
  5
64F
100
AcDbEntity
  8
DIM
100
AcDbLine
  6
BYLAYER
 62
0
370
  -2
 10
2011.97570396957
 20
-144.722424240919
 11
2034.10862926186
 21
-144.722424240919
  0
SOLID
  5
650
100
AcDbEntity
  8
DIM
100
AcDbTrace
 10
2089.5748878875
 20
-142.972424240919
 30
0.0
 11
2089.5748878875
 21
-146.472424240919
 31
0.0
 12
2100.0748878875
 22
-144.722424240919
 32
0.0
 13
2100.0748878875
 23
-144.722424240919
 33
0.0
  0
SOLID
  5
651
100
AcDbEntity
  8
DIM
100
AcDbTrace
 10
2001.47570396957
 20
-144.722424240919
 30
0.0
 11
2011.97570396957
 21
-146.472424240919
 31
0.0
 12
2011.97570396957
 22
-142.972424240919
 32
0.0
 13
2011.97570396957
 23
-142.972424240919
 33
0.0
  0
TEXT
  5
652
100
AcDbEntity
  8
DIM
 62
0
100
AcDbText
  6
BYLAYER
 62
0
 10
2044.52529592853
 20
-150.972424240919
 40
12.5
  1
99
  7
Font_0
 72
1
 11
2050.77529592853
 21
-144.722424240919
100
AcDbText
 73
2
  0
LINE
  5
653
100
AcDbEntity
  8
DIM
100
AcDbLine
  6
BYLAYER
 62
0
370
  -2
 10
2001.47570396957
 20
-157.960469711532
 11
2001.47570396957
 21
-140.972424240919
  0
LINE
  5
654
100
AcDbEntity
  8
DIM
100
AcDbLine
  6
BYLAYER
 62
0
370
  -2
 10
1904.97570412826
 20
-259.280475646782
 11
1904.97570412826
 21
-140.972424240919
  0
LINE
  5
655
100
AcDbEntity
  8
DIM
100
AcDbLine
  6
BYLAYER
 62
0
370
  -2
 10
1990.97570396957
 20
-144.722424240919
 11
1969.89237071558
 21
-144.722424240919
  0
LINE
  5
656
100
AcDbEntity
  8
DIM
100
AcDbLine
  6
BYLAYER
 62
0
370
  -2
 10
1915.47570412826
 20
-144.722424240919
 11
1936.55903738225
 21
-144.722424240919
  0
SOLID
  5
657
100
AcDbEntity
  8
DIM
100
AcDbTrace
 10
1990.97570396957
 20
-142.972424240919
 30
0.0
 11
1990.97570396957
 21
-146.472424240919
 31
0.0
 12
2001.47570396957
 22
-144.722424240919
 32
0.0
 13
2001.47570396957
 23
-144.722424240919
 33
0.0
  0
SOLID
  5
658
100
AcDbEntity
  8
DIM
100
AcDbTrace
 10
1904.97570412826
 20
-144.722424240919
 30
0.0
 11
1915.47570412826
 21
-146.472424240919
 31
0.0
 12
1915.47570412826
 22
-142.972424240919
 32
0.0
 13
1915.47570412826
 23
-142.972424240919
 33
0.0
  0
TEXT
  5
659
100
AcDbEntity
  8
DIM
 62
0
100
AcDbText
  6
BYLAYER
 62
0
 10
1946.97570404892
 20
-150.972424240919
 40
12.5
  1
96
  7
Font_0
 72
1
 11
1953.22570404892
 21
-144.722424240919
100
AcDbText
 73
2
  0
LINE
  5
65A
100
AcDbEntity
  8
DIM
100
AcDbLine
  6
BYLAYER
 62
0
370
  -2
 10
1904.97570412826
 20
-259.280475646782
 11
1904.97570412826
 21
-140.972424240919
  0
LINE
  5
65B
100
AcDbEntity
  8
DIM
100
AcDbLine
  6
BYLAYER
 62
0
370
  -2
 10
1874.97570412826
 20
-264.580475646782
 11
1874.97570412826
 21
-140.972424240919
  0
LINE
  5
65C
100
AcDbEntity
  8
DIM
100
AcDbLine
  6
BYLAYER
 62
0
370
  -2
 10
1915.47570412826
 20
-144.722424240919
 11
1925.97570412826
 21
-144.722424240919
  0
LINE
  5
65D
100
AcDbEntity
  8
DIM
100
AcDbLine
  6
BYLAYER
 62
0
370
  -2
 10
1864.47570412826
 20
-144.722424240919
 11
1853.97570412826
 21
-144.722424240919
  0
SOLID
  5
65E
100
AcDbEntity
  8
DIM
100
AcDbTrace
 10
1904.97570412826
 20
-144.722424240919
 30
0.0
 11
1915.47570412826
 21
-146.472424240919
 31
0.0
 12
1915.47570412826
 22
-142.972424240919
 32
0.0
 13
1915.47570412826
 23
-142.972424240919
 33
0.0
  0
SOLID
  5
65F
100
AcDbEntity
  8
DIM
100
AcDbTrace
 10
1864.47570412826
 20
-142.972424240919
 30
0.0
 11
1864.47570412826
 21
-146.472424240919
 31
0.0
 12
1874.97570412826
 22
-144.722424240919
 32
0.0
 13
1874.97570412826
 23
-144.722424240919
 33
0.0
  0
TEXT
  5
660
100
AcDbEntity
  8
DIM
 62
0
100
AcDbText
  6
BYLAYER
 62
0
 10
1883.72570412826
 20
-150.972424240919
 40
12.5
  1
30
  7
Font_0
 72
1
 11
1889.97570412826
 21
-144.722424240919
100
AcDbText
 73
2
  0
LINE
  5
661
100
AcDbEntity
  8
DIM
100
AcDbLine
  6
BYLAYER
 62
0
370
  -2
 10
1874.97570412826
 20
-264.580475646782
 11
1874.97570412826
 21
-122.307853173135
  0
LINE
  5
662
100
AcDbEntity
  8
DIM
100
AcDbLine
  6
BYLAYER
 62
0
370
  -2
 10
2100.0748878875
 20
-252.055581800028
 11
2100.0748878875
 21
-122.307853173135
  0
LINE
  5
663
100
AcDbEntity
  8
DIM
100
AcDbLine
  6
BYLAYER
 62
0
370
  -2
 10
1885.47570412826
 20
-126.057853173135
 11
1964.60862934121
 21
-126.057853173135
  0
LINE
  5
664
100
AcDbEntity
  8
DIM
100
AcDbLine
  6
BYLAYER
 62
0
370
  -2
 10
2089.5748878875
 20
-126.057853173135
 11
2010.44196267455
 21
-126.057853173135
  0
SOLID
  5
665
100
AcDbEntity
  8
DIM
100
AcDbTrace
 10
1874.97570412826
 20
-126.057853173135
 30
0.0
 11
1885.47570412826
 21
-127.807853173135
 31
0.0
 12
1885.47570412826
 22
-124.307853173135
 32
0.0
 13
1885.47570412826
 23
-124.307853173135
 33
0.0
  0
SOLID
  5
666
100
AcDbEntity
  8
DIM
100
AcDbTrace
 10
2089.5748878875
 20
-124.307853173135
 30
0.0
 11
2089.5748878875
 21
-127.807853173135
 31
0.0
 12
2100.0748878875
 22
-126.057853173135
 32
0.0
 13
2100.0748878875
 23
-126.057853173135
 33
0.0
  0
TEXT
  5
667
100
AcDbEntity
  8
DIM
 62
0
100
AcDbText
  6
BYLAYER
 62
0
 10
1978.15029600788
 20
-132.307853173136
 40
12.5
  1
225
  7
Font_0
 72
1
 11
1987.52529600788
 21
-126.057853173135
100
AcDbText
 73
2
  0
LINE
  5
668
100
AcDbEntity
  8
DIM
100
AcDbLine
  6
BYLAYER
 62
0
370
  -2
 10
2101.38570396957
 20
-244.530469711532
 11
2118.45289272895
 21
-244.530469711532
  0
LINE
  5
669
100
AcDbEntity
  8
DIM
100
AcDbLine
  6
BYLAYER
 62
0
370
  -2
 10
2003.22570396957
 20
-356.286240920291
 11
2118.45289272895
 21
-356.286240920291
  0
LINE
  5
66A
100
AcDbEntity
  8
DIM
100
AcDbLine
  6
BYLAYER
 62
0
370
  -2
 10
2114.70289272895
 20
-255.030469711532
 11
2114.70289272895
 21
-281.658355315911
  0
LINE
  5
66B
100
AcDbEntity
  8
DIM
100
AcDbLine
  6
BYLAYER
 62
0
370
  -2
 10
2114.70289272895
 20
-345.786240920291
 11
2114.70289272895
 21
-319.158355315911
  0
SOLID
  5
66C
100
AcDbEntity
  8
DIM
100
AcDbTrace
 10
2112.95289272895
 20
-255.030469711532
 30
0.0
 11
2116.45289272895
 21
-255.030469711532
 31
0.0
 12
2114.70289272895
 22
-244.530469711532
 32
0.0
 13
2114.70289272895
 23
-244.530469711532
 33
0.0
  0
SOLID
  5
66D
100
AcDbEntity
  8
DIM
100
AcDbTrace
 10
2114.70289272895
 20
-356.286240920291
 30
0.0
 11
2116.45289272895
 21
-345.786240920291
 31
0.0
 12
2112.95289272895
 22
-345.786240920291
 32
0.0
 13
2112.95289272895
 23
-345.786240920291
 33
0.0
  0
TEXT
  5
66E
100
AcDbEntity
  8
DIM
 62
0
100
AcDbText
  6
BYLAYER
 62
0
 10
2120.95289272895
 20
-309.783355315911
 40
12.5
  1
112
  7
Font_0
 50
90
 72
1
 11
2114.70289272895
 21
-300.408355315911
100
AcDbText
 73
2
  0
LINE
  5
66F
100
AcDbEntity
  8
PV-236
100
AcDbLine
  6
BYLAYER
 10
2067.67570396957
 20
-375.730469711533
 11
1935.27570396956
 21
-375.730469711533
  0
LINE
  5
670
100
AcDbEntity
  8
PV-236
100
AcDbLine
  6
BYLAYER
 10
2067.67570396957
 20
-360.730469711533
 11
2068.87570396957
 21
-360.730469711533
  0
LINE
  5
671
100
AcDbEntity
  8
0
100
AcDbLine
  6
BYLAYER
 10
2067.67570396957
 20
-327.129356433704
 11
2067.67570396957
 21
-374.530469711532
  0
LINE
  5
672
100
AcDbEntity
  8
0
100
AcDbLine
  6
BYLAYER
 10
2068.87570396957
 20
-360.730469711533
 11
2068.87570396957
 21
-374.530469711532
  0
ARC
  5
673
100
AcDbEntity
  8
0
100
AcDbCircle
  6
BYLAYER
 10
2067.67570396957
 20
-374.530469711532
 40
1.2
100
AcDbArc
 50
270
 51
0
  0
LINE
  5
674
100
AcDbEntity
  8
PV-236
100
AcDbLine
  6
BYLAYER
 10
1935.27570396956
 20
-360.730469711533
 11
1934.07570396956
 21
-360.730469711533
  0
LINE
  5
675
100
AcDbEntity
  8
0
100
AcDbLine
  6
BYLAYER
 10
1934.07570396956
 20
-360.730469711533
 11
1934.07570396956
 21
-374.530469711532
  0
ARC
  5
676
100
AcDbEntity
  8
0
100
AcDbCircle
  6
BYLAYER
 10
1935.27570396956
 20
-374.530469711532
 40
1.2
100
AcDbArc
 50
180
 51
270
  0
LINE
  5
677
100
AcDbEntity
  8
BASE
100
AcDbLine
  6
BYLAYER
 10
1960.55430055166
 20
-174.530469711533
 11
1948.47570396957
 21
-174.530469711533
  0
ARC
  5
678
100
AcDbEntity
  8
BASE
100
AcDbCircle
  6
BYLAYER
 10
1948.47570396957
 20
-186.530469711534
 40
12.000000000001
100
AcDbArc
 50
90
 51
177.743139440966
  0
ARC
  5
679
100
AcDbEntity
  8
0
100
AcDbCircle
  6
BYLAYER
 10
1935.98539986791
 20
-186.038226430203
 40
0.500000000000566
100
AcDbArc
 50
348.698112608113
 51
357.743139440875
  0
LINE
  5
67A
100
AcDbEntity
  8
0
100
AcDbLine
  6
BYLAYER
 10
1936.47570396956
 20
-186.136215653585
 11
1935.27570396956
 21
-186.136215653585
  0
LINE
  5
67B
100
AcDbEntity
  8
0
100
AcDbLine
  6
BYLAYER
 10
1935.27570396956
 20
-186.136215653585
 11
1935.27570396956
 21
-200.675828405185
  0
LINE
  5
67C
100
AcDbEntity
  8
0
100
AcDbLine
  6
BYLAYER
 10
1935.27570396956
 20
-356.030473913816
 11
1935.27570396956
 21
-374.530469711532
  0
LINE
  5
67D
100
AcDbEntity
  8
BASE
100
AcDbLine
  6
BYLAYER
 10
1757.45585582997
 20
-166.530469394137
 11
1752.45585582997
 21
-166.530469394138
  0
ARC
  5
67E
100
AcDbEntity
  8
BASE
100
AcDbCircle
  6
BYLAYER
 10
1752.45585582997
 20
-167.530469394138
 40
1
100
AcDbArc
 50
90
 51
180
  0
LINE
  5
67F
100
AcDbEntity
  8
0
100
AcDbLine
  6
BYLAYER
 10
1752.45585582997
 20
-166.530469394138
 11
1752.45585582997
 21
-261.030475741999
  0
LINE
  5
680
100
AcDbEntity
  8
0
100
AcDbLine
  6
BYLAYER
 10
1757.45585582997
 20
-166.530469394137
 11
1757.45585582997
 21
-261.030475741999
  0
CIRCLE
  5
681
100
AcDbEntity
  8
0
100
AcDbCircle
  6
BYLAYER
 10
2001.47570396957
 20
-244.530469711532
 40
77
  0
CIRCLE
  5
682
100
AcDbEntity
  8
0
100
AcDbCircle
  6
BYLAYER
 10
2001.47570396957
 20
-244.530469711532
 40
78
  0
LWPOLYLINE
  5
683
100
AcDbEntity
  8
0
100
AcDbPolyline
  6
BYLAYER
 90
     100
 10
1925.50306866381
  20
-276.030475551564
 10
1924.82662899196
  20
-272.993000965375
 10
1924.16556977161
  20
-269.938779317974
 10
1923.53688102025
  20
-266.858257216775
 10
1922.95755275537
  20
-263.741881269192
 10
1922.44457499446
  20
-260.580098082638
 10
1922.01493775498
  20
-257.363354264528
 10
1921.68563105444
  20
-254.082096422274
 10
1921.4736449103
  20
-250.726771163291
 10
1921.39596934006
  20
-247.287825094993
 10
1921.46749563378
  20
-243.759676820744
 10
1921.69472017191
  20
-240.152632927713
 10
1922.08204060745
  20
-236.48097199902
 10
1922.63385459345
  20
-232.758972617784
 10
1923.35455978291
  20
-229.000913367125
 10
1924.24855382886
  20
-225.221072830162
 10
1925.32023438433
  20
-221.433729590015
 10
1926.57399910233
  20
-217.653162229804
 10
1928.0142456359
  20
-213.893649332649
 10
1929.64456509781
  20
-210.169120368227
 10
1931.46532243996
  20
-206.492108352448
 10
1933.476076074
  20
-202.874797187783
 10
1935.67638441157
  20
-199.3293707767
 10
1938.06580586433
  20
-195.868013021667
 10
1940.64389884393
  20
-192.502907825153
 10
1943.41022176203
  20
-189.246239089628
 10
1946.36433303027
  20
-186.110190717561
 10
1949.5057910603
  20
-183.10694661142
 10
1952.83321591558
  20
-180.247593934692
 10
1956.34147426669
  20
-177.538832894938
 10
1960.02449443605
  20
-174.986266960735
 10
1963.87620474603
  20
-172.595499600664
 10
1967.89053351904
  20
-170.372134283301
 10
1972.06140907747
  20
-168.321774477226
 10
1976.38275974371
  20
-166.450023651016
 10
1980.84851384016
  20
-164.762485273251
 10
1985.45259968922
  20
-163.264762812509
 10
1990.18721004433
  20
-161.964765665722
 10
1995.03759538322
  20
-160.879626943236
 10
1999.98727061465
  20
-160.028785683753
 10
2005.01975064741
  20
-159.431680925971
 10
2010.11855039027
  20
-159.107751708592
 10
2015.26718475201
  20
-159.076437070316
 10
2020.4491686414
  20
-159.357176049844
 10
2025.64801696722
  20
-159.969407685875
 10
2030.84724463824
  20
-160.93257101711
 10
2036.02832556745
  20
-162.260670809065
 10
2041.16456968471
  20
-163.945974734525
 10
2046.22724592405
  20
-165.975316193089
 10
2051.18762321955
  20
-168.335528584355
 10
2056.01697050526
  20
-171.013445307925
 10
2060.68655671524
  20
-173.995899763397
 10
2065.16765078353
  20
-177.269725350371
 10
2069.43152164421
  20
-180.821755468448
 10
2073.44943823132
  20
-184.638823517226
 10
2077.19705519842
  20
-188.705744620708
 10
2080.66757007704
  20
-192.999260800502
 10
2083.85856611821
  20
-197.494095802621
 10
2086.76762657294
  20
-202.164973373076
 10
2089.39233469226
  20
-206.986617257878
 10
2091.7302737272
  20
-211.93375120304
 10
2093.77902692877
  20
-216.981098954572
 10
2095.53617754802
  20
-222.103384258487
 10
2096.99930883595
  20
-227.275330860795
 10
2098.16696329739
  20
-232.475310093477
 10
2099.0415204523
  20
-237.696283632384
 10
2099.62631907444
  20
-242.934860739334
 10
2099.92469793758
  20
-248.187650676147
 10
2099.93999581546
  20
-253.451262704642
 10
2099.67555148186
  20
-258.722306086638
 10
2099.13470371053
  20
-263.997390083954
 10
2098.32079127523
  20
-269.273123958409
 10
2097.23715294972
  20
-274.546116971822
 10
2095.88766713331
  20
-279.809151433603
 10
2094.27837072754
  20
-285.039701843525
 10
2092.4158402595
  20
-290.211415748951
 10
2090.30665225628
  20
-295.297940697244
 10
2087.95738324496
  20
-300.272924235767
 10
2085.37460975263
  20
-305.110013911884
 10
2082.5649083064
  20
-309.782857272958
 10
2079.53485543333
  20
-314.265101866353
 10
2076.29102766053
  20
-318.530395239431
 10
2072.84190198606
  20
-322.557156017303
 10
2069.20355729194
  20
-326.342887136067
 10
2065.39397293116
  20
-329.889862609569
 10
2061.43112825672
  20
-333.200356451654
 10
2057.33300262161
  20
-336.276642676168
 10
2053.11757537883
  20
-339.120995296956
 10
2048.80282588137
  20
-341.735688327863
 10
2044.40673348223
  20
-344.122995782736
 10
2039.9472775344
  20
-346.285191675419
 10
2035.44456125425
  20
-348.224605332537
 10
2030.92718331161
  20
-349.943787331831
 10
2026.42586623971
  20
-351.445343563822
 10
2021.97133257174
  20
-352.731879919029
 10
2017.59430484092
  20
-353.806002287974
 10
2013.32550558046
  20
-354.670316561176
 10
2009.19565732357
  20
-355.327428629156
 10
2005.23548260346
  20
-355.779944382435
 10
2001.47570395334
  20
-356.030469711532
  0
ENDSEC
  0
SECTION
  2
OBJECTS
  0
DICTIONARY
  5
684
100
AcDbDictionary
  3
ACAD_GROUP
350
685
  3
ACAD_MLINESTYLE
350
686
  0
DICTIONARY
  5
685
102
{ACAD_REACTORS
330
684
102
}
100
AcDbDictionary
  0
DICTIONARY
  5
686
102
{ACAD_REACTORS
330
684
102
}
100
AcDbDictionary
  3
STANDARD
350
687
  0
MLINESTYLE
  5
687
102
{ACAD_REACTORS
330
686
102
}
100
AcDbMlineStyle
  2
Standard
 70
     0
  3

 62
     0
 51
90.0
 52
90.0
 71
     2
 49
0.5
 62
   256
  6
ByLayer
 49
-0.5
 62
   256
  6
ByLayer
  0
ENDSEC
  0
EOF
