999
Outputted By AR_CAD Ver.1.6.0
  0
SECTION
  2
HEADER
  9
$ACADVER
  1
AC1014
  9
$DWGCODEPAGE
  3
ANSI_932
  9
$EXTMIN
 10
0
 20
0
  9
$EXTMAX
 10
297
 20
210
  9
$INSBASE
 10
0.0
 20
0.0
 30
0.0
  9
$HANDLING
 70
     1
  9
$HANDSEED
  5
8CE
  9
$LTSCALE
 40
1
  0
ENDSEC
  0
SECTION
  2
TABLES
  0
TABLE
  2
VPORT
  5
1
100
AcDbSymbolTable
 70
     1
  0
VPORT
  5
30
100
AcDbSymbolTableRecord
100
AcDbViewportTableRecord
  2
*ACTIVE
 70
     0
 10
0.0
 20
0.0
 11
1.0
 21
1.0
 12
210.0
 22
148.5
 13
0.0
 23
0.0
 14
10.0
 24
10.0
 15
10.0
 25
10.0
 16
0.0
 26
0.0
 36
1.0
 17
0.0
 27
0.0
 37
0.0
 40
302.94
 41
1.333333
 42
50.0
 43
0.0
 44
0.0
 50
0.0
 51
0.0
 71
     0
 72
   100
 73
     1
 74
     1
 75
     0
 76
     0
 77
     0
 78
     0
  0
ENDTAB
  0
TABLE
  2
LTYPE
  5
2
100
AcDbSymbolTable
 70
     28
  0
LTYPE
  5
31
100
AcDbSymbolTableRecord
100
AcDbLinetypeTableRecord
  2
BYBLOCK
 70
    64
 3

 72
    65
 73
    0
 40
    0
  0
LTYPE
  5
32
100
AcDbSymbolTableRecord
100
AcDbLinetypeTableRecord
  2
BYLAYER
 70
    64
 3

 72
    65
 73
    0
 40
    0
  0
LTYPE
  5
33
100
AcDbSymbolTableRecord
100
AcDbLinetypeTableRecord
  2
CONTINUOUS
 70
    64
 3
CONTINUOUS
 72
    65
 73
    0
 40
    0
  0
LTYPE
  5
34
100
AcDbSymbolTableRecord
100
AcDbLinetypeTableRecord
  2
DASHED
 70
    64
 3

 72
    65
 73
    2
 40
    3.5
 49
    2.91666666666667
 74
    0
 49
    -0.583333333333333
 74
    0
  0
LTYPE
  5
35
100
AcDbSymbolTableRecord
100
AcDbLinetypeTableRecord
  2
DOT
 70
    64
 3

 72
    65
 73
    2
 40
    0.5
 49
    0.25
 74
    0
 49
    -0.25
 74
    0
  0
LTYPE
  5
36
100
AcDbSymbolTableRecord
100
AcDbLinetypeTableRecord
  2
DASHDOT
 70
    64
 3

 72
    65
 73
    4
 40
    3.5
 49
    1.84210526315789
 74
    0
 49
    -0.552631578947368
 74
    0
 49
    0.552631578947368
 74
    0
 49
    -0.552631578947368
 74
    0
  0
LTYPE
  5
37
100
AcDbSymbolTableRecord
100
AcDbLinetypeTableRecord
  2
DIVIDE
 70
    64
 3

 72
    65
 73
    6
 40
    3.5
 49
    1.4
 74
    0
 49
    -0.42
 74
    0
 49
    0.42
 74
    0
 49
    -0.42
 74
    0
 49
    0.42
 74
    0
 49
    -0.42
 74
    0
  0
LTYPE
  5
38
100
AcDbSymbolTableRecord
100
AcDbLinetypeTableRecord
  2
HIDDEN
 70
    64
 3

 72
    65
 73
    2
 40
    9.525
 49
    6.35
 74
    0
 49
    -3.175
 74
    0
  0
LTYPE
  5
39
100
AcDbSymbolTableRecord
100
AcDbLinetypeTableRecord
  2
CENTERX2
 70
    64
 3

 72
    65
 73
    4
 40
    4
 49
    2.5
 74
    0
 49
    -0.5
 74
    0
 49
    0.5
 74
    0
 49
    -0.5
 74
    0
  0
LTYPE
  5
3A
100
AcDbSymbolTableRecord
100
AcDbLinetypeTableRecord
  2
CENTER
 70
    64
 3

 72
    65
 73
    4
 40
    50.8
 49
    31.75
 74
    0
 49
    -6.35
 74
    0
 49
    6.35
 74
    0
 49
    -6.35
 74
    0
  0
LTYPE
  5
3B
100
AcDbSymbolTableRecord
100
AcDbLinetypeTableRecord
  2
BORDER
 70
    64
 3

 72
    65
 73
    6
 40
    44.45
 49
    12.7
 74
    0
 49
    -6.35
 74
    0
 49
    12.7
 74
    0
 49
    -6.35
 74
    0
 49
    0
 74
    0
 49
    -6.35
 74
    0
  0
LTYPE
  5
3C
100
AcDbSymbolTableRecord
100
AcDbLinetypeTableRecord
  2
AM_ISO02W050
 70
    64
 3

 72
    65
 73
    2
 40
    7.5
 49
    6
 74
    0
 49
    -1.5
 74
    0
  0
LTYPE
  5
3D
100
AcDbSymbolTableRecord
100
AcDbLinetypeTableRecord
  2
AM_ISO08W050
 70
    64
 3

 72
    65
 73
    4
 40
    18
 49
    12
 74
    0
 49
    -1.5
 74
    0
 49
    3
 74
    0
 49
    -1.5
 74
    0
  0
LTYPE
  5
3E
100
AcDbSymbolTableRecord
100
AcDbLinetypeTableRecord
  2
AM_ISO09W050
 70
    64
 3

 72
    65
 73
    6
 40
    22.5
 49
    12
 74
    0
 49
    -1.5
 74
    0
 49
    3
 74
    0
 49
    -1.5
 74
    0
 49
    3
 74
    0
 49
    -1.5
 74
    0
  0
LTYPE
  5
3F
100
AcDbSymbolTableRecord
100
AcDbLinetypeTableRecord
  2
Amconstr
 70
    64
 3

 72
    65
 73
    1
 40
    9999
 49
    9999
 74
    0
  0
LTYPE
  5
40
100
AcDbSymbolTableRecord
100
AcDbLinetypeTableRecord
  2
AM_ISO08W050x2
 70
    64
 3

 72
    65
 73
    4
 40
    9
 49
    6
 74
    0
 49
    -0.75
 74
    0
 49
    1.5
 74
    0
 49
    -0.75
 74
    0
  0
LTYPE
  5
41
100
AcDbSymbolTableRecord
100
AcDbLinetypeTableRecord
  2
AM_ISO02W050x2
 70
    64
 3

 72
    65
 73
    2
 40
    3.75
 49
    3
 74
    0
 49
    -0.75
 74
    0
  0
LTYPE
  5
42
100
AcDbSymbolTableRecord
100
AcDbLinetypeTableRecord
  2
Amzigzag
 70
    64
 3

 72
    65
 73
    2
 40
    4
 49
    2
 74
    0
 49
    -2
 74
    0
  0
LTYPE
  5
43
100
AcDbSymbolTableRecord
100
AcDbLinetypeTableRecord
  2
PHANTOM2
 70
    64
 3

 72
    65
 73
    6
 40
    1.25
 49
    0.625
 74
    0
 49
    -0.125
 74
    0
 49
    0.125
 74
    0
 49
    -0.125
 74
    0
 49
    0.125
 74
    0
 49
    -0.125
 74
    0
  0
LTYPE
  5
44
100
AcDbSymbolTableRecord
100
AcDbLinetypeTableRecord
  2
CENTER2
 70
    64
 3

 72
    65
 73
    4
 40
    1.125
 49
    0.75
 74
    0
 49
    -0.125
 74
    0
 49
    0.125
 74
    0
 49
    -0.125
 74
    0
  0
LTYPE
  5
45
100
AcDbSymbolTableRecord
100
AcDbLinetypeTableRecord
  2
HIDDEN2
 70
    64
 3

 72
    65
 73
    2
 40
    0.188
 49
    0.125668449197861
 74
    0
 49
    -0.062331550802139
 74
    0
  0
LTYPE
  5
46
100
AcDbSymbolTableRecord
100
AcDbLinetypeTableRecord
  2
Amzigzag2
 70
    64
 3

 72
    65
 73
    2
 40
    4
 49
    2
 74
    0
 49
    -2
 74
    0
  0
LTYPE
  5
47
100
AcDbSymbolTableRecord
100
AcDbLinetypeTableRecord
  2
ACANSTGB
 70
    64
 3

 72
    65
 73
    6
 40
    0.354
 49
    0.157892045454545
 74
    0
 49
    -0.0392215909090909
 74
    0
 49
    0.0392215909090909
 74
    0
 49
    -0.0392215909090909
 74
    0
 49
    0.0392215909090909
 74
    0
 49
    -0.0392215909090909
 74
    0
  0
LTYPE
  5
48
100
AcDbSymbolTableRecord
100
AcDbLinetypeTableRecord
  2
ACANSTGL
 70
    64
 3

 72
    65
 73
    2
 40
    0.118
 49
    0.079
 74
    0
 49
    -0.039
 74
    0
  0
LTYPE
  5
49
100
AcDbSymbolTableRecord
100
AcDbLinetypeTableRecord
  2
BORDERX2
 70
    64
 3

 72
    65
 73
    6
 40
    3.5
 49
    1
 74
    0
 49
    -0.5
 74
    0
 49
    1
 74
    0
 49
    -0.5
 74
    0
 49
    0
 74
    0
 49
    -0.5
 74
    0
  0
LTYPE
  5
4A
100
AcDbSymbolTableRecord
100
AcDbLinetypeTableRecord
  2
BORDER2
 70
    64
 3

 72
    65
 73
    6
 40
    0.875
 49
    0.25
 74
    0
 49
    -0.125
 74
    0
 49
    0.25
 74
    0
 49
    -0.125
 74
    0
 49
    0
 74
    0
 49
    -0.125
 74
    0
  0
LTYPE
  5
4B
100
AcDbSymbolTableRecord
100
AcDbLinetypeTableRecord
  2
ACISOWELD
 70
    64
 3

 72
    65
 73
    2
 40
    2
 49
    1.33333333333333
 74
    0
 49
    -0.666666666666667
 74
    0
  0
LTYPE
  5
4C
100
AcDbSymbolTableRecord
100
AcDbLinetypeTableRecord
  2
ACISOTGB
 70
    64
 3

 72
    65
 73
    6
 40
    9
 49
    4
 74
    0
 49
    -1
 74
    0
 49
    1
 74
    0
 49
    -1
 74
    0
 49
    1
 74
    0
 49
    -1
 74
    0
  0
LTYPE
  5
4D
100
AcDbSymbolTableRecord
100
AcDbLinetypeTableRecord
  2
ACISOTGL
 70
    64
 3

 72
    65
 73
    2
 40
    3
 49
    2
 74
    0
 49
    -1
 74
    0
  0
ENDTAB
  0
TABLE
  2
LAYER
  5
3
100
AcDbSymbolTable
 70
   257
  0
LAYER
  5
4E
100
AcDbSymbolTableRecord
100
AcDbLayerTableRecord
  2
0
 70
    0
 62
7
  6
CONTINUOUS
  0
LAYER
  5
4F
100
AcDbSymbolTableRecord
100
AcDbLayerTableRecord
  2
DEFPOINTS
 70
    0
 62
7
  6
CONTINUOUS
  0
LAYER
  5
50
100
AcDbSymbolTableRecord
100
AcDbLayerTableRecord
  2
ASHADE
 70
    4
 62
7
  6
CONTINUOUS
  0
LAYER
  5
51
100
AcDbSymbolTableRecord
100
AcDbLayerTableRecord
  2
CEN
 70
    0
 62
3
  6
AM_ISO08W050
  0
LAYER
  5
52
100
AcDbSymbolTableRecord
100
AcDbLayerTableRecord
  2
DIM
 70
    0
 62
1
  6
CONTINUOUS
  0
LAYER
  5
53
100
AcDbSymbolTableRecord
100
AcDbLayerTableRecord
  2
HIDDEN
 70
    0
 62
3
  6
CONTINUOUS
  0
LAYER
  5
54
100
AcDbSymbolTableRecord
100
AcDbLayerTableRecord
  2
HATCH
 70
    0
 62
5
  6
CONTINUOUS
  0
LAYER
  5
55
100
AcDbSymbolTableRecord
100
AcDbLayerTableRecord
  2
TEXT
 70
    0
 62
7
  6
CONTINUOUS
  0
LAYER
  5
56
100
AcDbSymbolTableRecord
100
AcDbLayerTableRecord
  2
M
 70
    0
 62
6
  6
CONTINUOUS
  0
LAYER
  5
57
100
AcDbSymbolTableRecord
100
AcDbLayerTableRecord
  2
BREAK
 70
    0
 62
3
  6
AM_ISO09W050
  0
LAYER
  5
58
100
AcDbSymbolTableRecord
100
AcDbLayerTableRecord
  2
01
 70
    0
 62
3
  6
CONTINUOUS
  0
LAYER
  5
59
100
AcDbSymbolTableRecord
100
AcDbLayerTableRecord
  2
7475A
 70
    0
 62
1
  6
CONTINUOUS
  0
LAYER
  5
5A
100
AcDbSymbolTableRecord
100
AcDbLayerTableRecord
  2
BASE
 70
    0
 62
7
  6
CONTINUOUS
  0
LAYER
  5
5B
100
AcDbSymbolTableRecord
100
AcDbLayerTableRecord
  2
AME
 70
    0
 62
7
  6
CONTINUOUS
  0
LAYER
  5
5C
100
AcDbSymbolTableRecord
100
AcDbLayerTableRecord
  2
4
 70
    0
 62
4
  6
CONTINUOUS
  0
LAYER
  5
5D
100
AcDbSymbolTableRecord
100
AcDbLayerTableRecord
  2
AM_CL
 70
    0
 62
1
  6
Amzigzag
  0
LAYER
  5
5E
100
AcDbSymbolTableRecord
100
AcDbLayerTableRecord
  2
ｾﾉｪO
 70
    0
 62
4
  6
CONTINUOUS
  0
LAYER
  5
5F
100
AcDbSymbolTableRecord
100
AcDbLayerTableRecord
  2
__ｴﾟ
 70
    0
 62
7
  6
CONTINUOUS
  0
LAYER
  5
60
100
AcDbSymbolTableRecord
100
AcDbLayerTableRecord
  2
_ｨｹF
 70
    0
 62
9
  6
CONTINUOUS
  0
LAYER
  5
61
100
AcDbSymbolTableRecord
100
AcDbLayerTableRecord
  2
ｭｷｽ�
 70
    0
 62
221
  6
CONTINUOUS
  0
LAYER
  5
62
100
AcDbSymbolTableRecord
100
AcDbLayerTableRecord
  2
PV-2583
 70
    0
 62
7
  6
CONTINUOUS
  0
LAYER
  5
63
100
AcDbSymbolTableRecord
100
AcDbLayerTableRecord
  2
ｸ_ｮy
 70
    0
 62
241
  6
CONTINUOUS
  0
LAYER
  5
64
100
AcDbSymbolTableRecord
100
AcDbLayerTableRecord
  2
_Xｭｷ､f
 70
    0
 62
3
  6
CONTINUOUS
  0
LAYER
  5
65
100
AcDbSymbolTableRecord
100
AcDbLayerTableRecord
  2
_ｨｹFｩTｩwｬ_
 70
    0
 62
30
  6
CONTINUOUS
  0
LAYER
  5
66
100
AcDbSymbolTableRecord
100
AcDbLayerTableRecord
  2
､Jｭｷ､f
 70
    0
 62
200
  6
CONTINUOUS
  0
LAYER
  5
67
100
AcDbSymbolTableRecord
100
AcDbLayerTableRecord
  2
ｭｱｪO
 70
    0
 62
2
  6
CONTINUOUS
  0
LAYER
  5
68
100
AcDbSymbolTableRecord
100
AcDbLayerTableRecord
  2
ｺ�
 70
    0
 62
41
  6
CONTINUOUS
  0
LAYER
  5
69
100
AcDbSymbolTableRecord
100
AcDbLayerTableRecord
  2
ｨ茹L
 70
    0
 62
41
  6
CONTINUOUS
  0
LAYER
  5
6A
100
AcDbSymbolTableRecord
100
AcDbLayerTableRecord
  2
ｮﾘ
 70
    0
 62
5
  6
CONTINUOUS
  0
LAYER
  5
6B
100
AcDbSymbolTableRecord
100
AcDbLayerTableRecord
  2
ｫﾊｪO
 70
    0
 62
22
  6
CONTINUOUS
  0
LAYER
  5
6C
100
AcDbSymbolTableRecord
100
AcDbLayerTableRecord
  2
画層30
 70
    0
 62
7
  6
CONTINUOUS
  0
LAYER
  5
6D
100
AcDbSymbolTableRecord
100
AcDbLayerTableRecord
  2
画層31
 70
    0
 62
7
  6
CONTINUOUS
  0
LAYER
  5
6E
100
AcDbSymbolTableRecord
100
AcDbLayerTableRecord
  2
画層32
 70
    0
 62
7
  6
CONTINUOUS
  0
LAYER
  5
6F
100
AcDbSymbolTableRecord
100
AcDbLayerTableRecord
  2
画層33
 70
    0
 62
7
  6
CONTINUOUS
  0
LAYER
  5
70
100
AcDbSymbolTableRecord
100
AcDbLayerTableRecord
  2
画層34
 70
    0
 62
7
  6
CONTINUOUS
  0
LAYER
  5
71
100
AcDbSymbolTableRecord
100
AcDbLayerTableRecord
  2
画層35
 70
    0
 62
7
  6
CONTINUOUS
  0
LAYER
  5
72
100
AcDbSymbolTableRecord
100
AcDbLayerTableRecord
  2
画層36
 70
    0
 62
7
  6
CONTINUOUS
  0
LAYER
  5
73
100
AcDbSymbolTableRecord
100
AcDbLayerTableRecord
  2
画層37
 70
    0
 62
7
  6
CONTINUOUS
  0
LAYER
  5
74
100
AcDbSymbolTableRecord
100
AcDbLayerTableRecord
  2
画層38
 70
    0
 62
7
  6
CONTINUOUS
  0
LAYER
  5
75
100
AcDbSymbolTableRecord
100
AcDbLayerTableRecord
  2
画層39
 70
    0
 62
7
  6
CONTINUOUS
  0
LAYER
  5
76
100
AcDbSymbolTableRecord
100
AcDbLayerTableRecord
  2
画層40
 70
    0
 62
7
  6
CONTINUOUS
  0
LAYER
  5
77
100
AcDbSymbolTableRecord
100
AcDbLayerTableRecord
  2
画層41
 70
    0
 62
7
  6
CONTINUOUS
  0
LAYER
  5
78
100
AcDbSymbolTableRecord
100
AcDbLayerTableRecord
  2
画層42
 70
    0
 62
7
  6
CONTINUOUS
  0
LAYER
  5
79
100
AcDbSymbolTableRecord
100
AcDbLayerTableRecord
  2
画層43
 70
    0
 62
7
  6
CONTINUOUS
  0
LAYER
  5
7A
100
AcDbSymbolTableRecord
100
AcDbLayerTableRecord
  2
画層44
 70
    0
 62
7
  6
CONTINUOUS
  0
LAYER
  5
7B
100
AcDbSymbolTableRecord
100
AcDbLayerTableRecord
  2
画層45
 70
    0
 62
7
  6
CONTINUOUS
  0
LAYER
  5
7C
100
AcDbSymbolTableRecord
100
AcDbLayerTableRecord
  2
画層46
 70
    0
 62
7
  6
CONTINUOUS
  0
LAYER
  5
7D
100
AcDbSymbolTableRecord
100
AcDbLayerTableRecord
  2
画層47
 70
    0
 62
7
  6
CONTINUOUS
  0
LAYER
  5
7E
100
AcDbSymbolTableRecord
100
AcDbLayerTableRecord
  2
画層48
 70
    0
 62
7
  6
CONTINUOUS
  0
LAYER
  5
7F
100
AcDbSymbolTableRecord
100
AcDbLayerTableRecord
  2
画層49
 70
    0
 62
7
  6
CONTINUOUS
  0
LAYER
  5
80
100
AcDbSymbolTableRecord
100
AcDbLayerTableRecord
  2
画層50
 70
    0
 62
7
  6
CONTINUOUS
  0
LAYER
  5
81
100
AcDbSymbolTableRecord
100
AcDbLayerTableRecord
  2
画層51
 70
    0
 62
7
  6
CONTINUOUS
  0
LAYER
  5
82
100
AcDbSymbolTableRecord
100
AcDbLayerTableRecord
  2
画層52
 70
    0
 62
7
  6
CONTINUOUS
  0
LAYER
  5
83
100
AcDbSymbolTableRecord
100
AcDbLayerTableRecord
  2
画層53
 70
    0
 62
7
  6
CONTINUOUS
  0
LAYER
  5
84
100
AcDbSymbolTableRecord
100
AcDbLayerTableRecord
  2
画層54
 70
    0
 62
7
  6
CONTINUOUS
  0
LAYER
  5
85
100
AcDbSymbolTableRecord
100
AcDbLayerTableRecord
  2
画層55
 70
    0
 62
7
  6
CONTINUOUS
  0
LAYER
  5
86
100
AcDbSymbolTableRecord
100
AcDbLayerTableRecord
  2
画層56
 70
    0
 62
7
  6
CONTINUOUS
  0
LAYER
  5
87
100
AcDbSymbolTableRecord
100
AcDbLayerTableRecord
  2
画層57
 70
    0
 62
7
  6
CONTINUOUS
  0
LAYER
  5
88
100
AcDbSymbolTableRecord
100
AcDbLayerTableRecord
  2
画層58
 70
    0
 62
7
  6
CONTINUOUS
  0
LAYER
  5
89
100
AcDbSymbolTableRecord
100
AcDbLayerTableRecord
  2
画層59
 70
    0
 62
7
  6
CONTINUOUS
  0
LAYER
  5
8A
100
AcDbSymbolTableRecord
100
AcDbLayerTableRecord
  2
画層60
 70
    0
 62
7
  6
CONTINUOUS
  0
LAYER
  5
8B
100
AcDbSymbolTableRecord
100
AcDbLayerTableRecord
  2
画層61
 70
    0
 62
7
  6
CONTINUOUS
  0
LAYER
  5
8C
100
AcDbSymbolTableRecord
100
AcDbLayerTableRecord
  2
画層62
 70
    0
 62
7
  6
CONTINUOUS
  0
LAYER
  5
8D
100
AcDbSymbolTableRecord
100
AcDbLayerTableRecord
  2
画層63
 70
    0
 62
7
  6
CONTINUOUS
  0
LAYER
  5
8E
100
AcDbSymbolTableRecord
100
AcDbLayerTableRecord
  2
画層64
 70
    0
 62
7
  6
CONTINUOUS
  0
LAYER
  5
8F
100
AcDbSymbolTableRecord
100
AcDbLayerTableRecord
  2
画層65
 70
    0
 62
7
  6
CONTINUOUS
  0
LAYER
  5
90
100
AcDbSymbolTableRecord
100
AcDbLayerTableRecord
  2
画層66
 70
    0
 62
7
  6
CONTINUOUS
  0
LAYER
  5
91
100
AcDbSymbolTableRecord
100
AcDbLayerTableRecord
  2
画層67
 70
    0
 62
7
  6
CONTINUOUS
  0
LAYER
  5
92
100
AcDbSymbolTableRecord
100
AcDbLayerTableRecord
  2
画層68
 70
    0
 62
7
  6
CONTINUOUS
  0
LAYER
  5
93
100
AcDbSymbolTableRecord
100
AcDbLayerTableRecord
  2
画層69
 70
    0
 62
7
  6
CONTINUOUS
  0
LAYER
  5
94
100
AcDbSymbolTableRecord
100
AcDbLayerTableRecord
  2
画層70
 70
    0
 62
7
  6
CONTINUOUS
  0
LAYER
  5
95
100
AcDbSymbolTableRecord
100
AcDbLayerTableRecord
  2
画層71
 70
    0
 62
7
  6
CONTINUOUS
  0
LAYER
  5
96
100
AcDbSymbolTableRecord
100
AcDbLayerTableRecord
  2
画層72
 70
    0
 62
7
  6
CONTINUOUS
  0
LAYER
  5
97
100
AcDbSymbolTableRecord
100
AcDbLayerTableRecord
  2
画層73
 70
    0
 62
7
  6
CONTINUOUS
  0
LAYER
  5
98
100
AcDbSymbolTableRecord
100
AcDbLayerTableRecord
  2
画層74
 70
    0
 62
7
  6
CONTINUOUS
  0
LAYER
  5
99
100
AcDbSymbolTableRecord
100
AcDbLayerTableRecord
  2
画層75
 70
    0
 62
7
  6
CONTINUOUS
  0
LAYER
  5
9A
100
AcDbSymbolTableRecord
100
AcDbLayerTableRecord
  2
画層76
 70
    0
 62
7
  6
CONTINUOUS
  0
LAYER
  5
9B
100
AcDbSymbolTableRecord
100
AcDbLayerTableRecord
  2
画層77
 70
    0
 62
7
  6
CONTINUOUS
  0
LAYER
  5
9C
100
AcDbSymbolTableRecord
100
AcDbLayerTableRecord
  2
画層78
 70
    0
 62
7
  6
CONTINUOUS
  0
LAYER
  5
9D
100
AcDbSymbolTableRecord
100
AcDbLayerTableRecord
  2
画層79
 70
    0
 62
7
  6
CONTINUOUS
  0
LAYER
  5
9E
100
AcDbSymbolTableRecord
100
AcDbLayerTableRecord
  2
画層80
 70
    0
 62
7
  6
CONTINUOUS
  0
LAYER
  5
9F
100
AcDbSymbolTableRecord
100
AcDbLayerTableRecord
  2
画層81
 70
    0
 62
7
  6
CONTINUOUS
  0
LAYER
  5
A0
100
AcDbSymbolTableRecord
100
AcDbLayerTableRecord
  2
画層82
 70
    0
 62
7
  6
CONTINUOUS
  0
LAYER
  5
A1
100
AcDbSymbolTableRecord
100
AcDbLayerTableRecord
  2
画層83
 70
    0
 62
7
  6
CONTINUOUS
  0
LAYER
  5
A2
100
AcDbSymbolTableRecord
100
AcDbLayerTableRecord
  2
画層84
 70
    0
 62
7
  6
CONTINUOUS
  0
LAYER
  5
A3
100
AcDbSymbolTableRecord
100
AcDbLayerTableRecord
  2
画層85
 70
    0
 62
7
  6
CONTINUOUS
  0
LAYER
  5
A4
100
AcDbSymbolTableRecord
100
AcDbLayerTableRecord
  2
画層86
 70
    0
 62
7
  6
CONTINUOUS
  0
LAYER
  5
A5
100
AcDbSymbolTableRecord
100
AcDbLayerTableRecord
  2
画層87
 70
    0
 62
7
  6
CONTINUOUS
  0
LAYER
  5
A6
100
AcDbSymbolTableRecord
100
AcDbLayerTableRecord
  2
画層88
 70
    0
 62
7
  6
CONTINUOUS
  0
LAYER
  5
A7
100
AcDbSymbolTableRecord
100
AcDbLayerTableRecord
  2
画層89
 70
    0
 62
7
  6
CONTINUOUS
  0
LAYER
  5
A8
100
AcDbSymbolTableRecord
100
AcDbLayerTableRecord
  2
画層90
 70
    0
 62
7
  6
CONTINUOUS
  0
LAYER
  5
A9
100
AcDbSymbolTableRecord
100
AcDbLayerTableRecord
  2
画層91
 70
    0
 62
7
  6
CONTINUOUS
  0
LAYER
  5
AA
100
AcDbSymbolTableRecord
100
AcDbLayerTableRecord
  2
画層92
 70
    0
 62
7
  6
CONTINUOUS
  0
LAYER
  5
AB
100
AcDbSymbolTableRecord
100
AcDbLayerTableRecord
  2
画層93
 70
    0
 62
7
  6
CONTINUOUS
  0
LAYER
  5
AC
100
AcDbSymbolTableRecord
100
AcDbLayerTableRecord
  2
画層94
 70
    0
 62
7
  6
CONTINUOUS
  0
LAYER
  5
AD
100
AcDbSymbolTableRecord
100
AcDbLayerTableRecord
  2
画層95
 70
    0
 62
7
  6
CONTINUOUS
  0
LAYER
  5
AE
100
AcDbSymbolTableRecord
100
AcDbLayerTableRecord
  2
画層96
 70
    0
 62
7
  6
CONTINUOUS
  0
LAYER
  5
AF
100
AcDbSymbolTableRecord
100
AcDbLayerTableRecord
  2
画層97
 70
    0
 62
7
  6
CONTINUOUS
  0
LAYER
  5
B0
100
AcDbSymbolTableRecord
100
AcDbLayerTableRecord
  2
画層98
 70
    0
 62
7
  6
CONTINUOUS
  0
LAYER
  5
B1
100
AcDbSymbolTableRecord
100
AcDbLayerTableRecord
  2
画層99
 70
    0
 62
7
  6
CONTINUOUS
  0
LAYER
  5
B2
100
AcDbSymbolTableRecord
100
AcDbLayerTableRecord
  2
画層100
 70
    0
 62
7
  6
CONTINUOUS
  0
LAYER
  5
B3
100
AcDbSymbolTableRecord
100
AcDbLayerTableRecord
  2
画層101
 70
    0
 62
7
  6
CONTINUOUS
  0
LAYER
  5
B4
100
AcDbSymbolTableRecord
100
AcDbLayerTableRecord
  2
画層102
 70
    0
 62
7
  6
CONTINUOUS
  0
LAYER
  5
B5
100
AcDbSymbolTableRecord
100
AcDbLayerTableRecord
  2
画層103
 70
    0
 62
7
  6
CONTINUOUS
  0
LAYER
  5
B6
100
AcDbSymbolTableRecord
100
AcDbLayerTableRecord
  2
画層104
 70
    0
 62
7
  6
CONTINUOUS
  0
LAYER
  5
B7
100
AcDbSymbolTableRecord
100
AcDbLayerTableRecord
  2
画層105
 70
    0
 62
7
  6
CONTINUOUS
  0
LAYER
  5
B8
100
AcDbSymbolTableRecord
100
AcDbLayerTableRecord
  2
画層106
 70
    0
 62
7
  6
CONTINUOUS
  0
LAYER
  5
B9
100
AcDbSymbolTableRecord
100
AcDbLayerTableRecord
  2
画層107
 70
    0
 62
7
  6
CONTINUOUS
  0
LAYER
  5
BA
100
AcDbSymbolTableRecord
100
AcDbLayerTableRecord
  2
画層108
 70
    0
 62
7
  6
CONTINUOUS
  0
LAYER
  5
BB
100
AcDbSymbolTableRecord
100
AcDbLayerTableRecord
  2
画層109
 70
    0
 62
7
  6
CONTINUOUS
  0
LAYER
  5
BC
100
AcDbSymbolTableRecord
100
AcDbLayerTableRecord
  2
画層110
 70
    0
 62
7
  6
CONTINUOUS
  0
LAYER
  5
BD
100
AcDbSymbolTableRecord
100
AcDbLayerTableRecord
  2
画層111
 70
    0
 62
7
  6
CONTINUOUS
  0
LAYER
  5
BE
100
AcDbSymbolTableRecord
100
AcDbLayerTableRecord
  2
画層112
 70
    0
 62
7
  6
CONTINUOUS
  0
LAYER
  5
BF
100
AcDbSymbolTableRecord
100
AcDbLayerTableRecord
  2
画層113
 70
    0
 62
7
  6
CONTINUOUS
  0
LAYER
  5
C0
100
AcDbSymbolTableRecord
100
AcDbLayerTableRecord
  2
画層114
 70
    0
 62
7
  6
CONTINUOUS
  0
LAYER
  5
C1
100
AcDbSymbolTableRecord
100
AcDbLayerTableRecord
  2
画層115
 70
    0
 62
7
  6
CONTINUOUS
  0
LAYER
  5
C2
100
AcDbSymbolTableRecord
100
AcDbLayerTableRecord
  2
画層116
 70
    0
 62
7
  6
CONTINUOUS
  0
LAYER
  5
C3
100
AcDbSymbolTableRecord
100
AcDbLayerTableRecord
  2
画層117
 70
    0
 62
7
  6
CONTINUOUS
  0
LAYER
  5
C4
100
AcDbSymbolTableRecord
100
AcDbLayerTableRecord
  2
画層118
 70
    0
 62
7
  6
CONTINUOUS
  0
LAYER
  5
C5
100
AcDbSymbolTableRecord
100
AcDbLayerTableRecord
  2
画層119
 70
    0
 62
7
  6
CONTINUOUS
  0
LAYER
  5
C6
100
AcDbSymbolTableRecord
100
AcDbLayerTableRecord
  2
画層120
 70
    0
 62
7
  6
CONTINUOUS
  0
LAYER
  5
C7
100
AcDbSymbolTableRecord
100
AcDbLayerTableRecord
  2
画層121
 70
    0
 62
7
  6
CONTINUOUS
  0
LAYER
  5
C8
100
AcDbSymbolTableRecord
100
AcDbLayerTableRecord
  2
画層122
 70
    0
 62
7
  6
CONTINUOUS
  0
LAYER
  5
C9
100
AcDbSymbolTableRecord
100
AcDbLayerTableRecord
  2
画層123
 70
    0
 62
7
  6
CONTINUOUS
  0
LAYER
  5
CA
100
AcDbSymbolTableRecord
100
AcDbLayerTableRecord
  2
画層124
 70
    0
 62
7
  6
CONTINUOUS
  0
LAYER
  5
CB
100
AcDbSymbolTableRecord
100
AcDbLayerTableRecord
  2
画層125
 70
    0
 62
7
  6
CONTINUOUS
  0
LAYER
  5
CC
100
AcDbSymbolTableRecord
100
AcDbLayerTableRecord
  2
画層126
 70
    0
 62
7
  6
CONTINUOUS
  0
LAYER
  5
CD
100
AcDbSymbolTableRecord
100
AcDbLayerTableRecord
  2
画層127
 70
    0
 62
7
  6
CONTINUOUS
  0
LAYER
  5
CE
100
AcDbSymbolTableRecord
100
AcDbLayerTableRecord
  2
画層128
 70
    0
 62
7
  6
CONTINUOUS
  0
LAYER
  5
CF
100
AcDbSymbolTableRecord
100
AcDbLayerTableRecord
  2
画層129
 70
    0
 62
7
  6
CONTINUOUS
  0
LAYER
  5
D0
100
AcDbSymbolTableRecord
100
AcDbLayerTableRecord
  2
画層130
 70
    0
 62
7
  6
CONTINUOUS
  0
LAYER
  5
D1
100
AcDbSymbolTableRecord
100
AcDbLayerTableRecord
  2
画層131
 70
    0
 62
7
  6
CONTINUOUS
  0
LAYER
  5
D2
100
AcDbSymbolTableRecord
100
AcDbLayerTableRecord
  2
画層132
 70
    0
 62
7
  6
CONTINUOUS
  0
LAYER
  5
D3
100
AcDbSymbolTableRecord
100
AcDbLayerTableRecord
  2
画層133
 70
    0
 62
7
  6
CONTINUOUS
  0
LAYER
  5
D4
100
AcDbSymbolTableRecord
100
AcDbLayerTableRecord
  2
画層134
 70
    0
 62
7
  6
CONTINUOUS
  0
LAYER
  5
D5
100
AcDbSymbolTableRecord
100
AcDbLayerTableRecord
  2
画層135
 70
    0
 62
7
  6
CONTINUOUS
  0
LAYER
  5
D6
100
AcDbSymbolTableRecord
100
AcDbLayerTableRecord
  2
画層136
 70
    0
 62
7
  6
CONTINUOUS
  0
LAYER
  5
D7
100
AcDbSymbolTableRecord
100
AcDbLayerTableRecord
  2
画層137
 70
    0
 62
7
  6
CONTINUOUS
  0
LAYER
  5
D8
100
AcDbSymbolTableRecord
100
AcDbLayerTableRecord
  2
画層138
 70
    0
 62
7
  6
CONTINUOUS
  0
LAYER
  5
D9
100
AcDbSymbolTableRecord
100
AcDbLayerTableRecord
  2
画層139
 70
    0
 62
7
  6
CONTINUOUS
  0
LAYER
  5
DA
100
AcDbSymbolTableRecord
100
AcDbLayerTableRecord
  2
画層140
 70
    0
 62
7
  6
CONTINUOUS
  0
LAYER
  5
DB
100
AcDbSymbolTableRecord
100
AcDbLayerTableRecord
  2
画層141
 70
    0
 62
7
  6
CONTINUOUS
  0
LAYER
  5
DC
100
AcDbSymbolTableRecord
100
AcDbLayerTableRecord
  2
画層142
 70
    0
 62
7
  6
CONTINUOUS
  0
LAYER
  5
DD
100
AcDbSymbolTableRecord
100
AcDbLayerTableRecord
  2
画層143
 70
    0
 62
7
  6
CONTINUOUS
  0
LAYER
  5
DE
100
AcDbSymbolTableRecord
100
AcDbLayerTableRecord
  2
画層144
 70
    0
 62
7
  6
CONTINUOUS
  0
LAYER
  5
DF
100
AcDbSymbolTableRecord
100
AcDbLayerTableRecord
  2
画層145
 70
    0
 62
7
  6
CONTINUOUS
  0
LAYER
  5
E0
100
AcDbSymbolTableRecord
100
AcDbLayerTableRecord
  2
画層146
 70
    0
 62
7
  6
CONTINUOUS
  0
LAYER
  5
E1
100
AcDbSymbolTableRecord
100
AcDbLayerTableRecord
  2
画層147
 70
    0
 62
7
  6
CONTINUOUS
  0
LAYER
  5
E2
100
AcDbSymbolTableRecord
100
AcDbLayerTableRecord
  2
画層148
 70
    0
 62
7
  6
CONTINUOUS
  0
LAYER
  5
E3
100
AcDbSymbolTableRecord
100
AcDbLayerTableRecord
  2
画層149
 70
    0
 62
7
  6
CONTINUOUS
  0
LAYER
  5
E4
100
AcDbSymbolTableRecord
100
AcDbLayerTableRecord
  2
画層150
 70
    0
 62
7
  6
CONTINUOUS
  0
LAYER
  5
E5
100
AcDbSymbolTableRecord
100
AcDbLayerTableRecord
  2
画層151
 70
    0
 62
7
  6
CONTINUOUS
  0
LAYER
  5
E6
100
AcDbSymbolTableRecord
100
AcDbLayerTableRecord
  2
画層152
 70
    0
 62
7
  6
CONTINUOUS
  0
LAYER
  5
E7
100
AcDbSymbolTableRecord
100
AcDbLayerTableRecord
  2
画層153
 70
    0
 62
7
  6
CONTINUOUS
  0
LAYER
  5
E8
100
AcDbSymbolTableRecord
100
AcDbLayerTableRecord
  2
画層154
 70
    0
 62
7
  6
CONTINUOUS
  0
LAYER
  5
E9
100
AcDbSymbolTableRecord
100
AcDbLayerTableRecord
  2
画層155
 70
    0
 62
7
  6
CONTINUOUS
  0
LAYER
  5
EA
100
AcDbSymbolTableRecord
100
AcDbLayerTableRecord
  2
画層156
 70
    0
 62
7
  6
CONTINUOUS
  0
LAYER
  5
EB
100
AcDbSymbolTableRecord
100
AcDbLayerTableRecord
  2
画層157
 70
    0
 62
7
  6
CONTINUOUS
  0
LAYER
  5
EC
100
AcDbSymbolTableRecord
100
AcDbLayerTableRecord
  2
画層158
 70
    0
 62
7
  6
CONTINUOUS
  0
LAYER
  5
ED
100
AcDbSymbolTableRecord
100
AcDbLayerTableRecord
  2
画層159
 70
    0
 62
7
  6
CONTINUOUS
  0
LAYER
  5
EE
100
AcDbSymbolTableRecord
100
AcDbLayerTableRecord
  2
画層160
 70
    0
 62
7
  6
CONTINUOUS
  0
LAYER
  5
EF
100
AcDbSymbolTableRecord
100
AcDbLayerTableRecord
  2
画層161
 70
    0
 62
7
  6
CONTINUOUS
  0
LAYER
  5
F0
100
AcDbSymbolTableRecord
100
AcDbLayerTableRecord
  2
画層162
 70
    0
 62
7
  6
CONTINUOUS
  0
LAYER
  5
F1
100
AcDbSymbolTableRecord
100
AcDbLayerTableRecord
  2
画層163
 70
    0
 62
7
  6
CONTINUOUS
  0
LAYER
  5
F2
100
AcDbSymbolTableRecord
100
AcDbLayerTableRecord
  2
画層164
 70
    0
 62
7
  6
CONTINUOUS
  0
LAYER
  5
F3
100
AcDbSymbolTableRecord
100
AcDbLayerTableRecord
  2
画層165
 70
    0
 62
7
  6
CONTINUOUS
  0
LAYER
  5
F4
100
AcDbSymbolTableRecord
100
AcDbLayerTableRecord
  2
画層166
 70
    0
 62
7
  6
CONTINUOUS
  0
LAYER
  5
F5
100
AcDbSymbolTableRecord
100
AcDbLayerTableRecord
  2
画層167
 70
    0
 62
7
  6
CONTINUOUS
  0
LAYER
  5
F6
100
AcDbSymbolTableRecord
100
AcDbLayerTableRecord
  2
画層168
 70
    0
 62
7
  6
CONTINUOUS
  0
LAYER
  5
F7
100
AcDbSymbolTableRecord
100
AcDbLayerTableRecord
  2
画層169
 70
    0
 62
7
  6
CONTINUOUS
  0
LAYER
  5
F8
100
AcDbSymbolTableRecord
100
AcDbLayerTableRecord
  2
画層170
 70
    0
 62
7
  6
CONTINUOUS
  0
LAYER
  5
F9
100
AcDbSymbolTableRecord
100
AcDbLayerTableRecord
  2
画層171
 70
    0
 62
7
  6
CONTINUOUS
  0
LAYER
  5
FA
100
AcDbSymbolTableRecord
100
AcDbLayerTableRecord
  2
画層172
 70
    0
 62
7
  6
CONTINUOUS
  0
LAYER
  5
FB
100
AcDbSymbolTableRecord
100
AcDbLayerTableRecord
  2
画層173
 70
    0
 62
7
  6
CONTINUOUS
  0
LAYER
  5
FC
100
AcDbSymbolTableRecord
100
AcDbLayerTableRecord
  2
画層174
 70
    0
 62
7
  6
CONTINUOUS
  0
LAYER
  5
FD
100
AcDbSymbolTableRecord
100
AcDbLayerTableRecord
  2
画層175
 70
    0
 62
7
  6
CONTINUOUS
  0
LAYER
  5
FE
100
AcDbSymbolTableRecord
100
AcDbLayerTableRecord
  2
画層176
 70
    0
 62
7
  6
CONTINUOUS
  0
LAYER
  5
FF
100
AcDbSymbolTableRecord
100
AcDbLayerTableRecord
  2
画層177
 70
    0
 62
7
  6
CONTINUOUS
  0
LAYER
  5
100
100
AcDbSymbolTableRecord
100
AcDbLayerTableRecord
  2
画層178
 70
    0
 62
7
  6
CONTINUOUS
  0
LAYER
  5
101
100
AcDbSymbolTableRecord
100
AcDbLayerTableRecord
  2
画層179
 70
    0
 62
7
  6
CONTINUOUS
  0
LAYER
  5
102
100
AcDbSymbolTableRecord
100
AcDbLayerTableRecord
  2
画層180
 70
    0
 62
7
  6
CONTINUOUS
  0
LAYER
  5
103
100
AcDbSymbolTableRecord
100
AcDbLayerTableRecord
  2
画層181
 70
    0
 62
7
  6
CONTINUOUS
  0
LAYER
  5
104
100
AcDbSymbolTableRecord
100
AcDbLayerTableRecord
  2
画層182
 70
    0
 62
7
  6
CONTINUOUS
  0
LAYER
  5
105
100
AcDbSymbolTableRecord
100
AcDbLayerTableRecord
  2
画層183
 70
    0
 62
7
  6
CONTINUOUS
  0
LAYER
  5
106
100
AcDbSymbolTableRecord
100
AcDbLayerTableRecord
  2
画層184
 70
    0
 62
7
  6
CONTINUOUS
  0
LAYER
  5
107
100
AcDbSymbolTableRecord
100
AcDbLayerTableRecord
  2
画層185
 70
    0
 62
7
  6
CONTINUOUS
  0
LAYER
  5
108
100
AcDbSymbolTableRecord
100
AcDbLayerTableRecord
  2
画層186
 70
    0
 62
7
  6
CONTINUOUS
  0
LAYER
  5
109
100
AcDbSymbolTableRecord
100
AcDbLayerTableRecord
  2
画層187
 70
    0
 62
7
  6
CONTINUOUS
  0
LAYER
  5
10A
100
AcDbSymbolTableRecord
100
AcDbLayerTableRecord
  2
画層188
 70
    0
 62
7
  6
CONTINUOUS
  0
LAYER
  5
10B
100
AcDbSymbolTableRecord
100
AcDbLayerTableRecord
  2
画層189
 70
    0
 62
7
  6
CONTINUOUS
  0
LAYER
  5
10C
100
AcDbSymbolTableRecord
100
AcDbLayerTableRecord
  2
画層190
 70
    0
 62
7
  6
CONTINUOUS
  0
LAYER
  5
10D
100
AcDbSymbolTableRecord
100
AcDbLayerTableRecord
  2
画層191
 70
    0
 62
7
  6
CONTINUOUS
  0
LAYER
  5
10E
100
AcDbSymbolTableRecord
100
AcDbLayerTableRecord
  2
画層192
 70
    0
 62
7
  6
CONTINUOUS
  0
LAYER
  5
10F
100
AcDbSymbolTableRecord
100
AcDbLayerTableRecord
  2
画層193
 70
    0
 62
7
  6
CONTINUOUS
  0
LAYER
  5
110
100
AcDbSymbolTableRecord
100
AcDbLayerTableRecord
  2
画層194
 70
    0
 62
7
  6
CONTINUOUS
  0
LAYER
  5
111
100
AcDbSymbolTableRecord
100
AcDbLayerTableRecord
  2
画層195
 70
    0
 62
7
  6
CONTINUOUS
  0
LAYER
  5
112
100
AcDbSymbolTableRecord
100
AcDbLayerTableRecord
  2
画層196
 70
    0
 62
7
  6
CONTINUOUS
  0
LAYER
  5
113
100
AcDbSymbolTableRecord
100
AcDbLayerTableRecord
  2
画層197
 70
    0
 62
7
  6
CONTINUOUS
  0
LAYER
  5
114
100
AcDbSymbolTableRecord
100
AcDbLayerTableRecord
  2
画層198
 70
    0
 62
7
  6
CONTINUOUS
  0
LAYER
  5
115
100
AcDbSymbolTableRecord
100
AcDbLayerTableRecord
  2
画層199
 70
    0
 62
7
  6
CONTINUOUS
  0
LAYER
  5
116
100
AcDbSymbolTableRecord
100
AcDbLayerTableRecord
  2
画層200
 70
    0
 62
7
  6
CONTINUOUS
  0
LAYER
  5
117
100
AcDbSymbolTableRecord
100
AcDbLayerTableRecord
  2
画層201
 70
    0
 62
7
  6
CONTINUOUS
  0
LAYER
  5
118
100
AcDbSymbolTableRecord
100
AcDbLayerTableRecord
  2
画層202
 70
    0
 62
7
  6
CONTINUOUS
  0
LAYER
  5
119
100
AcDbSymbolTableRecord
100
AcDbLayerTableRecord
  2
画層203
 70
    0
 62
7
  6
CONTINUOUS
  0
LAYER
  5
11A
100
AcDbSymbolTableRecord
100
AcDbLayerTableRecord
  2
画層204
 70
    0
 62
7
  6
CONTINUOUS
  0
LAYER
  5
11B
100
AcDbSymbolTableRecord
100
AcDbLayerTableRecord
  2
画層205
 70
    0
 62
7
  6
CONTINUOUS
  0
LAYER
  5
11C
100
AcDbSymbolTableRecord
100
AcDbLayerTableRecord
  2
画層206
 70
    0
 62
7
  6
CONTINUOUS
  0
LAYER
  5
11D
100
AcDbSymbolTableRecord
100
AcDbLayerTableRecord
  2
画層207
 70
    0
 62
7
  6
CONTINUOUS
  0
LAYER
  5
11E
100
AcDbSymbolTableRecord
100
AcDbLayerTableRecord
  2
画層208
 70
    0
 62
7
  6
CONTINUOUS
  0
LAYER
  5
11F
100
AcDbSymbolTableRecord
100
AcDbLayerTableRecord
  2
画層209
 70
    0
 62
7
  6
CONTINUOUS
  0
LAYER
  5
120
100
AcDbSymbolTableRecord
100
AcDbLayerTableRecord
  2
画層210
 70
    0
 62
7
  6
CONTINUOUS
  0
LAYER
  5
121
100
AcDbSymbolTableRecord
100
AcDbLayerTableRecord
  2
画層211
 70
    0
 62
7
  6
CONTINUOUS
  0
LAYER
  5
122
100
AcDbSymbolTableRecord
100
AcDbLayerTableRecord
  2
画層212
 70
    0
 62
7
  6
CONTINUOUS
  0
LAYER
  5
123
100
AcDbSymbolTableRecord
100
AcDbLayerTableRecord
  2
画層213
 70
    0
 62
7
  6
CONTINUOUS
  0
LAYER
  5
124
100
AcDbSymbolTableRecord
100
AcDbLayerTableRecord
  2
画層214
 70
    0
 62
7
  6
CONTINUOUS
  0
LAYER
  5
125
100
AcDbSymbolTableRecord
100
AcDbLayerTableRecord
  2
画層215
 70
    0
 62
7
  6
CONTINUOUS
  0
LAYER
  5
126
100
AcDbSymbolTableRecord
100
AcDbLayerTableRecord
  2
画層216
 70
    0
 62
7
  6
CONTINUOUS
  0
LAYER
  5
127
100
AcDbSymbolTableRecord
100
AcDbLayerTableRecord
  2
画層217
 70
    0
 62
7
  6
CONTINUOUS
  0
LAYER
  5
128
100
AcDbSymbolTableRecord
100
AcDbLayerTableRecord
  2
画層218
 70
    0
 62
7
  6
CONTINUOUS
  0
LAYER
  5
129
100
AcDbSymbolTableRecord
100
AcDbLayerTableRecord
  2
画層219
 70
    0
 62
7
  6
CONTINUOUS
  0
LAYER
  5
12A
100
AcDbSymbolTableRecord
100
AcDbLayerTableRecord
  2
画層220
 70
    0
 62
7
  6
CONTINUOUS
  0
LAYER
  5
12B
100
AcDbSymbolTableRecord
100
AcDbLayerTableRecord
  2
画層221
 70
    0
 62
7
  6
CONTINUOUS
  0
LAYER
  5
12C
100
AcDbSymbolTableRecord
100
AcDbLayerTableRecord
  2
画層222
 70
    0
 62
7
  6
CONTINUOUS
  0
LAYER
  5
12D
100
AcDbSymbolTableRecord
100
AcDbLayerTableRecord
  2
画層223
 70
    0
 62
7
  6
CONTINUOUS
  0
LAYER
  5
12E
100
AcDbSymbolTableRecord
100
AcDbLayerTableRecord
  2
画層224
 70
    0
 62
7
  6
CONTINUOUS
  0
LAYER
  5
12F
100
AcDbSymbolTableRecord
100
AcDbLayerTableRecord
  2
画層225
 70
    0
 62
7
  6
CONTINUOUS
  0
LAYER
  5
130
100
AcDbSymbolTableRecord
100
AcDbLayerTableRecord
  2
画層226
 70
    0
 62
7
  6
CONTINUOUS
  0
LAYER
  5
131
100
AcDbSymbolTableRecord
100
AcDbLayerTableRecord
  2
画層227
 70
    0
 62
7
  6
CONTINUOUS
  0
LAYER
  5
132
100
AcDbSymbolTableRecord
100
AcDbLayerTableRecord
  2
画層228
 70
    0
 62
7
  6
CONTINUOUS
  0
LAYER
  5
133
100
AcDbSymbolTableRecord
100
AcDbLayerTableRecord
  2
画層229
 70
    0
 62
7
  6
CONTINUOUS
  0
LAYER
  5
134
100
AcDbSymbolTableRecord
100
AcDbLayerTableRecord
  2
画層230
 70
    0
 62
7
  6
CONTINUOUS
  0
LAYER
  5
135
100
AcDbSymbolTableRecord
100
AcDbLayerTableRecord
  2
画層231
 70
    0
 62
7
  6
CONTINUOUS
  0
LAYER
  5
136
100
AcDbSymbolTableRecord
100
AcDbLayerTableRecord
  2
画層232
 70
    0
 62
7
  6
CONTINUOUS
  0
LAYER
  5
137
100
AcDbSymbolTableRecord
100
AcDbLayerTableRecord
  2
画層233
 70
    0
 62
7
  6
CONTINUOUS
  0
LAYER
  5
138
100
AcDbSymbolTableRecord
100
AcDbLayerTableRecord
  2
画層234
 70
    0
 62
7
  6
CONTINUOUS
  0
LAYER
  5
139
100
AcDbSymbolTableRecord
100
AcDbLayerTableRecord
  2
画層235
 70
    0
 62
7
  6
CONTINUOUS
  0
LAYER
  5
13A
100
AcDbSymbolTableRecord
100
AcDbLayerTableRecord
  2
画層236
 70
    0
 62
7
  6
CONTINUOUS
  0
LAYER
  5
13B
100
AcDbSymbolTableRecord
100
AcDbLayerTableRecord
  2
画層237
 70
    0
 62
7
  6
CONTINUOUS
  0
LAYER
  5
13C
100
AcDbSymbolTableRecord
100
AcDbLayerTableRecord
  2
画層238
 70
    0
 62
7
  6
CONTINUOUS
  0
LAYER
  5
13D
100
AcDbSymbolTableRecord
100
AcDbLayerTableRecord
  2
画層239
 70
    0
 62
7
  6
CONTINUOUS
  0
LAYER
  5
13E
100
AcDbSymbolTableRecord
100
AcDbLayerTableRecord
  2
画層240
 70
    0
 62
7
  6
CONTINUOUS
  0
LAYER
  5
13F
100
AcDbSymbolTableRecord
100
AcDbLayerTableRecord
  2
画層241
 70
    0
 62
7
  6
CONTINUOUS
  0
LAYER
  5
140
100
AcDbSymbolTableRecord
100
AcDbLayerTableRecord
  2
画層242
 70
    0
 62
7
  6
CONTINUOUS
  0
LAYER
  5
141
100
AcDbSymbolTableRecord
100
AcDbLayerTableRecord
  2
画層243
 70
    0
 62
7
  6
CONTINUOUS
  0
LAYER
  5
142
100
AcDbSymbolTableRecord
100
AcDbLayerTableRecord
  2
画層244
 70
    0
 62
7
  6
CONTINUOUS
  0
LAYER
  5
143
100
AcDbSymbolTableRecord
100
AcDbLayerTableRecord
  2
画層245
 70
    0
 62
7
  6
CONTINUOUS
  0
LAYER
  5
144
100
AcDbSymbolTableRecord
100
AcDbLayerTableRecord
  2
画層246
 70
    0
 62
7
  6
CONTINUOUS
  0
LAYER
  5
145
100
AcDbSymbolTableRecord
100
AcDbLayerTableRecord
  2
画層247
 70
    0
 62
7
  6
CONTINUOUS
  0
LAYER
  5
146
100
AcDbSymbolTableRecord
100
AcDbLayerTableRecord
  2
画層248
 70
    0
 62
7
  6
CONTINUOUS
  0
LAYER
  5
147
100
AcDbSymbolTableRecord
100
AcDbLayerTableRecord
  2
画層249
 70
    0
 62
7
  6
CONTINUOUS
  0
LAYER
  5
148
100
AcDbSymbolTableRecord
100
AcDbLayerTableRecord
  2
画層250
 70
    0
 62
7
  6
CONTINUOUS
  0
LAYER
  5
149
100
AcDbSymbolTableRecord
100
AcDbLayerTableRecord
  2
画層251
 70
    0
 62
7
  6
CONTINUOUS
  0
LAYER
  5
14A
100
AcDbSymbolTableRecord
100
AcDbLayerTableRecord
  2
画層252
 70
    0
 62
7
  6
CONTINUOUS
  0
LAYER
  5
14B
100
AcDbSymbolTableRecord
100
AcDbLayerTableRecord
  2
画層253
 70
    0
 62
7
  6
CONTINUOUS
  0
LAYER
  5
14C
100
AcDbSymbolTableRecord
100
AcDbLayerTableRecord
  2
画層254
 70
    0
 62
7
  6
CONTINUOUS
  0
LAYER
  5
14D
100
AcDbSymbolTableRecord
100
AcDbLayerTableRecord
  2
画層255
 70
    0
 62
7
  6
CONTINUOUS
  0
ENDTAB
  0
TABLE
  2
STYLE
  5
4
100
AcDbSymbolTable
 70
     1
  0
STYLE
  5
14E
100
AcDbSymbolTableRecord
100
AcDbTextStyleTableRecord
  2
Standard
 70
     0
 40
0.0
 41
1.0
 50
0.0
 71
     0
 42
3.2
  3
TXT
  4
BIGFONT
  0
STYLE
  5
14F
100
AcDbSymbolTableRecord
100
AcDbTextStyleTableRecord
  2
Font_0
 70
     0
 40
0.0
 41
1.0
 50
0.0
 71
     0
 42
3.2
  3
MS Gothic.ttf
  4

1001
ACAD
1000
MS Gothic
1071
  32817
  0
STYLE
  5
150
100
AcDbSymbolTableRecord
100
AcDbTextStyleTableRecord
  2
Font_1
 70
     0
 40
0.0
 41
1.0
 50
0.0
 71
     0
 42
3.2
  3
MS Gothic.ttf
  4

1001
ACAD
1000
@MS Gothic
1071
  32817
  0
ENDTAB
  0
TABLE
  2
VIEW
  5
5
100
AcDbSymbolTable
 70
     0
  0
ENDTAB
  0
TABLE
  2
UCS
  5
6
100
AcDbSymbolTable
 70
     0
  0
ENDTAB
  0
TABLE
  2
APPID
  5
7
100
AcDbSymbolTable
 70
     1
  0
APPID
  5
151
100
AcDbSymbolTableRecord
100
AcDbRegAppTableRecord
  2
ACAD
 70
     0
  0
ENDTAB
  0
TABLE
  2
DIMSTYLE
  5
8
100
AcDbSymbolTable
 70
     1
  0
DIMSTYLE
105
2A
100
AcDbSymbolTableRecord
100
AcDbDimStyleTableRecord
  2
STANDARD
 70
     0
  3

  4

  5

  6

  7

 40
1.0
 41
2.5
 42
2.0
 43
7.0
 44
1.25
 45
0.0
 46
0.0
 47
0.0
 48
0.0
 71
     0
 72
     0
 73
     0
 74
     0
 75
     0
 76
     0
 77
     1
 78
     0
140
2.5
141
2.5
142
0.0
143
0.0394
144
1.0
145
0.0
146
1.0
147
1.0
170
     0
171
     2
172
     0
173
     0
174
     1
175
     0
176
     0
177
     0
178
     0
270
     2
271
     2
272
     4
273
     2
274
     2
275
     0
280
     0
281
     0
282
     0
283
     1
284
     0
285
     0
286
     0
287
     3
288
     0
  0
ENDTAB
  0
TABLE
  2
BLOCK_RECORD
  5
9
100
AcDbSymbolTable
 70
     0
  0
BLOCK_RECORD
  5
152
100
AcDbSymbolTableRecord
100
AcDbBlockTableRecord
  2
*MODEL_SPACE
  0
BLOCK_RECORD
  5
153
100
AcDbSymbolTableRecord
100
AcDbBlockTableRecord
  2
*PAPER_SPACE
  0
BLOCK_RECORD
  5
154
100
AcDbSymbolTableRecord
100
AcDbBlockTableRecord
  2
0
  0
BLOCK_RECORD
  5
155
100
AcDbSymbolTableRecord
100
AcDbBlockTableRecord
  2
A4
  0
BLOCK_RECORD
  5
156
100
AcDbSymbolTableRecord
100
AcDbBlockTableRecord
  2
NOTE
  0
BLOCK_RECORD
  5
157
100
AcDbSymbolTableRecord
100
AcDbBlockTableRecord
  2
BASE
  0
BLOCK_RECORD
  5
158
100
AcDbSymbolTableRecord
100
AcDbBlockTableRecord
  2
LIST
  0
BLOCK_RECORD
  5
159
100
AcDbSymbolTableRecord
100
AcDbBlockTableRecord
  2
A4ｹﾏｮﾘ
  0
BLOCK_RECORD
  5
15A
100
AcDbSymbolTableRecord
100
AcDbBlockTableRecord
  2
JAME
  0
BLOCK_RECORD
  5
15B
100
AcDbSymbolTableRecord
100
AcDbBlockTableRecord
  2
GENAXEH
  0
BLOCK_RECORD
  5
15C
100
AcDbSymbolTableRecord
100
AcDbBlockTableRecord
  2
A$C36D836D4
  0
BLOCK_RECORD
  5
15D
100
AcDbSymbolTableRecord
100
AcDbBlockTableRecord
  2
A$C520435C5
  0
BLOCK_RECORD
  5
15E
100
AcDbSymbolTableRecord
100
AcDbBlockTableRecord
  2
A$C60F9129D
  0
BLOCK_RECORD
  5
15F
100
AcDbSymbolTableRecord
100
AcDbBlockTableRecord
  2
A
  0
BLOCK_RECORD
  5
160
100
AcDbSymbolTableRecord
100
AcDbBlockTableRecord
  2
B
  0
BLOCK_RECORD
  5
161
100
AcDbSymbolTableRecord
100
AcDbBlockTableRecord
  2
C
  0
BLOCK_RECORD
  5
162
100
AcDbSymbolTableRecord
100
AcDbBlockTableRecord
  2
D
  0
BLOCK_RECORD
  5
163
100
AcDbSymbolTableRecord
100
AcDbBlockTableRecord
  2
A4ｹﾏｮﾘ_JAME_
  0
BLOCK_RECORD
  5
164
100
AcDbSymbolTableRecord
100
AcDbBlockTableRecord
  2
A$C32581AA9
  0
BLOCK_RECORD
  5
165
100
AcDbSymbolTableRecord
100
AcDbBlockTableRecord
  2
A$C71CC070F
  0
BLOCK_RECORD
  5
166
100
AcDbSymbolTableRecord
100
AcDbBlockTableRecord
  2
A$C566D5D50
  0
BLOCK_RECORD
  5
167
100
AcDbSymbolTableRecord
100
AcDbBlockTableRecord
  2
A$C425C5C0B
  0
BLOCK_RECORD
  5
168
100
AcDbSymbolTableRecord
100
AcDbBlockTableRecord
  2
A$C0A2D333D
  0
BLOCK_RECORD
  5
169
100
AcDbSymbolTableRecord
100
AcDbBlockTableRecord
  2
A$C68B77DB9
  0
BLOCK_RECORD
  5
16A
100
AcDbSymbolTableRecord
100
AcDbBlockTableRecord
  2
A$C08AC7193
  0
BLOCK_RECORD
  5
16B
100
AcDbSymbolTableRecord
100
AcDbBlockTableRecord
  2
A$C64CC058F
  0
BLOCK_RECORD
  5
16C
100
AcDbSymbolTableRecord
100
AcDbBlockTableRecord
  2
A$C08922197
  0
BLOCK_RECORD
  5
16D
100
AcDbSymbolTableRecord
100
AcDbBlockTableRecord
  2
A$C3A9224F4
  0
BLOCK_RECORD
  5
16E
100
AcDbSymbolTableRecord
100
AcDbBlockTableRecord
  2
A$C78D92B3D
  0
ENDTAB
  0
ENDSEC
  0
SECTION
  2
BLOCKS
  0
BLOCK
  5
170
100
AcDbEntity
  8
0
100
AcDbBlockBegin
2
*MODEL_SPACE
 70
     0
 10
0.0
 20
0.0
 30
0.0
  3
*MODEL_SPACE
  1

  0
ENDBLK
  5
171
100
AcDbEntity
  8
0
100
AcDbBlockEnd
  0
BLOCK
  5
172
100
AcDbEntity
 67
     1
  8
0
100
AcDbBlockBegin
  2
*PAPER_SPACE
 70
     0
 10
0.0
 20
0.0
 30
0.0
  3
*PAPER_SPACE
  1

  0
ENDBLK
  5
173
100
AcDbEntity
 67
     1
  8
0
100
AcDbBlockEnd
  0
BLOCK
  5
174
100
AcDbEntity
  8
0
100
AcDbBlockBegin
  2
0
 70
    0
 10
0
 20
0
 30
0.0
  3
0
  1

  0
LINE
  5
175
100
AcDbEntity
  8
0
100
AcDbLine
  6
BYLAYER
 10
1
 20
1
 11
97.85
 21
1
  0
LINE
  5
176
100
AcDbEntity
  8
0
100
AcDbLine
  6
BYLAYER
 10
1
 20
201
 11
1
 21
1
  0
LINE
  5
177
100
AcDbEntity
  8
0
100
AcDbLine
  6
BYLAYER
 10
1
 20
1
 11
1
 21
35
  0
LINE
  5
178
100
AcDbEntity
  8
0
100
AcDbLine
  6
BYLAYER
 10
1
 20
7
 11
290
 21
7
  0
LINE
  5
179
100
AcDbEntity
  8
0
100
AcDbLine
  6
BYLAYER
 10
1
 20
13
 11
290
 21
13
  0
LINE
  5
17A
100
AcDbEntity
  8
0
100
AcDbLine
  6
BYLAYER
 10
97.85
 20
19
 11
290
 21
19
  0
LINE
  5
17B
100
AcDbEntity
  8
0
100
AcDbLine
  6
BYLAYER
 10
98
 20
25
 11
290
 21
25
  0
LINE
  5
17C
100
AcDbEntity
  8
0
100
AcDbLine
  6
BYLAYER
 10
98
 20
31
 11
290
 21
31
  0
LINE
  5
17D
100
AcDbEntity
  8
0
100
AcDbLine
  6
BYLAYER
 10
214
 20
37
 11
214
 21
1
  0
LINE
  5
17E
100
AcDbEntity
  8
0
100
AcDbLine
  6
BYLAYER
 10
233
 20
37
 11
233
 21
1
  0
LINE
  5
17F
100
AcDbEntity
  8
0
100
AcDbLine
  6
BYLAYER
 10
196.025
 20
31
 11
196.025
 21
1
  0
LINE
  5
180
100
AcDbEntity
  8
0
100
AcDbLine
  6
BYLAYER
 10
196.025
 20
31
 11
290
 21
31
  0
LINE
  5
181
100
AcDbEntity
  8
0
100
AcDbLine
  6
BYLAYER
 10
196.025
 20
1
 11
290
 21
1
  0
LINE
  5
182
100
AcDbEntity
  8
0
100
AcDbLine
  6
BYLAYER
 10
196.15
 20
37
 11
196.15
 21
1
  0
LINE
  5
183
100
AcDbEntity
  8
0
100
AcDbLine
  6
BYLAYER
 10
195.85
 20
37
 11
195.85
 21
1
  0
LINE
  5
184
100
AcDbEntity
  8
0
100
AcDbLine
  6
BYLAYER
 10
98.15
 20
37
 11
98.15
 21
1
  0
LINE
  5
185
100
AcDbEntity
  8
0
100
AcDbLine
  6
BYLAYER
 10
98.15
 20
31
 11
195.85
 21
31
  0
LINE
  5
186
100
AcDbEntity
  8
0
100
AcDbLine
  6
BYLAYER
 10
98.15
 20
1
 11
195.85
 21
1
  0
LINE
  5
187
100
AcDbEntity
  8
0
100
AcDbLine
  6
BYLAYER
 10
97.85
 20
37
 11
97.85
 21
1
  0
LINE
  5
188
100
AcDbEntity
  8
0
100
AcDbLine
  6
BYLAYER
 10
145
 20
37
 11
145
 21
1
  0
LINE
  5
189
100
AcDbEntity
  8
0
100
AcDbLine
  6
BYLAYER
 10
115
 20
37
 11
115
 21
1
  0
LINE
  5
18A
100
AcDbEntity
  8
0
100
AcDbLine
  6
BYLAYER
 10
164
 20
37
 11
164
 21
1
  0
LINE
  5
18B
100
AcDbEntity
  8
0
100
AcDbLine
  6
BYLAYER
 10
49
 20
13
 11
49
 21
1
  0
LINE
  5
18C
100
AcDbEntity
  8
0
100
AcDbLine
  6
BYLAYER
 10
14
 20
13
 11
14
 21
1
  0
LINE
  5
18D
100
AcDbEntity
  8
0
100
AcDbLine
  6
BYLAYER
 10
63
 20
13
 11
63
 21
1
  0
TEXT
  5
18E
100
AcDbEntity
  8
0
100
AcDbText
  6
BYLAYER
 10
3
 20
7.72940914028269
 40
3
  1
TEL
  7
Font_0
100
AcDbText
  0
TEXT
  5
18F
100
AcDbEntity
  8
0
100
AcDbText
  6
BYLAYER
 10
51
 20
7.91176142535337
 40
3
  1
FAX
  7
Font_0
100
AcDbText
  0
TEXT
  5
190
100
AcDbEntity
  8
0
100
AcDbText
  6
BYLAYER
 10
16.5400336288223
 20
8.09411371042404
 40
3
  1
(04)3322627
  7
Font_0
100
AcDbText
  0
TEXT
  5
191
100
AcDbEntity
  8
0
100
AcDbText
  6
BYLAYER
 10
67
 20
8.09411371042404
 40
3
  1
(04)3322629
  7
Font_0
100
AcDbText
  0
LINE
  5
192
100
AcDbEntity
  8
0
100
AcDbLine
  6
BYLAYER
 10
1
 20
37
 11
290
 21
37
  0
TEXT
  5
193
100
AcDbEntity
  8
0
100
AcDbText
  6
BYLAYER
 10
40.6536662502908
 20
8.06055328395253
 40
3
  1
~8
  7
Font_0
100
AcDbText
  0
TEXT
  5
194
100
AcDbEntity
  8
0
100
AcDbText
  6
BYLAYER
 10
99.7036913346956
 20
32.2639399057443
 40
4
  1
･D ｺﾞ
  7
Font_0
100
AcDbText
  0
TEXT
  5
195
100
AcDbEntity
  8
0
100
AcDbText
  6
BYLAYER
 10
99.7036913346956
 20
25.6992573518645
 40
4
  1
ｮﾖ ｹ�
  7
Font_0
100
AcDbText
  0
TEXT
  5
196
100
AcDbEntity
  8
0
100
AcDbText
  6
BYLAYER
 10
99.8861871848885
 20
19.8639838602288
 40
4
  1
ﾃｸ ｹﾏ
  7
Font_0
100
AcDbText
  0
TEXT
  5
197
100
AcDbEntity
  8
0
100
AcDbText
  6
BYLAYER
 10
99.8861871848885
 20
13.8463581030321
 40
4
  1
ｾ� ｺﾘ
  7
Font_0
100
AcDbText
  0
TEXT
  5
198
100
AcDbEntity
  8
0
100
AcDbText
  6
BYLAYER
 10
100.068683035081
 20
7.82873284267693
 40
4
  1
ｫ~ ｦW
  7
Font_0
100
AcDbText
  0
TEXT
  5
199
100
AcDbEntity
  8
0
100
AcDbText
  6
BYLAYER
 10
100.068683035081
 20
1.99345935104124
 40
4
  1
ｹﾏ ｸｹ
  7
Font_0
100
AcDbText
  0
TEXT
  5
19A
100
AcDbEntity
  8
0
100
AcDbText
  6
BYLAYER
 10
146.605123404095
 20
31.8992353746223
 40
4
  1
ｧ� ｽ�
  7
Font_0
100
AcDbText
  0
TEXT
  5
19B
100
AcDbEntity
  8
0
100
AcDbText
  6
BYLAYER
 10
146.605123404095
 20
25.8816096174256
 40
4
  1
､� ｨﾒ
  7
Font_0
100
AcDbText
  0
TEXT
  5
19C
100
AcDbEntity
  8
0
100
AcDbText
  6
BYLAYER
 10
146.787619254287
 20
20.0463361257899
 40
4
  1
ｼﾆ ｶq
  7
Font_0
100
AcDbText
  0
TEXT
  5
19D
100
AcDbEntity
  8
0
100
AcDbText
  6
BYLAYER
 10
146.97011510448
 20
14.0287103685931
 40
4
  1
ｳ� ｦ�
  7
Font_0
100
AcDbText
  0
TEXT
  5
19E
100
AcDbEntity
  8
0
100
AcDbText
  6
BYLAYER
 10
146.422627553902
 20
8.01108510823795
 40
4
  1
ｪ揵ｱｳBｲz
  7
Font_0
100
AcDbText
  0
TEXT
  5
19F
100
AcDbEntity
  8
0
100
AcDbText
  6
BYLAYER
 10
146.605123404095
 20
2.17581161660226
 40
4
  1
ｻsｹﾏ､魘ﾁ
  7
Font_0
100
AcDbText
  0
TEXT
  5
1A0
100
AcDbEntity
  8
0
100
AcDbText
  6
BYLAYER
 10
197.77841370095
 20
32.2399819360484
 40
4
  1
､� ｴﾁ
  7
Font_0
100
AcDbText
  0
TEXT
  5
1A1
100
AcDbEntity
  8
0
100
AcDbText
  6
BYLAYER
 10
215.423238216157
 20
32.0275605512105
 40
4
  1
ｭt
  7
Font_0
100
AcDbText
  0
TEXT
  5
1A2
100
AcDbEntity
  8
0
100
AcDbText
  6
BYLAYER
 10
221.375709026727
 20
31.815139655317
 40
4
  1
ｳd
  7
Font_0
100
AcDbText
  0
TEXT
  5
1A3
100
AcDbEntity
  8
0
100
AcDbText
  6
BYLAYER
 10
227.328179837297
 20
31.815139655317
 40
4
  1
､H
  7
Font_0
100
AcDbText
  0
TEXT
  5
1A4
100
AcDbEntity
  8
0
100
AcDbText
  6
BYLAYER
 10
239.020533541933
 20
32.0275605512105
 40
4
  1
ｧ�
  7
Font_0
100
AcDbText
  0
TEXT
  5
1A5
100
AcDbEntity
  8
0
100
AcDbText
  6
BYLAYER
 10
251.98841615305
 20
32.0275605512105
 40
4
  1
ｧ�
  7
Font_0
100
AcDbText
  0
TEXT
  5
1A6
100
AcDbEntity
  8
0
100
AcDbText
  6
BYLAYER
 10
264.531122227431
 20
32.0275605512105
 40
4
  1
､ｺ
  7
Font_0
100
AcDbText
  0
TEXT
  5
1A7
100
AcDbEntity
  8
0
100
AcDbText
  6
BYLAYER
 10
276.436064552298
 20
31.815139655317
 40
4
  1
ｮe
  7
Font_0
100
AcDbText
  0
TEXT
  5
1A8
100
AcDbEntity
  8
0
100
AcDbText
  6
BYLAYER
 10
23.0468952754036
 20
24.3731292136772
 40
7
  1
ｫﾘｷﾔ､uｷ~ｪﾑ･ｳｭｭ､ｽ･q
  7
Font_0
100
AcDbText
  0
TEXT
  5
1A9
100
AcDbEntity
  8
0
100
AcDbText
  6
BYLAYER
 10
22.2780828500217
 20
15.9228468305838
 40
3
  1
CHIEN YU INDUSTRIAL CO.,LTD.
  7
Font_0
100
AcDbText
  0
CIRCLE
  5
1AA
100
AcDbEntity
  8
0
100
AcDbCircle
  6
BYLAYER
 10
11.1054905349494
 20
25.350263158651
 40
9.36463111331499
  0
CIRCLE
  5
1AB
100
AcDbEntity
  8
0
100
AcDbCircle
  6
BYLAYER
 10
11.1054905349494
 20
25.350263158651
 40
7.62237416200057
  0
ARC
  5
1AC
100
AcDbEntity
  8
0
100
AcDbCircle
  6
BYLAYER
 10
11.1054905349494
 20
25.350263158651
 40
4.41008790801462
100
AcDbArc
 50
90
 51
0
  0
LINE
  5
1AD
100
AcDbEntity
  8
0
100
AcDbLine
  6
BYLAYER
 10
11.1054905349494
 20
29.7603510666656
 11
16.2233703294355
 21
29.7603510666656
  0
LINE
  5
1AE
100
AcDbEntity
  8
0
100
AcDbLine
  6
BYLAYER
 10
15.515578442964
 20
25.350263158651
 11
16.4411524483498
 21
25.350263158651
  0
TEXT
  5
1AF
100
AcDbEntity
  8
0
100
AcDbText
  6
BYLAYER
 10
8.49210581170386
 20
22.8477388856442
 40
5
  1
Y
  7
Font_0
100
AcDbText
  0
ARC
  5
1B0
100
AcDbEntity
  8
0
100
AcDbCircle
  6
BYLAYER
 10
11.5745216067836
 20
33.8983997393573
 40
0.704372460813671
100
AcDbArc
 50
83.8529806316668
 51
239.250071636948
  0
ARC
  5
1B1
100
AcDbEntity
  8
0
100
AcDbCircle
  6
BYLAYER
 10
7.23761506796891
 20
32.9876821284788
 40
0.704372460813671
100
AcDbArc
 50
113.852980631667
 51
269.250071636948
  0
ARC
  5
1B2
100
AcDbEntity
  8
0
100
AcDbCircle
  6
BYLAYER
 10
3.93710263695578
 20
30.0305242723769
 40
0.704372460813671
100
AcDbArc
 50
143.852980631667
 51
299.250071636948
  0
ARC
  5
1B3
100
AcDbEntity
  8
0
100
AcDbCircle
  6
BYLAYER
 10
2.55735395424305
 20
25.8192942304852
 40
0.704372460813671
100
AcDbArc
 50
173.852980631667
 51
329.250071636948
  0
ARC
  5
1B4
100
AcDbEntity
  8
0
100
AcDbCircle
  6
BYLAYER
 10
3.46807156512152
 20
21.4823876916705
 40
0.704372460813671
100
AcDbArc
 50
203.852980631667
 51
359.250071636948
  0
ARC
  5
1B5
100
AcDbEntity
  8
0
100
AcDbCircle
  6
BYLAYER
 10
6.42522942122351
 20
18.1818752606574
 40
0.704372460813671
100
AcDbArc
 50
233.852980631667
 51
29.2500716369476
  0
ARC
  5
1B6
100
AcDbEntity
  8
0
100
AcDbCircle
  6
BYLAYER
 10
10.6364594631151
 20
16.8021265779447
 40
0.704372460813671
100
AcDbArc
 50
263.852980631667
 51
59.2500716369476
  0
ARC
  5
1B7
100
AcDbEntity
  8
0
100
AcDbCircle
  6
BYLAYER
 10
14.9733660019298
 20
17.7128441888231
 40
0.704372460813671
100
AcDbArc
 50
293.852980631667
 51
89.2500716369476
  0
ARC
  5
1B8
100
AcDbEntity
  8
0
100
AcDbCircle
  6
BYLAYER
 10
18.273878432943
 20
20.6700020449251
 40
0.704372460813671
100
AcDbArc
 50
323.852980631667
 51
119.250071636948
  0
ARC
  5
1B9
100
AcDbEntity
  8
0
100
AcDbCircle
  6
BYLAYER
 10
19.6536271156557
 20
24.8812320868167
 40
0.704372460813671
100
AcDbArc
 50
353.852980631667
 51
149.250071636948
  0
ARC
  5
1BA
100
AcDbEntity
  8
0
100
AcDbCircle
  6
BYLAYER
 10
18.7429095047772
 20
29.2181386256314
 40
0.704372460813671
100
AcDbArc
 50
23.8529806316668
 51
179.250071636948
  0
ARC
  5
1BB
100
AcDbEntity
  8
0
100
AcDbCircle
  6
BYLAYER
 10
15.7857516486752
 20
32.5186510566446
 40
0.704372460813671
100
AcDbArc
 50
53.8529806316668
 51
209.250071636948
  0
LINE
  5
1BC
100
AcDbEntity
  8
0
100
AcDbLine
  6
BYLAYER
 10
1
 20
201
 11
290
 21
201
  0
LINE
  5
1BD
100
AcDbEntity
  8
0
100
AcDbLine
  6
BYLAYER
 10
290
 20
201
 11
290
 21
1
  0
ENDBLK
  5
1BE
100
AcDbEntity
  8
0
 67
     1
100
AcDbBlockEnd
  0
BLOCK
  5
1BF
100
AcDbEntity
  8
0
100
AcDbBlockBegin
  2
A4
 70
    0
 10
0
 20
0
 30
0.0
  3
A4
  1

  0
TEXT
  5
1C0
100
AcDbEntity
  8
0
100
AcDbText
  6
BYLAYER
 10
121.243373757434
 20
22.64898098486
 40
4.8
  1
ｿ� ｪ｢ ｵo
  7
Font_0
100
AcDbText
  0
TEXT
  5
1C1
100
AcDbEntity
  8
0
100
AcDbText
  6
BYLAYER
 10
175.643149157513
 20
16.5268633951276
 40
4.8
  1
M/M
  7
Font_0
100
AcDbText
  0
INSERT
  5
1C2
100
AcDbEntity
  8
0
100
AcDbBlockReference
  6
CONTINUOUS
  2
0
 10
2.77414193339833
 20
3.05830958210858
 30
0.0
  0
ENDBLK
  5
1C3
100
AcDbEntity
  8
0
 67
     1
100
AcDbBlockEnd
  0
BLOCK
  5
1C4
100
AcDbEntity
  8
0
100
AcDbBlockBegin
  2
NOTE
 70
    0
 10
0
 20
0
 30
0.0
  3
NOTE
  1

  0
LINE
  5
1C5
100
AcDbEntity
  8
0
100
AcDbLine
  6
BYLAYER
 10
0
 20
48
 11
244.5
 21
48
  0
LINE
  5
1C6
100
AcDbEntity
  8
0
100
AcDbLine
  6
BYLAYER
 10
0
 20
42
 11
244.5
 21
42
  0
LINE
  5
1C7
100
AcDbEntity
  8
0
100
AcDbLine
  6
BYLAYER
 10
0
 20
36
 11
244.5
 21
36
  0
LINE
  5
1C8
100
AcDbEntity
  8
0
100
AcDbLine
  6
BYLAYER
 10
0
 20
30
 11
244.5
 21
30
  0
LINE
  5
1C9
100
AcDbEntity
  8
0
100
AcDbLine
  6
BYLAYER
 10
0
 20
24
 11
244.5
 21
24
  0
LINE
  5
1CA
100
AcDbEntity
  8
0
100
AcDbLine
  6
BYLAYER
 10
0
 20
18
 11
244.5
 21
18
  0
LINE
  5
1CB
100
AcDbEntity
  8
0
100
AcDbLine
  6
BYLAYER
 10
0
 20
12
 11
244.5
 21
12
  0
LINE
  5
1CC
100
AcDbEntity
  8
0
100
AcDbLine
  6
BYLAYER
 10
0
 20
6
 11
244.5
 21
6
  0
LINE
  5
1CD
100
AcDbEntity
  8
0
100
AcDbLine
  6
BYLAYER
 62
3
 10
196.307106781187
 20
0.707106781186553
 11
211.192893218814
 21
0.707106781186553
  0
LINE
  5
1CE
100
AcDbEntity
  8
0
100
AcDbLine
  6
BYLAYER
 62
3
 10
196.307106781187
 20
6.70710678118655
 11
211.192893218814
 21
6.70710678118655
  0
LINE
  5
1CF
100
AcDbEntity
  8
0
100
AcDbLine
  6
BYLAYER
 62
3
 10
196.307106781187
 20
12.7071067811866
 11
211.192893218814
 21
12.7071067811866
  0
LINE
  5
1D0
100
AcDbEntity
  8
0
100
AcDbLine
  6
BYLAYER
 62
3
 10
196.307106781187
 20
18.7071067811866
 11
211.192893218814
 21
18.7071067811866
  0
LINE
  5
1D1
100
AcDbEntity
  8
0
100
AcDbLine
  6
BYLAYER
 62
3
 10
196.307106781187
 20
24.7071067811866
 11
211.192893218814
 21
24.7071067811866
  0
LINE
  5
1D2
100
AcDbEntity
  8
0
100
AcDbLine
  6
BYLAYER
 62
3
 10
196.307106781187
 20
30.7071067811865
 11
211.192893218814
 21
30.7071067811865
  0
LINE
  5
1D3
100
AcDbEntity
  8
0
100
AcDbLine
  6
BYLAYER
 62
3
 10
196.307106781187
 20
36.7071067811866
 11
211.192893218814
 21
36.7071067811866
  0
LINE
  5
1D4
100
AcDbEntity
  8
0
100
AcDbLine
  6
BYLAYER
 62
3
 10
65.9071067811866
 20
0.707106781186553
 11
80.7928932188135
 21
0.707106781186553
  0
LINE
  5
1D5
100
AcDbEntity
  8
0
100
AcDbLine
  6
BYLAYER
 62
3
 10
65.9071067811866
 20
6.70710678118655
 11
80.7928932188135
 21
6.70710678118655
  0
LINE
  5
1D6
100
AcDbEntity
  8
0
100
AcDbLine
  6
BYLAYER
 62
3
 10
65.9071067811866
 20
12.7071067811866
 11
80.7928932188135
 21
12.7071067811866
  0
LINE
  5
1D7
100
AcDbEntity
  8
0
100
AcDbLine
  6
BYLAYER
 62
3
 10
65.9071067811866
 20
18.7071067811866
 11
80.7928932188135
 21
18.7071067811866
  0
LINE
  5
1D8
100
AcDbEntity
  8
0
100
AcDbLine
  6
BYLAYER
 62
3
 10
65.9071067811866
 20
24.7071067811866
 11
80.7928932188135
 21
24.7071067811866
  0
LINE
  5
1D9
100
AcDbEntity
  8
0
100
AcDbLine
  6
BYLAYER
 62
3
 10
65.9071067811866
 20
30.7071067811865
 11
80.7928932188135
 21
30.7071067811865
  0
LINE
  5
1DA
100
AcDbEntity
  8
0
100
AcDbLine
  6
BYLAYER
 62
3
 10
65.9071067811866
 20
36.7071067811866
 11
80.7928932188135
 21
36.7071067811866
  0
LINE
  5
1DB
100
AcDbEntity
  8
0
100
AcDbLine
  6
BYLAYER
 10
65.2
 20
48
 11
65.2
 21
0
  0
LINE
  5
1DC
100
AcDbEntity
  8
0
100
AcDbLine
  6
BYLAYER
 10
32.6
 20
48
 11
32.6
 21
0
  0
LINE
  5
1DD
100
AcDbEntity
  8
0
100
AcDbLine
  6
BYLAYER
 10
16.3
 20
48
 11
16.3
 21
0
  0
LINE
  5
1DE
100
AcDbEntity
  8
0
100
AcDbLine
  6
BYLAYER
 10
48.9
 20
48
 11
48.9
 21
0
  0
LINE
  5
1DF
100
AcDbEntity
  8
0
100
AcDbLine
  6
BYLAYER
 62
3
 10
0.707106781186548
 20
0.707106781186553
 11
15.5928932188134
 21
0.707106781186553
  0
LINE
  5
1E0
100
AcDbEntity
  8
0
100
AcDbLine
  6
BYLAYER
 62
3
 10
0.707106781186548
 20
6.70710678118655
 11
15.5928932188134
 21
6.70710678118655
  0
LINE
  5
1E1
100
AcDbEntity
  8
0
100
AcDbLine
  6
BYLAYER
 62
3
 10
0.707106781186548
 20
12.7071067811866
 11
15.5928932188134
 21
12.7071067811866
  0
LINE
  5
1E2
100
AcDbEntity
  8
0
100
AcDbLine
  6
BYLAYER
 62
3
 10
0.707106781186548
 20
18.7071067811866
 11
15.5928932188134
 21
18.7071067811866
  0
LINE
  5
1E3
100
AcDbEntity
  8
0
100
AcDbLine
  6
BYLAYER
 62
3
 10
33.3071067811865
 20
0.707106781186553
 11
48.1928932188135
 21
0.707106781186553
  0
LINE
  5
1E4
100
AcDbEntity
  8
0
100
AcDbLine
  6
BYLAYER
 62
3
 10
33.3071067811865
 20
6.70710678118655
 11
48.1928932188135
 21
6.70710678118655
  0
LINE
  5
1E5
100
AcDbEntity
  8
0
100
AcDbLine
  6
BYLAYER
 62
3
 10
33.3071067811865
 20
12.7071067811866
 11
48.1928932188135
 21
12.7071067811866
  0
LINE
  5
1E6
100
AcDbEntity
  8
0
100
AcDbLine
  6
BYLAYER
 62
3
 10
33.3071067811865
 20
18.7071067811866
 11
48.1928932188135
 21
18.7071067811866
  0
LINE
  5
1E7
100
AcDbEntity
  8
0
100
AcDbLine
  6
BYLAYER
 62
3
 10
17.0071067811865
 20
0.707106781186553
 11
31.8928932188135
 21
0.707106781186553
  0
LINE
  5
1E8
100
AcDbEntity
  8
0
100
AcDbLine
  6
BYLAYER
 62
3
 10
17.0071067811865
 20
6.70710678118655
 11
31.8928932188135
 21
6.70710678118655
  0
LINE
  5
1E9
100
AcDbEntity
  8
0
100
AcDbLine
  6
BYLAYER
 62
3
 10
17.0071067811865
 20
12.7071067811866
 11
31.8928932188135
 21
12.7071067811866
  0
LINE
  5
1EA
100
AcDbEntity
  8
0
100
AcDbLine
  6
BYLAYER
 62
3
 10
17.0071067811865
 20
18.7071067811866
 11
31.8928932188135
 21
18.7071067811866
  0
LINE
  5
1EB
100
AcDbEntity
  8
0
100
AcDbLine
  6
BYLAYER
 62
3
 10
49.6071067811866
 20
0.707106781186553
 11
64.4928932188135
 21
0.707106781186553
  0
LINE
  5
1EC
100
AcDbEntity
  8
0
100
AcDbLine
  6
BYLAYER
 62
3
 10
49.6071067811866
 20
6.70710678118655
 11
64.4928932188135
 21
6.70710678118655
  0
LINE
  5
1ED
100
AcDbEntity
  8
0
100
AcDbLine
  6
BYLAYER
 62
3
 10
49.6071067811866
 20
12.7071067811866
 11
64.4928932188135
 21
12.7071067811866
  0
LINE
  5
1EE
100
AcDbEntity
  8
0
100
AcDbLine
  6
BYLAYER
 62
3
 10
49.6071067811866
 20
18.7071067811866
 11
64.4928932188135
 21
18.7071067811866
  0
LINE
  5
1EF
100
AcDbEntity
  8
0
100
AcDbLine
  6
BYLAYER
 62
3
 10
0.707106781186548
 20
24.7071067811866
 11
15.5928932188134
 21
24.7071067811866
  0
LINE
  5
1F0
100
AcDbEntity
  8
0
100
AcDbLine
  6
BYLAYER
 62
3
 10
0.707106781186548
 20
30.7071067811865
 11
15.5928932188134
 21
30.7071067811865
  0
LINE
  5
1F1
100
AcDbEntity
  8
0
100
AcDbLine
  6
BYLAYER
 62
3
 10
0.707106781186548
 20
36.7071067811866
 11
15.5928932188134
 21
36.7071067811866
  0
TEXT
  5
1F2
100
AcDbEntity
  8
0
100
AcDbText
  6
BYLAYER
 10
5.67126064773777
 20
43.5
 40
3
  1
､u･O
  7
Font_0
100
AcDbText
  0
LINE
  5
1F3
100
AcDbEntity
  8
0
100
AcDbLine
  6
BYLAYER
 62
3
 10
33.3071067811865
 20
24.7071067811866
 11
48.1928932188135
 21
24.7071067811866
  0
LINE
  5
1F4
100
AcDbEntity
  8
0
100
AcDbLine
  6
BYLAYER
 62
3
 10
33.3071067811865
 20
30.7071067811865
 11
48.1928932188135
 21
30.7071067811865
  0
LINE
  5
1F5
100
AcDbEntity
  8
0
100
AcDbLine
  6
BYLAYER
 62
3
 10
33.3071067811865
 20
36.7071067811866
 11
48.1928932188135
 21
36.7071067811866
  0
LINE
  5
1F6
100
AcDbEntity
  8
0
100
AcDbLine
  6
BYLAYER
 62
3
 10
17.0071067811865
 20
24.7071067811866
 11
31.8928932188135
 21
24.7071067811866
  0
LINE
  5
1F7
100
AcDbEntity
  8
0
100
AcDbLine
  6
BYLAYER
 62
3
 10
17.0071067811865
 20
30.7071067811865
 11
31.8928932188135
 21
30.7071067811865
  0
LINE
  5
1F8
100
AcDbEntity
  8
0
100
AcDbLine
  6
BYLAYER
 62
3
 10
17.0071067811865
 20
36.7071067811866
 11
31.8928932188135
 21
36.7071067811866
  0
TEXT
  5
1F9
100
AcDbEntity
  8
0
100
AcDbText
  6
BYLAYER
 10
21.3781148184937
 20
43.5
 40
3
  1
ｽsｸｹ
  7
Font_0
100
AcDbText
  0
TEXT
  5
1FA
100
AcDbEntity
  8
0
100
AcDbText
  6
BYLAYER
 10
39.5
 20
43.5
 40
3
  1
A
  7
Font_0
100
AcDbText
  0
LINE
  5
1FB
100
AcDbEntity
  8
0
100
AcDbLine
  6
BYLAYER
 62
3
 10
49.6071067811866
 20
24.7071067811866
 11
64.4928932188135
 21
24.7071067811866
  0
LINE
  5
1FC
100
AcDbEntity
  8
0
100
AcDbLine
  6
BYLAYER
 62
3
 10
49.6071067811866
 20
30.7071067811865
 11
64.4928932188135
 21
30.7071067811865
  0
LINE
  5
1FD
100
AcDbEntity
  8
0
100
AcDbLine
  6
BYLAYER
 62
3
 10
49.6071067811866
 20
36.7071067811866
 11
64.4928932188135
 21
36.7071067811866
  0
TEXT
  5
1FE
100
AcDbEntity
  8
0
100
AcDbText
  6
BYLAYER
 10
56
 20
43.5
 40
3
  1
B
  7
Font_0
100
AcDbText
  0
TEXT
  5
1FF
100
AcDbEntity
  8
0
100
AcDbText
  6
BYLAYER
 10
72.5
 20
43.5
 40
3
  1
C
  7
Font_0
100
AcDbText
  0
LINE
  5
200
100
AcDbEntity
  8
0
100
AcDbLine
  6
BYLAYER
 10
163
 20
48
 11
163
 21
0
  0
LINE
  5
201
100
AcDbEntity
  8
0
100
AcDbLine
  6
BYLAYER
 10
146.7
 20
48
 11
146.7
 21
0
  0
LINE
  5
202
100
AcDbEntity
  8
0
100
AcDbLine
  6
BYLAYER
 10
179.3
 20
48
 11
179.3
 21
0
  0
LINE
  5
203
100
AcDbEntity
  8
0
100
AcDbLine
  6
BYLAYER
 10
195.6
 20
48
 11
195.6
 21
0
  0
LINE
  5
204
100
AcDbEntity
  8
0
100
AcDbLine
  6
BYLAYER
 10
81.5
 20
48
 11
81.5
 21
0
  0
LINE
  5
205
100
AcDbEntity
  8
0
100
AcDbLine
  6
BYLAYER
 10
114.1
 20
48
 11
114.1
 21
0
  0
LINE
  5
206
100
AcDbEntity
  8
0
100
AcDbLine
  6
BYLAYER
 10
97.8
 20
48
 11
97.8
 21
0
  0
LINE
  5
207
100
AcDbEntity
  8
0
100
AcDbLine
  6
BYLAYER
 10
130.4
 20
48
 11
130.4
 21
0
  0
LINE
  5
208
100
AcDbEntity
  8
0
100
AcDbLine
  6
BYLAYER
 62
3
 10
131.107106781186
 20
0.707106781186553
 11
145.992893218813
 21
0.707106781186553
  0
LINE
  5
209
100
AcDbEntity
  8
0
100
AcDbLine
  6
BYLAYER
 62
3
 10
131.107106781186
 20
6.70710678118655
 11
145.992893218813
 21
6.70710678118655
  0
LINE
  5
20A
100
AcDbEntity
  8
0
100
AcDbLine
  6
BYLAYER
 62
3
 10
131.107106781186
 20
12.7071067811866
 11
145.992893218813
 21
12.7071067811866
  0
LINE
  5
20B
100
AcDbEntity
  8
0
100
AcDbLine
  6
BYLAYER
 62
3
 10
131.107106781186
 20
18.7071067811866
 11
145.992893218813
 21
18.7071067811866
  0
LINE
  5
20C
100
AcDbEntity
  8
0
100
AcDbLine
  6
BYLAYER
 62
3
 10
98.5071067811866
 20
0.707106781186553
 11
113.392893218813
 21
0.707106781186553
  0
LINE
  5
20D
100
AcDbEntity
  8
0
100
AcDbLine
  6
BYLAYER
 62
3
 10
98.5071067811866
 20
6.70710678118655
 11
113.392893218813
 21
6.70710678118655
  0
LINE
  5
20E
100
AcDbEntity
  8
0
100
AcDbLine
  6
BYLAYER
 62
3
 10
98.5071067811866
 20
12.7071067811866
 11
113.392893218813
 21
12.7071067811866
  0
LINE
  5
20F
100
AcDbEntity
  8
0
100
AcDbLine
  6
BYLAYER
 62
3
 10
98.5071067811866
 20
18.7071067811866
 11
113.392893218813
 21
18.7071067811866
  0
LINE
  5
210
100
AcDbEntity
  8
0
100
AcDbLine
  6
BYLAYER
 62
3
 10
82.2071067811865
 20
0.707106781186553
 11
97.0928932188135
 21
0.707106781186553
  0
LINE
  5
211
100
AcDbEntity
  8
0
100
AcDbLine
  6
BYLAYER
 62
3
 10
82.2071067811865
 20
6.70710678118655
 11
97.0928932188135
 21
6.70710678118655
  0
LINE
  5
212
100
AcDbEntity
  8
0
100
AcDbLine
  6
BYLAYER
 62
3
 10
82.2071067811865
 20
12.7071067811866
 11
97.0928932188135
 21
12.7071067811866
  0
LINE
  5
213
100
AcDbEntity
  8
0
100
AcDbLine
  6
BYLAYER
 62
3
 10
82.2071067811865
 20
18.7071067811866
 11
97.0928932188135
 21
18.7071067811866
  0
LINE
  5
214
100
AcDbEntity
  8
0
100
AcDbLine
  6
BYLAYER
 62
3
 10
114.807106781187
 20
0.707106781186553
 11
129.692893218813
 21
0.707106781186553
  0
LINE
  5
215
100
AcDbEntity
  8
0
100
AcDbLine
  6
BYLAYER
 62
3
 10
114.807106781187
 20
6.70710678118655
 11
129.692893218813
 21
6.70710678118655
  0
LINE
  5
216
100
AcDbEntity
  8
0
100
AcDbLine
  6
BYLAYER
 62
3
 10
114.807106781187
 20
12.7071067811866
 11
129.692893218813
 21
12.7071067811866
  0
LINE
  5
217
100
AcDbEntity
  8
0
100
AcDbLine
  6
BYLAYER
 62
3
 10
114.807106781187
 20
18.7071067811866
 11
129.692893218813
 21
18.7071067811866
  0
LINE
  5
218
100
AcDbEntity
  8
0
100
AcDbLine
  6
BYLAYER
 62
3
 10
163.707106781186
 20
0.707106781186553
 11
178.592893218813
 21
0.707106781186553
  0
LINE
  5
219
100
AcDbEntity
  8
0
100
AcDbLine
  6
BYLAYER
 62
3
 10
163.707106781186
 20
6.70710678118655
 11
178.592893218813
 21
6.70710678118655
  0
LINE
  5
21A
100
AcDbEntity
  8
0
100
AcDbLine
  6
BYLAYER
 62
3
 10
163.707106781186
 20
12.7071067811866
 11
178.592893218813
 21
12.7071067811866
  0
LINE
  5
21B
100
AcDbEntity
  8
0
100
AcDbLine
  6
BYLAYER
 62
3
 10
163.707106781186
 20
18.7071067811866
 11
178.592893218813
 21
18.7071067811866
  0
LINE
  5
21C
100
AcDbEntity
  8
0
100
AcDbLine
  6
BYLAYER
 62
3
 10
147.407106781187
 20
0.707106781186553
 11
162.292893218814
 21
0.707106781186553
  0
LINE
  5
21D
100
AcDbEntity
  8
0
100
AcDbLine
  6
BYLAYER
 62
3
 10
147.407106781187
 20
6.70710678118655
 11
162.292893218814
 21
6.70710678118655
  0
LINE
  5
21E
100
AcDbEntity
  8
0
100
AcDbLine
  6
BYLAYER
 62
3
 10
147.407106781187
 20
12.7071067811866
 11
162.292893218814
 21
12.7071067811866
  0
LINE
  5
21F
100
AcDbEntity
  8
0
100
AcDbLine
  6
BYLAYER
 62
3
 10
147.407106781187
 20
18.7071067811866
 11
162.292893218814
 21
18.7071067811866
  0
LINE
  5
220
100
AcDbEntity
  8
0
100
AcDbLine
  6
BYLAYER
 62
3
 10
180.007106781186
 20
0.707106781186553
 11
194.892893218813
 21
0.707106781186553
  0
LINE
  5
221
100
AcDbEntity
  8
0
100
AcDbLine
  6
BYLAYER
 62
3
 10
180.007106781186
 20
6.70710678118655
 11
194.892893218813
 21
6.70710678118655
  0
LINE
  5
222
100
AcDbEntity
  8
0
100
AcDbLine
  6
BYLAYER
 62
3
 10
180.007106781186
 20
12.7071067811866
 11
194.892893218813
 21
12.7071067811866
  0
LINE
  5
223
100
AcDbEntity
  8
0
100
AcDbLine
  6
BYLAYER
 62
3
 10
180.007106781186
 20
18.7071067811866
 11
194.892893218813
 21
18.7071067811866
  0
LINE
  5
224
100
AcDbEntity
  8
0
100
AcDbLine
  6
BYLAYER
 62
3
 10
131.107106781186
 20
24.7071067811866
 11
145.992893218813
 21
24.7071067811866
  0
LINE
  5
225
100
AcDbEntity
  8
0
100
AcDbLine
  6
BYLAYER
 62
3
 10
131.107106781186
 20
30.7071067811865
 11
145.992893218813
 21
30.7071067811865
  0
LINE
  5
226
100
AcDbEntity
  8
0
100
AcDbLine
  6
BYLAYER
 62
3
 10
131.107106781186
 20
36.7071067811866
 11
145.992893218813
 21
36.7071067811866
  0
LINE
  5
227
100
AcDbEntity
  8
0
100
AcDbLine
  6
BYLAYER
 62
3
 10
98.5071067811866
 20
24.7071067811866
 11
113.392893218813
 21
24.7071067811866
  0
LINE
  5
228
100
AcDbEntity
  8
0
100
AcDbLine
  6
BYLAYER
 62
3
 10
98.5071067811866
 20
30.7071067811865
 11
113.392893218813
 21
30.7071067811865
  0
LINE
  5
229
100
AcDbEntity
  8
0
100
AcDbLine
  6
BYLAYER
 62
3
 10
98.5071067811866
 20
36.7071067811866
 11
113.392893218813
 21
36.7071067811866
  0
LINE
  5
22A
100
AcDbEntity
  8
0
100
AcDbLine
  6
BYLAYER
 62
3
 10
82.2071067811865
 20
24.7071067811866
 11
97.0928932188135
 21
24.7071067811866
  0
LINE
  5
22B
100
AcDbEntity
  8
0
100
AcDbLine
  6
BYLAYER
 62
3
 10
82.2071067811865
 20
30.7071067811865
 11
97.0928932188135
 21
30.7071067811865
  0
LINE
  5
22C
100
AcDbEntity
  8
0
100
AcDbLine
  6
BYLAYER
 62
3
 10
82.2071067811865
 20
36.7071067811866
 11
97.0928932188135
 21
36.7071067811866
  0
TEXT
  5
22D
100
AcDbEntity
  8
0
100
AcDbText
  6
BYLAYER
 10
89
 20
43.5
 40
3
  1
D
  7
Font_0
100
AcDbText
  0
TEXT
  5
22E
100
AcDbEntity
  8
0
100
AcDbText
  6
BYLAYER
 10
105.3
 20
43.5
 40
3
  1
E
  7
Font_0
100
AcDbText
  0
LINE
  5
22F
100
AcDbEntity
  8
0
100
AcDbLine
  6
BYLAYER
 62
3
 10
114.807106781187
 20
24.7071067811866
 11
129.692893218813
 21
24.7071067811866
  0
LINE
  5
230
100
AcDbEntity
  8
0
100
AcDbLine
  6
BYLAYER
 62
3
 10
114.807106781187
 20
30.7071067811865
 11
129.692893218813
 21
30.7071067811865
  0
LINE
  5
231
100
AcDbEntity
  8
0
100
AcDbLine
  6
BYLAYER
 62
3
 10
114.807106781187
 20
36.7071067811866
 11
129.692893218813
 21
36.7071067811866
  0
TEXT
  5
232
100
AcDbEntity
  8
0
100
AcDbText
  6
BYLAYER
 10
121.8
 20
43.5
 40
3
  1
F
  7
Font_0
100
AcDbText
  0
TEXT
  5
233
100
AcDbEntity
  8
0
100
AcDbText
  6
BYLAYER
 10
137.8
 20
43.5
 40
3
  1
G
  7
Font_0
100
AcDbText
  0
LINE
  5
234
100
AcDbEntity
  8
0
100
AcDbLine
  6
BYLAYER
 62
3
 10
163.707106781186
 20
24.7071067811866
 11
178.592893218813
 21
24.7071067811866
  0
LINE
  5
235
100
AcDbEntity
  8
0
100
AcDbLine
  6
BYLAYER
 62
3
 10
163.707106781186
 20
30.7071067811865
 11
178.592893218813
 21
30.7071067811865
  0
LINE
  5
236
100
AcDbEntity
  8
0
100
AcDbLine
  6
BYLAYER
 62
3
 10
163.707106781186
 20
36.7071067811866
 11
178.592893218813
 21
36.7071067811866
  0
LINE
  5
237
100
AcDbEntity
  8
0
100
AcDbLine
  6
BYLAYER
 62
3
 10
147.407106781187
 20
24.7071067811866
 11
162.292893218814
 21
24.7071067811866
  0
LINE
  5
238
100
AcDbEntity
  8
0
100
AcDbLine
  6
BYLAYER
 62
3
 10
147.407106781187
 20
30.7071067811865
 11
162.292893218814
 21
30.7071067811865
  0
LINE
  5
239
100
AcDbEntity
  8
0
100
AcDbLine
  6
BYLAYER
 62
3
 10
147.407106781187
 20
36.7071067811866
 11
162.292893218814
 21
36.7071067811866
  0
TEXT
  5
23A
100
AcDbEntity
  8
0
100
AcDbText
  6
BYLAYER
 10
153.5
 20
43.5
 40
3
  1
H
  7
Font_0
100
AcDbText
  0
TEXT
  5
23B
100
AcDbEntity
  8
0
100
AcDbText
  6
BYLAYER
 10
171.5
 20
43.5
 40
3
  1
I
  7
Font_0
100
AcDbText
  0
LINE
  5
23C
100
AcDbEntity
  8
0
100
AcDbLine
  6
BYLAYER
 62
3
 10
180.007106781186
 20
24.7071067811866
 11
194.892893218813
 21
24.7071067811866
  0
LINE
  5
23D
100
AcDbEntity
  8
0
100
AcDbLine
  6
BYLAYER
 62
3
 10
180.007106781186
 20
30.7071067811865
 11
194.892893218813
 21
30.7071067811865
  0
LINE
  5
23E
100
AcDbEntity
  8
0
100
AcDbLine
  6
BYLAYER
 62
3
 10
180.007106781186
 20
36.7071067811866
 11
194.892893218813
 21
36.7071067811866
  0
TEXT
  5
23F
100
AcDbEntity
  8
0
100
AcDbText
  6
BYLAYER
 10
186.6
 20
43.5
 40
3
  1
J
  7
Font_0
100
AcDbText
  0
TEXT
  5
240
100
AcDbEntity
  8
0
100
AcDbText
  6
BYLAYER
 10
202.5
 20
43.5
 40
3
  1
K
  7
Font_0
100
AcDbText
  0
LINE
  5
241
100
AcDbEntity
  8
0
100
AcDbLine
  6
BYLAYER
 10
244.5
 20
48
 11
244.5
 21
0
  0
LINE
  5
242
100
AcDbEntity
  8
0
100
AcDbLine
  6
BYLAYER
 10
211.9
 20
48
 11
211.9
 21
0
  0
LINE
  5
243
100
AcDbEntity
  8
0
100
AcDbLine
  6
BYLAYER
 10
228.2
 20
48
 11
228.2
 21
0
  0
LINE
  5
244
100
AcDbEntity
  8
0
100
AcDbLine
  6
BYLAYER
 62
3
 10
228.907106781187
 20
0.707106781186553
 11
243.792893218814
 21
0.707106781186553
  0
LINE
  5
245
100
AcDbEntity
  8
0
100
AcDbLine
  6
BYLAYER
 62
3
 10
228.907106781187
 20
6.70710678118655
 11
243.792893218814
 21
6.70710678118655
  0
LINE
  5
246
100
AcDbEntity
  8
0
100
AcDbLine
  6
BYLAYER
 62
3
 10
228.907106781187
 20
12.7071067811866
 11
243.792893218814
 21
12.7071067811866
  0
LINE
  5
247
100
AcDbEntity
  8
0
100
AcDbLine
  6
BYLAYER
 62
3
 10
228.907106781187
 20
18.7071067811866
 11
243.792893218814
 21
18.7071067811866
  0
LINE
  5
248
100
AcDbEntity
  8
0
100
AcDbLine
  6
BYLAYER
 62
3
 10
212.607106781186
 20
0.707106781186553
 11
227.492893218814
 21
0.707106781186553
  0
LINE
  5
249
100
AcDbEntity
  8
0
100
AcDbLine
  6
BYLAYER
 62
3
 10
212.607106781186
 20
6.70710678118655
 11
227.492893218814
 21
6.70710678118655
  0
LINE
  5
24A
100
AcDbEntity
  8
0
100
AcDbLine
  6
BYLAYER
 62
3
 10
212.607106781186
 20
12.7071067811866
 11
227.492893218814
 21
12.7071067811866
  0
LINE
  5
24B
100
AcDbEntity
  8
0
100
AcDbLine
  6
BYLAYER
 62
3
 10
212.607106781186
 20
18.7071067811866
 11
227.492893218814
 21
18.7071067811866
  0
LINE
  5
24C
100
AcDbEntity
  8
0
100
AcDbLine
  6
BYLAYER
 62
3
 10
228.907106781187
 20
24.7071067811866
 11
243.792893218814
 21
24.7071067811866
  0
LINE
  5
24D
100
AcDbEntity
  8
0
100
AcDbLine
  6
BYLAYER
 62
3
 10
228.907106781187
 20
30.7071067811865
 11
243.792893218814
 21
30.7071067811865
  0
LINE
  5
24E
100
AcDbEntity
  8
0
100
AcDbLine
  6
BYLAYER
 62
3
 10
228.907106781187
 20
36.7071067811866
 11
243.792893218814
 21
36.7071067811866
  0
LINE
  5
24F
100
AcDbEntity
  8
0
100
AcDbLine
  6
BYLAYER
 62
3
 10
212.607106781186
 20
24.7071067811866
 11
227.492893218814
 21
24.7071067811866
  0
LINE
  5
250
100
AcDbEntity
  8
0
100
AcDbLine
  6
BYLAYER
 62
3
 10
212.607106781186
 20
30.7071067811865
 11
227.492893218814
 21
30.7071067811865
  0
LINE
  5
251
100
AcDbEntity
  8
0
100
AcDbLine
  6
BYLAYER
 62
3
 10
212.607106781186
 20
36.7071067811866
 11
227.492893218814
 21
36.7071067811866
  0
TEXT
  5
252
100
AcDbEntity
  8
0
100
AcDbText
  6
BYLAYER
 10
219
 20
43.5
 40
3
  1
L
  7
Font_0
100
AcDbText
  0
TEXT
  5
253
100
AcDbEntity
  8
0
100
AcDbText
  6
BYLAYER
 10
233.270544856686
 20
43.5
 40
3
  1
ｫﾈ､�
  7
Font_0
100
AcDbText
  0
ENDBLK
  5
254
100
AcDbEntity
  8
0
 67
     1
100
AcDbBlockEnd
  0
BLOCK
  5
255
100
AcDbEntity
  8
0
100
AcDbBlockBegin
  2
BASE
 70
    0
 10
0
 20
0
 30
0.0
  3
BASE
  1

  0
LINE
  5
256
100
AcDbEntity
  8
0
100
AcDbLine
  6
BYLAYER
 10
0
 20
36
 11
278.4
 21
36
  0
LINE
  5
257
100
AcDbEntity
  8
0
100
AcDbLine
  6
BYLAYER
 10
0
 20
12
 11
278.4
 21
12
  0
LINE
  5
258
100
AcDbEntity
  8
0
100
AcDbLine
  6
BYLAYER
 10
0
 20
6
 11
278.4
 21
6
  0
LINE
  5
259
100
AcDbEntity
  8
0
100
AcDbLine
  6
BYLAYER
 10
0
 20
0
 11
278.4
 21
0
  0
LINE
  5
25A
100
AcDbEntity
  8
0
100
AcDbLine
  6
BYLAYER
 10
278.4
 20
186
 11
0
 21
186
  0
LINE
  5
25B
100
AcDbEntity
  8
0
100
AcDbLine
  6
BYLAYER
 10
96.85
 20
30
 11
278.4
 21
30
  0
LINE
  5
25C
100
AcDbEntity
  8
0
100
AcDbLine
  6
BYLAYER
 10
96.85
 20
24
 11
278.4
 21
24
  0
LINE
  5
25D
100
AcDbEntity
  8
0
100
AcDbLine
  6
BYLAYER
 10
96.85
 20
18
 11
278.4
 21
18
  0
LINE
  5
25E
100
AcDbEntity
  8
0
100
AcDbLine
  6
BYLAYER
 10
0
 20
0
 11
0
 21
186
  0
TEXT
  5
25F
100
AcDbEntity
  8
0
100
AcDbText
  6
BYLAYER
 10
22.1680110084321
 20
15.7553550725962
 40
2.8
  1
CAM YORK INDUSTRIAL CO.,LTD.
  7
Font_0
100
AcDbText
  0
TEXT
  5
260
100
AcDbEntity
  8
0
100
AcDbText
  6
BYLAYER
 10
22.0468952754036
 20
26
 40
7
  1
ｫﾘｷﾔ､uｷ~ｪﾑ･ｳｭｭ､ｽ･q
  7
Font_0
100
AcDbText
  0
TEXT
  5
261
100
AcDbEntity
  8
0
100
AcDbText
  6
BYLAYER
 10
63.8643398403977
 20
7.09411371042404
 40
2.8
  1
(04)3322629
  7
Font_0
100
AcDbText
  0
LINE
  5
262
100
AcDbEntity
  8
0
100
AcDbLine
  6
BYLAYER
 10
10.1054905349494
 20
28.7603510666656
 11
15.2233703294355
 21
28.7603510666656
  0
CIRCLE
  5
263
100
AcDbEntity
  8
0
100
AcDbCircle
  6
BYLAYER
 10
10.1054905349494
 20
24.350263158651
 40
9.36463111331499
  0
CIRCLE
  5
264
100
AcDbEntity
  8
0
100
AcDbCircle
  6
BYLAYER
 10
10.1054905349494
 20
24.350263158651
 40
7.62237416200057
  0
ARC
  5
265
100
AcDbEntity
  8
0
100
AcDbCircle
  6
BYLAYER
 10
10.1054905349494
 20
24.350263158651
 40
4.41008790801462
100
AcDbArc
 50
90
 51
0
  0
LINE
  5
266
100
AcDbEntity
  8
0
100
AcDbLine
  6
BYLAYER
 10
13
 20
12
 11
13
 21
0
  0
TEXT
  5
267
100
AcDbEntity
  8
0
100
AcDbText
  6
BYLAYER
 10
2.6
 20
7.3
 40
3
  1
TEL
  7
Font_0
100
AcDbText
  0
TEXT
  5
268
100
AcDbEntity
  8
0
100
AcDbText
  6
BYLAYER
 10
3.5
 20
1.5
 40
3
  1
ｳﾆｵ�
  7
Font_0
 72
1
 11
6.5
 21
3
100
AcDbText
 73
2
  0
ARC
  5
269
100
AcDbEntity
  8
0
100
AcDbCircle
  6
BYLAYER
 10
10.5745216067836
 20
32.8983997393573
 40
0.704372460813671
100
AcDbArc
 50
83.8529806316668
 51
239.250071636948
  0
ARC
  5
26A
100
AcDbEntity
  8
0
100
AcDbCircle
  6
BYLAYER
 10
6.23761506796892
 20
31.9876821284788
 40
0.704372460813671
100
AcDbArc
 50
113.852980631667
 51
269.250071636948
  0
ARC
  5
26B
100
AcDbEntity
  8
0
100
AcDbCircle
  6
BYLAYER
 10
2.46807156512152
 20
20.4823876916705
 40
0.704372460813671
100
AcDbArc
 50
203.852980631667
 51
359.250071636948
  0
ARC
  5
26C
100
AcDbEntity
  8
0
100
AcDbCircle
  6
BYLAYER
 10
9.63645946311512
 20
15.8021265779447
 40
0.704372460813671
100
AcDbArc
 50
263.852980631667
 51
59.2500716369476
  0
ARC
  5
26D
100
AcDbEntity
  8
0
100
AcDbCircle
  6
BYLAYER
 10
5.4252294212235
 20
17.1818752606574
 40
0.704372460813671
100
AcDbArc
 50
233.852980631667
 51
29.2500716369476
  0
ARC
  5
26E
100
AcDbEntity
  8
0
100
AcDbCircle
  6
BYLAYER
 10
1.55735395424306
 20
24.8192942304852
 40
0.704372460813671
100
AcDbArc
 50
173.852980631667
 51
329.250071636948
  0
ARC
  5
26F
100
AcDbEntity
  8
0
100
AcDbCircle
  6
BYLAYER
 10
2.93710263695578
 20
29.0305242723768
 40
0.704372460813671
100
AcDbArc
 50
143.852980631667
 51
299.250071636948
  0
TEXT
  5
270
100
AcDbEntity
  8
0
100
AcDbText
  6
BYLAYER
 10
7.49210581170385
 20
21.8477388856442
 40
5
  1
Y
  7
Font_0
100
AcDbText
  0
TEXT
  5
271
100
AcDbEntity
  8
0
100
AcDbText
  6
BYLAYER
 10
42.3478047909238
 20
7.2
 40
2.8
  1
~8
  7
Font_0
100
AcDbText
  0
TEXT
  5
272
100
AcDbEntity
  8
0
100
AcDbText
  6
BYLAYER
 10
13.8764304985659
 20
7.2
 40
2.8
  1
(04)3322627
  7
Font_0
100
AcDbText
  0
TEXT
  5
273
100
AcDbEntity
  8
0
100
AcDbText
  6
BYLAYER
 10
51
 20
7.2
 40
3
  1
FAX
  7
Font_0
100
AcDbText
  0
LINE
  5
274
100
AcDbEntity
  8
0
100
AcDbLine
  6
BYLAYER
 10
48
 20
12
 11
48
 21
6
  0
LINE
  5
275
100
AcDbEntity
  8
0
100
AcDbLine
  6
BYLAYER
 10
62
 20
12
 11
62
 21
6
  0
ARC
  5
276
100
AcDbEntity
  8
0
100
AcDbCircle
  6
BYLAYER
 10
14.7857516486752
 20
31.5186510566446
 40
0.704372460813671
100
AcDbArc
 50
53.8529806316668
 51
209.250071636948
  0
ARC
  5
277
100
AcDbEntity
  8
0
100
AcDbCircle
  6
BYLAYER
 10
17.273878432943
 20
19.6700020449251
 40
0.704372460813671
100
AcDbArc
 50
323.852980631667
 51
119.250071636948
  0
ARC
  5
278
100
AcDbEntity
  8
0
100
AcDbCircle
  6
BYLAYER
 10
13.9733660019298
 20
16.7128441888231
 40
0.704372460813671
100
AcDbArc
 50
293.852980631667
 51
89.2500716369476
  0
LINE
  5
279
100
AcDbEntity
  8
0
100
AcDbLine
  6
BYLAYER
 10
14.515578442964
 20
24.350263158651
 11
15.4411524483498
 21
24.350263158651
  0
ARC
  5
27A
100
AcDbEntity
  8
0
100
AcDbCircle
  6
BYLAYER
 10
18.6536271156557
 20
23.8812320868167
 40
0.704372460813671
100
AcDbArc
 50
353.852980631667
 51
149.250071636948
  0
ARC
  5
27B
100
AcDbEntity
  8
0
100
AcDbCircle
  6
BYLAYER
 10
17.7429095047772
 20
28.2181386256314
 40
0.704372460813671
100
AcDbArc
 50
23.8529806316668
 51
179.250071636948
  0
TEXT
  5
27C
100
AcDbEntity
  8
0
100
AcDbText
  6
BYLAYER
 10
100.4
 20
7.4
 40
3
  1
ｫ~ ｦW
  7
Font_0
100
AcDbText
  0
LINE
  5
27D
100
AcDbEntity
  8
0
100
AcDbLine
  6
BYLAYER
 10
144
 20
36
 11
144
 21
0
  0
LINE
  5
27E
100
AcDbEntity
  8
0
100
AcDbLine
  6
BYLAYER
 10
114
 20
36
 11
114
 21
0
  0
LINE
  5
27F
100
AcDbEntity
  8
0
100
AcDbLine
  6
BYLAYER
 10
97.15
 20
36
 11
97.15
 21
0
  0
LINE
  5
280
100
AcDbEntity
  8
0
100
AcDbLine
  6
BYLAYER
 10
96.85
 20
36
 11
96.85
 21
0
  0
TEXT
  5
281
100
AcDbEntity
  8
0
100
AcDbText
  6
BYLAYER
 10
100.4
 20
1.6
 40
3
  1
ｹﾏ ｸｹ
  7
Font_0
100
AcDbText
  0
TEXT
  5
282
100
AcDbEntity
  8
0
100
AcDbText
  6
BYLAYER
 10
100.4
 20
31.6
 40
3
  1
･D ｺﾞ
  7
Font_0
100
AcDbText
  0
TEXT
  5
283
100
AcDbEntity
  8
0
100
AcDbText
  6
BYLAYER
 10
100.4
 20
19.6
 40
3
  1
ﾃｸ ｹﾏ
  7
Font_0
100
AcDbText
  0
TEXT
  5
284
100
AcDbEntity
  8
0
100
AcDbText
  6
BYLAYER
 10
100.4
 20
13.8
 40
3
  1
ｾ� ｺﾘ
  7
Font_0
100
AcDbText
  0
TEXT
  5
285
100
AcDbEntity
  8
0
100
AcDbText
  6
BYLAYER
 10
100.4
 20
25.4
 40
3
  1
ｮﾖ ｹ�
  7
Font_0
100
AcDbText
  0
LINE
  5
286
100
AcDbEntity
  8
0
100
AcDbLine
  6
BYLAYER
 10
195.15
 20
36
 11
195.15
 21
0
  0
LINE
  5
287
100
AcDbEntity
  8
0
100
AcDbLine
  6
BYLAYER
 10
194.85
 20
36
 11
194.85
 21
0
  0
LINE
  5
288
100
AcDbEntity
  8
0
100
AcDbLine
  6
BYLAYER
 10
195.025
 20
36
 11
195.025
 21
0
  0
LINE
  5
289
100
AcDbEntity
  8
0
100
AcDbLine
  6
BYLAYER
 10
163
 20
36
 11
163
 21
0
  0
TEXT
  5
28A
100
AcDbEntity
  8
0
100
AcDbText
  6
BYLAYER
 10
146.967830348543
 20
7.5
 40
3
  1
ｪ揵ｱｳBｲz
  7
Font_0
100
AcDbText
  0
TEXT
  5
28B
100
AcDbEntity
  8
0
100
AcDbText
  6
BYLAYER
 10
146.967830348543
 20
1.5
 40
3
  1
ｻsｹﾏ､魘ﾁ
  7
Font_0
100
AcDbText
  0
TEXT
  5
28C
100
AcDbEntity
  8
0
100
AcDbText
  6
BYLAYER
 10
148.5
 20
31.5
 40
3
  1
ｧ� ｽ�
  7
Font_0
100
AcDbText
  0
TEXT
  5
28D
100
AcDbEntity
  8
0
100
AcDbText
  6
BYLAYER
 10
148.5
 20
19.5
 40
3
  1
ｼﾆ ｶq
  7
Font_0
100
AcDbText
  0
TEXT
  5
28E
100
AcDbEntity
  8
0
100
AcDbText
  6
BYLAYER
 10
148.5
 20
13.5
 40
3
  1
ｳ� ｦ�
  7
Font_0
100
AcDbText
  0
TEXT
  5
28F
100
AcDbEntity
  8
0
100
AcDbText
  6
BYLAYER
 10
148.5
 20
25.5
 40
3
  1
､� ｨﾒ
  7
Font_0
100
AcDbText
  0
TEXT
  5
290
100
AcDbEntity
  8
0
100
AcDbText
  6
BYLAYER
 10
200.830454348633
 20
31.5
 40
3
  1
､魘ﾁ
  7
Font_0
100
AcDbText
  0
LINE
  5
291
100
AcDbEntity
  8
0
100
AcDbLine
  6
BYLAYER
 10
278.4
 20
186
 11
278.4
 21
0
  0
LINE
  5
292
100
AcDbEntity
  8
0
100
AcDbLine
  6
BYLAYER
 10
269.7178125
 20
135.285
 11
269.7178125
 21
151.27125
  0
LINE
  5
293
100
AcDbEntity
  8
0
100
AcDbLine
  6
BYLAYER
 10
261.035625
 20
135.285
 11
261.035625
 21
151.27125
  0
LINE
  5
294
100
AcDbEntity
  8
0
100
AcDbLine
  6
BYLAYER
 10
252.3534375
 20
135.285
 11
252.3534375
 21
151.27125
  0
LINE
  5
295
100
AcDbEntity
  8
0
100
AcDbLine
  6
BYLAYER
 10
243.67125
 20
135.285
 11
243.67125
 21
180.4875
  0
LINE
  5
296
100
AcDbEntity
  8
0
100
AcDbLine
  6
BYLAYER
 10
221.07
 20
135.285
 11
221.07
 21
180.4875
  0
LINE
  5
297
100
AcDbEntity
  8
0
100
AcDbLine
  6
BYLAYER
 10
216.66
 20
135.285
 11
216.66
 21
186
  0
LINE
  5
298
100
AcDbEntity
  8
0
100
AcDbLine
  6
BYLAYER
 10
213
 20
36
 11
213
 21
0
  0
LINE
  5
299
100
AcDbEntity
  8
0
100
AcDbLine
  6
BYLAYER
 10
232
 20
36
 11
232
 21
0
  0
TEXT
  5
29A
100
AcDbEntity
  8
0
100
AcDbText
  6
BYLAYER
 10
235
 20
31.5
 40
3
  1
ｧ�   ｧ�   ､ｺ   ｮe
  7
Font_0
100
AcDbText
  0
TEXT
  5
29B
100
AcDbEntity
  8
0
100
AcDbText
  6
BYLAYER
 10
218.659856969007
 20
31.5
 40
3
  1
ｭtｳd､H
  7
Font_0
100
AcDbText
  0
LINE
  5
29C
100
AcDbEntity
  8
0
100
AcDbLine
  6
BYLAYER
 10
278.4
 20
139.695
 11
221.07
 21
139.695
  0
LINE
  5
29D
100
AcDbEntity
  8
0
100
AcDbLine
  6
BYLAYER
 10
278.4
 20
135.285
 11
216.66
 21
135.285
  0
TEXT
  5
29E
100
AcDbEntity
  8
0
100
AcDbText
  6
BYLAYER
 10
246.15416478566
 20
128.207003496756
 40
2
  1
projection ｲﾄ､Tｨ､ｧ�ｼv
  7
Font_0
100
AcDbText
  0
LINE
  5
29F
100
AcDbEntity
  8
0
100
AcDbLine
  6
BYLAYER
 10
278.4
 20
113.78625
 11
243.67125
 21
113.78625
  0
TEXT
  5
2A0
100
AcDbEntity
  8
0
100
AcDbText
  6
BYLAYER
 10
271.4339125
 20
144.733125
 40
1.5
  1
100･H､W
  7
Font_0
 72
1
 11
274.0589125
 21
145.483125
100
AcDbText
 73
2
  0
TEXT
  5
2A1
100
AcDbEntity
  8
0
100
AcDbText
  6
BYLAYER
 10
272.1839125
 20
136.74
 40
1.5
  1
±10'
  7
Font_0
 72
1
 11
274.0589125
 21
137.49
100
AcDbText
 73
2
  0
MTEXT
  5
2A2
100
AcDbEntity
  8
0
100
AcDbMText
 10
232.37065
 20
145.483125
 40
2
 41
  0.0
  1
､ｽｺﾙ､ﾘ､o (ｪﾗ)\Pｧｨｦｨｨ､､ｧｵuﾃ荀@､�
 71
5
  7
Font_0
  0
TEXT
  5
2A3
100
AcDbEntity
  8
0
100
AcDbText
  6
BYLAYER
 10
217.365
 20
147.778125
 40
3
  1
ｪｽｨ､ｫﾗ
  7
Font_1
 50
270
 11
218.865
 21
147.778125
100
AcDbText
 73
2
  0
TEXT
  5
2A4
100
AcDbEntity
  8
0
100
AcDbText
  6
BYLAYER
 10
227.87065
 20
135.99
 40
3
  1
ｨ､ｫﾗｮt
  7
Font_0
 72
1
 11
232.37065
 21
137.49
100
AcDbText
 73
2
  0
LINE
  5
2A5
100
AcDbEntity
  8
0
100
AcDbLine
  6
BYLAYER
 10
254.802068029839
 20
115.173423624616
 11
254.802068029839
 21
126.198423624616
  0
LINE
  5
2A6
100
AcDbEntity
  8
0
100
AcDbLine
  6
BYLAYER
 10
243.67125
 20
113.78625
 11
243.67125
 21
135.285
  0
CIRCLE
  5
2A7
100
AcDbEntity
  8
0
100
AcDbCircle
  6
BYLAYER
 10
254.802068029839
 20
120.685923624616
 40
4.41
  0
LINE
  5
2A8
100
AcDbEntity
  8
0
100
AcDbLine
  6
BYLAYER
 10
249.289568029839
 20
120.685923624616
 11
260.314568029839
 21
120.685923624616
  0
CIRCLE
  5
2A9
100
AcDbEntity
  8
0
100
AcDbCircle
  6
BYLAYER
 10
254.802068029839
 20
120.685923624616
 40
2.205
  0
LINE
  5
2AA
100
AcDbEntity
  8
0
100
AcDbLine
  6
BYLAYER
 10
263.194180551461
 20
120.685923624616
 11
274.770430551461
 21
120.685923624616
  0
LWPOLYLINE
  5
2AB
100
AcDbEntity
  8
0
100
AcDbPolyline
  6
BYLAYER
370
0
 90
     4
 70
     1
 10
264.296680551461
  20
118.480923624616
 10
273.667930551461
  20
116.275923624616
 10
273.667930551461
  20
125.095923624616
 10
264.296680551461
  20
122.890923624616
  0
TEXT
  5
2AC
100
AcDbEntity
  8
0
100
AcDbText
  6
BYLAYER
 10
245.828721587618
 20
131.605971951227
 40
2
  1
Third angle
  7
Font_0
100
AcDbText
  0
MTEXT
  5
2AD
100
AcDbEntity
  8
0
100
AcDbMText
 10
256.6945375
 20
145.483125
 40
1.5
 41
  0.0
  1
10･H､W\P50･H､U
 71
5
  7
Font_0
  0
TEXT
  5
2AE
100
AcDbEntity
  8
0
100
AcDbText
  6
BYLAYER
 10
246.13735
 20
136.74
 40
1.5
  1
±1°
  7
Font_0
 72
1
 11
248.01235
 21
137.49
100
AcDbText
 73
2
  0
TEXT
  5
2AF
100
AcDbEntity
  8
0
100
AcDbText
  6
BYLAYER
 10
254.8195375
 20
136.74
 40
1.5
  1
±30'
  7
Font_0
 72
1
 11
256.6945375
 21
137.49
100
AcDbText
 73
2
  0
TEXT
  5
2B0
100
AcDbEntity
  8
0
100
AcDbText
  6
BYLAYER
 10
245.76235
 20
144.733125
 40
1.5
  1
10･H､U
  7
Font_0
 72
1
 11
248.01235
 21
145.483125
100
AcDbText
 73
2
  0
TEXT
  5
2B1
100
AcDbEntity
  8
0
100
AcDbText
  6
BYLAYER
 10
263.501725
 20
136.74
 40
1.5
  1
±20'
  7
Font_0
 72
1
 11
265.376725
 21
137.49
100
AcDbText
 73
2
  0
MTEXT
  5
2B2
100
AcDbEntity
  8
0
100
AcDbMText
 10
265.376725
 20
145.483125
 40
1.5
 41
  0.0
  1
50･H､W\P100･H､U
 71
5
  7
Font_0
  0
LINE
  5
2B3
100
AcDbEntity
  8
0
100
AcDbLine
  6
BYLAYER
 10
221.07
 20
155.68125
 11
278.4
 21
155.68125
  0
LINE
  5
2B4
100
AcDbEntity
  8
0
100
AcDbLine
  6
BYLAYER
 10
221.07
 20
160.09125
 11
278.4
 21
160.09125
  0
LINE
  5
2B5
100
AcDbEntity
  8
0
100
AcDbLine
  6
BYLAYER
 10
221.07
 20
164.50125
 11
278.4
 21
164.50125
  0
LINE
  5
2B6
100
AcDbEntity
  8
0
100
AcDbLine
  6
BYLAYER
 10
221.07
 20
168.91125
 11
278.4
 21
168.91125
  0
LINE
  5
2B7
100
AcDbEntity
  8
0
100
AcDbLine
  6
BYLAYER
 10
221.07
 20
173.32125
 11
278.4
 21
173.32125
  0
LINE
  5
2B8
100
AcDbEntity
  8
0
100
AcDbLine
  6
BYLAYER
 10
216.66
 20
151.27125
 11
278.4
 21
151.27125
  0
LINE
  5
2B9
100
AcDbEntity
  8
0
100
AcDbLine
  6
BYLAYER
 10
216.66
 20
180.4875
 11
278.4
 21
180.4875
  0
TEXT
  5
2BA
100
AcDbEntity
  8
0
100
AcDbText
  6
BYLAYER
 10
269.1119
 20
175.154375
 40
3.5
  1
ｲﾊｯﾅ
  7
Font_0
 72
1
 11
272.6119
 21
176.904375
100
AcDbText
 73
2
  0
LINE
  5
2BB
100
AcDbEntity
  8
0
100
AcDbLine
  6
BYLAYER
 10
243.67125
 20
173.32125
 11
232.06971689676
 21
180.4875
  0
TEXT
  5
2BC
100
AcDbEntity
  8
0
100
AcDbText
  6
BYLAYER
 10
230.03
 20
181.49375
 40
3.5
  1
ｦｨ ｫ~ ､ｧ ｴｶ ｳq ､ｽ ｮt
  7
Font_0
 72
1
 11
247.53
 21
183.24375
100
AcDbText
 73
2
  0
TEXT
  5
2BD
100
AcDbEntity
  8
0
100
AcDbText
  6
BYLAYER
 10
228.24565
 20
170.36625
 40
1.5
  1
1･H､W~4･H､U
  7
Font_0
 72
1
 11
232.37065
 21
171.11625
100
AcDbText
 73
2
  0
TEXT
  5
2BE
100
AcDbEntity
  8
0
100
AcDbText
  6
BYLAYER
 10
227.49565
 20
161.54625
 40
1.5
  1
16･H､W~63･H､U
  7
Font_0
 72
1
 11
232.37065
 21
162.29625
100
AcDbText
 73
2
  0
TEXT
  5
2BF
100
AcDbEntity
  8
0
100
AcDbText
  6
BYLAYER
 10
227.12065
 20
157.13625
 40
1.5
  1
63･H､W~250･H､U
  7
Font_0
 72
1
 11
232.37065
 21
157.88625
100
AcDbText
 73
2
  0
TEXT
  5
2C0
100
AcDbEntity
  8
0
100
AcDbText
  6
BYLAYER
 10
226.37065
 20
152.72625
 40
1.5
  1
250･H､W~1000･H､U
  7
Font_0
 72
1
 11
232.37065
 21
153.47625
100
AcDbText
 73
2
  0
MTEXT
  5
2C1
100
AcDbEntity
  8
0
100
AcDbMText
 10
218.865
 20
168.879375
 40
3
 41
  0.0
  1
ｪﾗ
 71
4
  7
Font_1
 11
-1.83690953073357E-16
 21
-1
  0
TEXT
  5
2C2
100
AcDbEntity
  8
0
100
AcDbText
  6
BYLAYER
 10
227.87065
 20
165.95625
 40
1.5
  1
4･H､W~16･H､U
  7
Font_0
 72
1
 11
232.37065
 21
166.70625
100
AcDbText
 73
2
  0
TEXT
  5
2C3
100
AcDbEntity
  8
0
100
AcDbText
  6
BYLAYER
 10
221.354797302298
 20
174.015263609177
 40
1.7
  1
､ｽｺﾙ､ﾘ､oｹｺ､ﾀm/m
  7
Font_0
100
AcDbText
  0
TEXT
  5
2C4
100
AcDbEntity
  8
0
100
AcDbText
  6
BYLAYER
 10
237.865638127741
 20
177.454836298923
 40
1.7
  1
ｵ･ｯﾅ
  7
Font_0
100
AcDbText
  0
LINE
  5
2C5
100
AcDbEntity
  8
0
100
AcDbLine
  6
BYLAYER
 10
266.82375
 20
151.27125
 11
266.82375
 21
180.4875
  0
LINE
  5
2C6
100
AcDbEntity
  8
0
100
AcDbLine
  6
BYLAYER
 10
255.2475
 20
151.27125
 11
255.2475
 21
180.4875
  0
TEXT
  5
2C7
100
AcDbEntity
  8
0
100
AcDbText
  6
BYLAYER
 10
247.2094
 20
170.36625
 40
1.5
  1
±0.05
  7
Font_0
 72
1
 11
249.4594
 21
171.11625
100
AcDbText
 73
2
  0
TEXT
  5
2C8
100
AcDbEntity
  8
0
100
AcDbText
  6
BYLAYER
 10
258.78565
 20
170.36625
 40
1.5
  1
±0.10
  7
Font_0
 72
1
 11
261.03565
 21
171.11625
100
AcDbText
 73
2
  0
TEXT
  5
2C9
100
AcDbEntity
  8
0
100
AcDbText
  6
BYLAYER
 10
270.3619
 20
170.36625
 40
1.5
  1
±0.30
  7
Font_0
 72
1
 11
272.6119
 21
171.11625
100
AcDbText
 73
2
  0
TEXT
  5
2CA
100
AcDbEntity
  8
0
100
AcDbText
  6
BYLAYER
 10
258.78565
 20
165.95625
 40
1.5
  1
±0.20
  7
Font_0
 72
1
 11
261.03565
 21
166.70625
100
AcDbText
 73
2
  0
TEXT
  5
2CB
100
AcDbEntity
  8
0
100
AcDbText
  6
BYLAYER
 10
258.78565
 20
161.54625
 40
1.5
  1
±0.30
  7
Font_0
 72
1
 11
261.03565
 21
162.29625
100
AcDbText
 73
2
  0
TEXT
  5
2CC
100
AcDbEntity
  8
0
100
AcDbText
  6
BYLAYER
 10
258.78565
 20
157.13625
 40
1.5
  1
±0.50
  7
Font_0
 72
1
 11
261.03565
 21
157.88625
100
AcDbText
 73
2
  0
TEXT
  5
2CD
100
AcDbEntity
  8
0
100
AcDbText
  6
BYLAYER
 10
258.78565
 20
152.72625
 40
1.5
  1
±0.80
  7
Font_0
 72
1
 11
261.03565
 21
153.47625
100
AcDbText
 73
2
  0
TEXT
  5
2CE
100
AcDbEntity
  8
0
100
AcDbText
  6
BYLAYER
 10
247.2094
 20
157.13625
 40
1.5
  1
±0.20
  7
Font_0
 72
1
 11
249.4594
 21
157.88625
100
AcDbText
 73
2
  0
TEXT
  5
2CF
100
AcDbEntity
  8
0
100
AcDbText
  6
BYLAYER
 10
247.2094
 20
152.72625
 40
1.5
  1
±0.30
  7
Font_0
 72
1
 11
249.4594
 21
153.47625
100
AcDbText
 73
2
  0
TEXT
  5
2D0
100
AcDbEntity
  8
0
100
AcDbText
  6
BYLAYER
 10
247.2094
 20
165.95625
 40
1.5
  1
±0.07
  7
Font_0
 72
1
 11
249.4594
 21
166.70625
100
AcDbText
 73
2
  0
TEXT
  5
2D1
100
AcDbEntity
  8
0
100
AcDbText
  6
BYLAYER
 10
247.2094
 20
161.54625
 40
1.5
  1
±0.10
  7
Font_0
 72
1
 11
249.4594
 21
162.29625
100
AcDbText
 73
2
  0
TEXT
  5
2D2
100
AcDbEntity
  8
0
100
AcDbText
  6
BYLAYER
 10
270.3619
 20
152.72625
 40
1.5
  1
±2.00
  7
Font_0
 72
1
 11
272.6119
 21
153.47625
100
AcDbText
 73
2
  0
TEXT
  5
2D3
100
AcDbEntity
  8
0
100
AcDbText
  6
BYLAYER
 10
270.3619
 20
157.13625
 40
1.5
  1
±1.20
  7
Font_0
 72
1
 11
272.6119
 21
157.88625
100
AcDbText
 73
2
  0
TEXT
  5
2D4
100
AcDbEntity
  8
0
100
AcDbText
  6
BYLAYER
 10
270.3619
 20
161.54625
 40
1.5
  1
±0.70
  7
Font_0
 72
1
 11
272.6119
 21
162.29625
100
AcDbText
 73
2
  0
TEXT
  5
2D5
100
AcDbEntity
  8
0
100
AcDbText
  6
BYLAYER
 10
270.3619
 20
165.95625
 40
1.5
  1
±0.50
  7
Font_0
 72
1
 11
272.6119
 21
166.70625
100
AcDbText
 73
2
  0
TEXT
  5
2D6
100
AcDbEntity
  8
0
100
AcDbText
  6
BYLAYER
 10
257.5356
 20
175.154375
 40
3.5
  1
､､ｯﾅ
  7
Font_0
 72
1
 11
261.0356
 21
176.904375
100
AcDbText
 73
2
  0
TEXT
  5
2D7
100
AcDbEntity
  8
0
100
AcDbText
  6
BYLAYER
 10
245.9594
 20
175.154375
 40
3.5
  1
ｲﾓｯﾅ
  7
Font_0
 72
1
 11
249.4594
 21
176.904375
100
AcDbText
 73
2
  0
ENDBLK
  5
2D8
100
AcDbEntity
  8
0
 67
     1
100
AcDbBlockEnd
  0
BLOCK
  5
2D9
100
AcDbEntity
  8
0
100
AcDbBlockBegin
  2
LIST
 70
    0
 10
0
 20
0
 30
0.0
  3
LIST
  1

  0
LINE
  5
2DA
100
AcDbEntity
  8
TEXT
100
AcDbLine
  6
BYLAYER
 10
-2.84E-14
 20
48
 11
83.2499999999999
 21
48
  0
LINE
  5
2DB
100
AcDbEntity
  8
TEXT
100
AcDbLine
  6
BYLAYER
 10
-2.84E-14
 20
42
 11
83.2499999999999
 21
42
  0
LINE
  5
2DC
100
AcDbEntity
  8
TEXT
100
AcDbLine
  6
BYLAYER
 10
-2.84E-14
 20
36
 11
83.2499999999999
 21
36
  0
LINE
  5
2DD
100
AcDbEntity
  8
TEXT
100
AcDbLine
  6
BYLAYER
 10
-2.84E-14
 20
30
 11
83.2499999999999
 21
30
  0
LINE
  5
2DE
100
AcDbEntity
  8
TEXT
100
AcDbLine
  6
BYLAYER
 10
-2.84E-14
 20
24
 11
83.2499999999999
 21
24
  0
LINE
  5
2DF
100
AcDbEntity
  8
TEXT
100
AcDbLine
  6
BYLAYER
 10
-2.84E-14
 20
18
 11
83.2499999999999
 21
18
  0
LINE
  5
2E0
100
AcDbEntity
  8
TEXT
100
AcDbLine
  6
BYLAYER
 10
-2.84E-14
 20
12
 11
83.2499999999999
 21
12
  0
LINE
  5
2E1
100
AcDbEntity
  8
TEXT
100
AcDbLine
  6
BYLAYER
 10
-2.84E-14
 20
5.99999999999997
 11
83.2499999999999
 21
6
  0
TEXT
  5
2E2
100
AcDbEntity
  8
TEXT
100
AcDbText
  6
BYLAYER
 10
8.82499999999999
 20
18.7071067811865
 40
3.5
  1
C
  7
Font_0
 72
1
 11
9.69999999999999
 21
18.7071067811865
100
AcDbText
  0
LINE
  5
2E3
100
AcDbEntity
  8
TEXT
100
AcDbLine
  6
BYLAYER
 10
0
 20
48
 11
0
 21
0
  0
TEXT
  5
2E4
100
AcDbEntity
  8
TEXT
100
AcDbText
  6
BYLAYER
 10
8.82499999999999
 20
6.70710678118655
 40
3.5
  1
A
  7
Font_0
 72
1
 11
9.69999999999999
 21
6.70710678118655
100
AcDbText
  0
TEXT
  5
2E5
100
AcDbEntity
  8
TEXT
100
AcDbText
  6
BYLAYER
 10
6.49999999999997
 20
0.707106781186553
 40
3.5
  1
ｶｵｦｸ
  7
Font_0
 72
1
 11
9.99999999999997
 21
0.707106781186553
100
AcDbText
  0
TEXT
  5
2E6
100
AcDbEntity
  8
TEXT
100
AcDbText
  6
BYLAYER
 10
8.82499999999999
 20
12.7071067811866
 40
3.5
  1
B
  7
Font_0
 72
1
 11
9.69999999999999
 21
12.7071067811866
100
AcDbText
  0
TEXT
  5
2E7
100
AcDbEntity
  8
TEXT
100
AcDbText
  6
BYLAYER
 10
8.82499999999999
 20
42.7071067811866
 40
3.5
  1
G
  7
Font_0
 72
1
 11
9.69999999999999
 21
42.7071067811866
100
AcDbText
  0
TEXT
  5
2E8
100
AcDbEntity
  8
TEXT
100
AcDbText
  6
BYLAYER
 10
8.82499999999999
 20
30.7071067811865
 40
3.5
  1
E
  7
Font_0
 72
1
 11
9.69999999999999
 21
30.7071067811865
100
AcDbText
  0
TEXT
  5
2E9
100
AcDbEntity
  8
TEXT
100
AcDbText
  6
BYLAYER
 10
8.82499999999999
 20
24.7071067811866
 40
3.5
  1
D
  7
Font_0
 72
1
 11
9.69999999999999
 21
24.7071067811866
100
AcDbText
  0
TEXT
  5
2EA
100
AcDbEntity
  8
TEXT
100
AcDbText
  6
BYLAYER
 10
8.82499999999999
 20
36.7071067811866
 40
3.5
  1
F
  7
Font_0
 72
1
 11
9.69999999999999
 21
36.7071067811866
100
AcDbText
  0
TEXT
  5
2EB
100
AcDbEntity
  8
TEXT
100
AcDbText
  6
BYLAYER
 10
77.3935238436447
 20
18.7071067811866
 40
3.5
  1
1
  7
Font_0
 72
1
 11
78.2685238436447
 21
18.7071067811866
100
AcDbText
  0
TEXT
  5
2EC
100
AcDbEntity
  8
TEXT
100
AcDbText
  6
BYLAYER
 10
20.7
 20
18.7071067811866
 40
3.5
  1
A
  7
Font_0
100
AcDbText
  0
LINE
  5
2ED
100
AcDbEntity
  8
TEXT
100
AcDbLine
  6
BYLAYER
 10
73.8870476872896
 20
48
 11
73.8870476872896
 21
-1.42E-14
  0
LINE
  5
2EE
100
AcDbEntity
  8
TEXT
100
AcDbLine
  6
BYLAYER
 10
20
 20
48
 11
20
 21
0
  0
TEXT
  5
2EF
100
AcDbEntity
  8
TEXT
100
AcDbText
  6
BYLAYER
 10
75.0685238436447
 20
0.707106781186553
 40
3.5
  1
ｼﾆｶq
  7
Font_0
 72
1
 11
78.5685238436447
 21
0.707106781186553
100
AcDbText
  0
TEXT
  5
2F0
100
AcDbEntity
  8
TEXT
100
AcDbText
  6
BYLAYER
 10
37.4837220734968
 20
0.707106781186553
 40
3.5
  1
ｹﾏ       ｸｹ
  7
Font_0
 72
1
 11
47.1087220734968
 21
0.707106781186553
100
AcDbText
  0
TEXT
  5
2F1
100
AcDbEntity
  8
TEXT
100
AcDbText
  6
BYLAYER
 10
20.7
 20
6.70710678118656
 40
3.5
  1
A
  7
Font_0
100
AcDbText
  0
TEXT
  5
2F2
100
AcDbEntity
  8
TEXT
100
AcDbText
  6
BYLAYER
 10
20.7
 20
12.7071067811866
 40
3.5
  1
A
  7
Font_0
100
AcDbText
  0
TEXT
  5
2F3
100
AcDbEntity
  8
TEXT
100
AcDbText
  6
BYLAYER
 10
77.3935238436447
 20
6.70710678118656
 40
3.5
  1
1
  7
Font_0
 72
1
 11
78.2685238436447
 21
6.70710678118656
100
AcDbText
  0
TEXT
  5
2F4
100
AcDbEntity
  8
TEXT
100
AcDbText
  6
BYLAYER
 10
77.3935238436447
 20
12.7071067811866
 40
3.5
  1
1
  7
Font_0
 72
1
 11
78.2685238436447
 21
12.7071067811866
100
AcDbText
  0
TEXT
  5
2F5
100
AcDbEntity
  8
TEXT
100
AcDbText
  6
BYLAYER
 10
20.7
 20
42.7071067811866
 40
3.5
  1
A
  7
Font_0
100
AcDbText
  0
TEXT
  5
2F6
100
AcDbEntity
  8
TEXT
100
AcDbText
  6
BYLAYER
 10
20.7
 20
30.7071067811865
 40
3.5
  1
A
  7
Font_0
100
AcDbText
  0
TEXT
  5
2F7
100
AcDbEntity
  8
TEXT
100
AcDbText
  6
BYLAYER
 10
20.7
 20
24.7071067811866
 40
3.5
  1
A
  7
Font_0
100
AcDbText
  0
TEXT
  5
2F8
100
AcDbEntity
  8
TEXT
100
AcDbText
  6
BYLAYER
 10
20.7
 20
36.7071067811866
 40
3.5
  1
A
  7
Font_0
100
AcDbText
  0
TEXT
  5
2F9
100
AcDbEntity
  8
TEXT
100
AcDbText
  6
BYLAYER
 10
77.3935238436447
 20
42.7071067811866
 40
3.5
  1
1
  7
Font_0
 72
1
 11
78.2685238436447
 21
42.7071067811866
100
AcDbText
  0
TEXT
  5
2FA
100
AcDbEntity
  8
TEXT
100
AcDbText
  6
BYLAYER
 10
77.3935238436447
 20
30.7071067811865
 40
3.5
  1
1
  7
Font_0
 72
1
 11
78.2685238436447
 21
30.7071067811865
100
AcDbText
  0
TEXT
  5
2FB
100
AcDbEntity
  8
TEXT
100
AcDbText
  6
BYLAYER
 10
77.3935238436447
 20
24.7071067811866
 40
3.5
  1
1
  7
Font_0
 72
1
 11
78.2685238436447
 21
24.7071067811866
100
AcDbText
  0
TEXT
  5
2FC
100
AcDbEntity
  8
TEXT
100
AcDbText
  6
BYLAYER
 10
77.3935238436447
 20
36.7071067811866
 40
3.5
  1
1
  7
Font_0
 72
1
 11
78.2685238436447
 21
36.7071067811866
100
AcDbText
  0
ENDBLK
  5
2FD
100
AcDbEntity
  8
0
 67
     1
100
AcDbBlockEnd
  0
BLOCK
  5
2FE
100
AcDbEntity
  8
0
100
AcDbBlockBegin
  2
A4ｹﾏｮﾘ
 70
    0
 10
0
 20
0
 30
0.0
  3
A4ｹﾏｮﾘ
  1

  0
POINT
  5
2FF
100
AcDbEntity
  8
7475A
100
AcDbPoint
 10
289
 20
0
  0
LINE
  5
300
100
AcDbEntity
  8
0
100
AcDbLine
  6
BYLAYER
 10
0
 20
12
 11
278.4
 21
12
  0
LINE
  5
301
100
AcDbEntity
  8
0
100
AcDbLine
  6
BYLAYER
 10
0
 20
6
 11
278.4
 21
6
  0
LINE
  5
302
100
AcDbEntity
  8
0
100
AcDbLine
  6
BYLAYER
 10
96.85
 20
30
 11
278.4
 21
30
  0
LINE
  5
303
100
AcDbEntity
  8
0
100
AcDbLine
  6
BYLAYER
 10
96.85
 20
24
 11
278.4
 21
24
  0
LINE
  5
304
100
AcDbEntity
  8
0
100
AcDbLine
  6
BYLAYER
 10
96.85
 20
18
 11
278.4
 21
18
  0
TEXT
  5
305
100
AcDbEntity
  8
0
100
AcDbText
  6
BYLAYER
 10
22.1680110084321
 20
15.7553550725962
 40
2.8
  1
CAM YORK INDUSTRIAL CO.,LTD.
  7
Font_0
100
AcDbText
  0
TEXT
  5
306
100
AcDbEntity
  8
0
100
AcDbText
  6
BYLAYER
 10
22.0468952754036
 20
26
 40
7
  1
ｫﾘｷﾔ､uｷ~ｪﾑ･ｳｭｭ､ｽ･q
  7
Font_0
100
AcDbText
  0
TEXT
  5
307
100
AcDbEntity
  8
0
100
AcDbText
  6
BYLAYER
 10
63.8643398403977
 20
7.09411371042404
 40
2.8
  1
(04)3322629
  7
Font_0
100
AcDbText
  0
LINE
  5
308
100
AcDbEntity
  8
0
100
AcDbLine
  6
BYLAYER
 10
10.1054905349494
 20
28.7603510666656
 11
15.2233703294355
 21
28.7603510666656
  0
CIRCLE
  5
309
100
AcDbEntity
  8
0
100
AcDbCircle
  6
BYLAYER
 10
10.1054905349494
 20
24.350263158651
 40
9.36463111331499
  0
CIRCLE
  5
30A
100
AcDbEntity
  8
0
100
AcDbCircle
  6
BYLAYER
 10
10.1054905349494
 20
24.350263158651
 40
7.62237416200057
  0
ARC
  5
30B
100
AcDbEntity
  8
0
100
AcDbCircle
  6
BYLAYER
 10
10.1054905349494
 20
24.350263158651
 40
4.41008790801462
100
AcDbArc
 50
90
 51
0
  0
LINE
  5
30C
100
AcDbEntity
  8
0
100
AcDbLine
  6
BYLAYER
 10
13
 20
12
 11
13
 21
0
  0
TEXT
  5
30D
100
AcDbEntity
  8
0
100
AcDbText
  6
BYLAYER
 10
2.6
 20
7.3
 40
3
  1
TEL
  7
Font_0
100
AcDbText
  0
TEXT
  5
30E
100
AcDbEntity
  8
0
100
AcDbText
  6
BYLAYER
 10
3.5
 20
1.5
 40
3
  1
ｳﾆｵ�
  7
Font_0
 72
1
 11
6.5
 21
3
100
AcDbText
 73
2
  0
ARC
  5
30F
100
AcDbEntity
  8
0
100
AcDbCircle
  6
BYLAYER
 10
10.5745216067836
 20
32.8983997393573
 40
0.704372460813671
100
AcDbArc
 50
83.8529806316668
 51
239.250071636948
  0
ARC
  5
310
100
AcDbEntity
  8
0
100
AcDbCircle
  6
BYLAYER
 10
6.23761506796892
 20
31.9876821284788
 40
0.704372460813671
100
AcDbArc
 50
113.852980631667
 51
269.250071636948
  0
ARC
  5
311
100
AcDbEntity
  8
0
100
AcDbCircle
  6
BYLAYER
 10
2.46807156512152
 20
20.4823876916705
 40
0.704372460813671
100
AcDbArc
 50
203.852980631667
 51
359.250071636948
  0
ARC
  5
312
100
AcDbEntity
  8
0
100
AcDbCircle
  6
BYLAYER
 10
9.63645946311512
 20
15.8021265779447
 40
0.704372460813671
100
AcDbArc
 50
263.852980631667
 51
59.2500716369476
  0
ARC
  5
313
100
AcDbEntity
  8
0
100
AcDbCircle
  6
BYLAYER
 10
5.4252294212235
 20
17.1818752606574
 40
0.704372460813671
100
AcDbArc
 50
233.852980631667
 51
29.2500716369476
  0
ARC
  5
314
100
AcDbEntity
  8
0
100
AcDbCircle
  6
BYLAYER
 10
1.55735395424306
 20
24.8192942304852
 40
0.704372460813671
100
AcDbArc
 50
173.852980631667
 51
329.250071636948
  0
ARC
  5
315
100
AcDbEntity
  8
0
100
AcDbCircle
  6
BYLAYER
 10
2.93710263695578
 20
29.0305242723768
 40
0.704372460813671
100
AcDbArc
 50
143.852980631667
 51
299.250071636948
  0
TEXT
  5
316
100
AcDbEntity
  8
0
100
AcDbText
  6
BYLAYER
 10
7.49210581170385
 20
21.8477388856442
 40
5
  1
Y
  7
Font_0
100
AcDbText
  0
TEXT
  5
317
100
AcDbEntity
  8
0
100
AcDbText
  6
BYLAYER
 10
42.3478047909238
 20
7.2
 40
2.8
  1
~8
  7
Font_0
100
AcDbText
  0
TEXT
  5
318
100
AcDbEntity
  8
0
100
AcDbText
  6
BYLAYER
 10
13.8764304985659
 20
7.2
 40
2.8
  1
(04)3322627
  7
Font_0
100
AcDbText
  0
TEXT
  5
319
100
AcDbEntity
  8
0
100
AcDbText
  6
BYLAYER
 10
51
 20
7.2
 40
3
  1
FAX
  7
Font_0
100
AcDbText
  0
LINE
  5
31A
100
AcDbEntity
  8
0
100
AcDbLine
  6
BYLAYER
 10
48
 20
12
 11
48
 21
6
  0
LINE
  5
31B
100
AcDbEntity
  8
0
100
AcDbLine
  6
BYLAYER
 10
62
 20
12
 11
62
 21
6
  0
ARC
  5
31C
100
AcDbEntity
  8
0
100
AcDbCircle
  6
BYLAYER
 10
14.7857516486752
 20
31.5186510566446
 40
0.704372460813671
100
AcDbArc
 50
53.8529806316668
 51
209.250071636948
  0
ARC
  5
31D
100
AcDbEntity
  8
0
100
AcDbCircle
  6
BYLAYER
 10
17.273878432943
 20
19.6700020449251
 40
0.704372460813671
100
AcDbArc
 50
323.852980631667
 51
119.250071636948
  0
ARC
  5
31E
100
AcDbEntity
  8
0
100
AcDbCircle
  6
BYLAYER
 10
13.9733660019298
 20
16.7128441888231
 40
0.704372460813671
100
AcDbArc
 50
293.852980631667
 51
89.2500716369476
  0
LINE
  5
31F
100
AcDbEntity
  8
0
100
AcDbLine
  6
BYLAYER
 10
14.515578442964
 20
24.350263158651
 11
15.4411524483498
 21
24.350263158651
  0
ARC
  5
320
100
AcDbEntity
  8
0
100
AcDbCircle
  6
BYLAYER
 10
18.6536271156557
 20
23.8812320868167
 40
0.704372460813671
100
AcDbArc
 50
353.852980631667
 51
149.250071636948
  0
ARC
  5
321
100
AcDbEntity
  8
0
100
AcDbCircle
  6
BYLAYER
 10
17.7429095047772
 20
28.2181386256314
 40
0.704372460813671
100
AcDbArc
 50
23.8529806316668
 51
179.250071636948
  0
TEXT
  5
322
100
AcDbEntity
  8
0
100
AcDbText
  6
BYLAYER
 10
100.4
 20
7.4
 40
3
  1
ｫ~ ｦW
  7
Font_0
100
AcDbText
  0
LINE
  5
323
100
AcDbEntity
  8
0
100
AcDbLine
  6
BYLAYER
 10
144
 20
36
 11
144
 21
0
  0
LINE
  5
324
100
AcDbEntity
  8
0
100
AcDbLine
  6
BYLAYER
 10
114
 20
36
 11
114
 21
0
  0
TEXT
  5
325
100
AcDbEntity
  8
0
100
AcDbText
  6
BYLAYER
 10
100.4
 20
1.6
 40
3
  1
ｹﾏ ｸｹ
  7
Font_0
100
AcDbText
  0
TEXT
  5
326
100
AcDbEntity
  8
0
100
AcDbText
  6
BYLAYER
 10
100.4
 20
31.6
 40
3
  1
･D ｺﾞ
  7
Font_0
100
AcDbText
  0
TEXT
  5
327
100
AcDbEntity
  8
0
100
AcDbText
  6
BYLAYER
 10
100.4
 20
19.6
 40
3
  1
ﾃｸ ｹﾏ
  7
Font_0
100
AcDbText
  0
TEXT
  5
328
100
AcDbEntity
  8
0
100
AcDbText
  6
BYLAYER
 10
100.4
 20
13.8
 40
3
  1
ｾ� ｺﾘ
  7
Font_0
100
AcDbText
  0
TEXT
  5
329
100
AcDbEntity
  8
0
100
AcDbText
  6
BYLAYER
 10
100.4
 20
25.4
 40
3
  1
ｮﾖ ｹ�
  7
Font_0
100
AcDbText
  0
LINE
  5
32A
100
AcDbEntity
  8
0
100
AcDbLine
  6
BYLAYER
 10
163
 20
36
 11
163
 21
0
  0
TEXT
  5
32B
100
AcDbEntity
  8
0
100
AcDbText
  6
BYLAYER
 10
146.967830348543
 20
7.5
 40
3
  1
ｪ揵ｱｳBｲz
  7
Font_0
100
AcDbText
  0
TEXT
  5
32C
100
AcDbEntity
  8
0
100
AcDbText
  6
BYLAYER
 10
146.967830348543
 20
1.5
 40
3
  1
ｻsｹﾏ､魘ﾁ
  7
Font_0
100
AcDbText
  0
TEXT
  5
32D
100
AcDbEntity
  8
0
100
AcDbText
  6
BYLAYER
 10
148.5
 20
31.5
 40
3
  1
ｧ� ｽ�
  7
Font_0
100
AcDbText
  0
TEXT
  5
32E
100
AcDbEntity
  8
0
100
AcDbText
  6
BYLAYER
 10
148.5
 20
19.5
 40
3
  1
ｼﾆ ｶq
  7
Font_0
100
AcDbText
  0
TEXT
  5
32F
100
AcDbEntity
  8
0
100
AcDbText
  6
BYLAYER
 10
148.5
 20
13.5
 40
3
  1
ｳ� ｦ�
  7
Font_0
100
AcDbText
  0
TEXT
  5
330
100
AcDbEntity
  8
0
100
AcDbText
  6
BYLAYER
 10
148.5
 20
25.5
 40
3
  1
､� ｨﾒ
  7
Font_0
100
AcDbText
  0
TEXT
  5
331
100
AcDbEntity
  8
0
100
AcDbText
  6
BYLAYER
 10
200.830454348633
 20
31.5
 40
3
  1
､魘ﾁ
  7
Font_0
100
AcDbText
  0
LINE
  5
332
100
AcDbEntity
  8
0
100
AcDbLine
  6
BYLAYER
 10
269.7178125
 20
135.285
 11
269.7178125
 21
151.27125
  0
LINE
  5
333
100
AcDbEntity
  8
0
100
AcDbLine
  6
BYLAYER
 10
261.035625
 20
135.285
 11
261.035625
 21
151.27125
  0
LINE
  5
334
100
AcDbEntity
  8
0
100
AcDbLine
  6
BYLAYER
 10
252.3534375
 20
135.285
 11
252.3534375
 21
151.27125
  0
LINE
  5
335
100
AcDbEntity
  8
0
100
AcDbLine
  6
BYLAYER
 10
243.67125
 20
135.285
 11
243.67125
 21
180.4875
  0
LINE
  5
336
100
AcDbEntity
  8
0
100
AcDbLine
  6
BYLAYER
 10
221.07
 20
135.285
 11
221.07
 21
180.4875
  0
LINE
  5
337
100
AcDbEntity
  8
0
100
AcDbLine
  6
BYLAYER
 10
216.66
 20
135.285
 11
216.66
 21
186
  0
LINE
  5
338
100
AcDbEntity
  8
0
100
AcDbLine
  6
BYLAYER
 10
213
 20
36
 11
213
 21
0
  0
LINE
  5
339
100
AcDbEntity
  8
0
100
AcDbLine
  6
BYLAYER
 10
232
 20
36
 11
232
 21
0
  0
TEXT
  5
33A
100
AcDbEntity
  8
0
100
AcDbText
  6
BYLAYER
 10
235
 20
31.5
 40
3
  1
ｧ�   ｧ�   ､ｺ   ｮe
  7
Font_0
100
AcDbText
  0
TEXT
  5
33B
100
AcDbEntity
  8
0
100
AcDbText
  6
BYLAYER
 10
218.659856969007
 20
31.5
 40
3
  1
ｭtｳd､H
  7
Font_0
100
AcDbText
  0
LINE
  5
33C
100
AcDbEntity
  8
0
100
AcDbLine
  6
BYLAYER
 10
278.4
 20
139.695
 11
221.07
 21
139.695
  0
LINE
  5
33D
100
AcDbEntity
  8
0
100
AcDbLine
  6
BYLAYER
 10
278.4
 20
135.285
 11
216.66
 21
135.285
  0
TEXT
  5
33E
100
AcDbEntity
  8
0
100
AcDbText
  6
BYLAYER
 10
246.15416478566
 20
128.207003496756
 40
2
  1
projection ｲﾄ､Tｨ､ｧ�ｼv
  7
Font_0
100
AcDbText
  0
LINE
  5
33F
100
AcDbEntity
  8
0
100
AcDbLine
  6
BYLAYER
 10
278.4
 20
113.78625
 11
243.67125
 21
113.78625
  0
TEXT
  5
340
100
AcDbEntity
  8
0
100
AcDbText
  6
BYLAYER
 10
271.4339125
 20
144.733125
 40
1.5
  1
100･H､W
  7
Font_0
 72
1
 11
274.0589125
 21
145.483125
100
AcDbText
 73
2
  0
TEXT
  5
341
100
AcDbEntity
  8
0
100
AcDbText
  6
BYLAYER
 10
272.1839125
 20
136.74
 40
1.5
  1
±10'
  7
Font_0
 72
1
 11
274.0589125
 21
137.49
100
AcDbText
 73
2
  0
MTEXT
  5
342
100
AcDbEntity
  8
0
100
AcDbMText
 10
232.37065
 20
145.483125
 40
2
 41
  0.0
  1
､ｽｺﾙ､ﾘ､o (ｪﾗ)\Pｧｨｦｨｨ､､ｧｵuﾃ荀@､�
 71
5
  7
Font_0
  0
TEXT
  5
343
100
AcDbEntity
  8
0
100
AcDbText
  6
BYLAYER
 10
217.365
 20
147.778125
 40
3
  1
ｪｽｨ､ｫﾗ
  7
Font_1
 50
270
 11
218.865
 21
147.778125
100
AcDbText
 73
2
  0
TEXT
  5
344
100
AcDbEntity
  8
0
100
AcDbText
  6
BYLAYER
 10
227.87065
 20
135.99
 40
3
  1
ｨ､ｫﾗｮt
  7
Font_0
 72
1
 11
232.37065
 21
137.49
100
AcDbText
 73
2
  0
LINE
  5
345
100
AcDbEntity
  8
0
100
AcDbLine
  6
BYLAYER
 10
254.802068029839
 20
115.173423624616
 11
254.802068029839
 21
126.198423624616
  0
LINE
  5
346
100
AcDbEntity
  8
0
100
AcDbLine
  6
BYLAYER
 10
243.67125
 20
113.78625
 11
243.67125
 21
135.285
  0
CIRCLE
  5
347
100
AcDbEntity
  8
0
100
AcDbCircle
  6
BYLAYER
 10
254.802068029839
 20
120.685923624616
 40
4.41
  0
LINE
  5
348
100
AcDbEntity
  8
0
100
AcDbLine
  6
BYLAYER
 10
249.289568029839
 20
120.685923624616
 11
260.314568029839
 21
120.685923624616
  0
CIRCLE
  5
349
100
AcDbEntity
  8
0
100
AcDbCircle
  6
BYLAYER
 10
254.802068029839
 20
120.685923624616
 40
2.205
  0
LINE
  5
34A
100
AcDbEntity
  8
0
100
AcDbLine
  6
BYLAYER
 10
263.194180551461
 20
120.685923624616
 11
274.770430551461
 21
120.685923624616
  0
LWPOLYLINE
  5
34B
100
AcDbEntity
  8
0
100
AcDbPolyline
  6
BYLAYER
370
0
 90
     4
 70
     1
 10
264.296680551461
  20
118.480923624616
 10
273.667930551461
  20
116.275923624616
 10
273.667930551461
  20
125.095923624616
 10
264.296680551461
  20
122.890923624616
  0
TEXT
  5
34C
100
AcDbEntity
  8
0
100
AcDbText
  6
BYLAYER
 10
245.828721587618
 20
131.605971951227
 40
2
  1
Third angle
  7
Font_0
100
AcDbText
  0
MTEXT
  5
34D
100
AcDbEntity
  8
0
100
AcDbMText
 10
256.6945375
 20
145.483125
 40
1.5
 41
  0.0
  1
10･H､W\P50･H､U
 71
5
  7
Font_0
  0
TEXT
  5
34E
100
AcDbEntity
  8
0
100
AcDbText
  6
BYLAYER
 10
246.13735
 20
136.74
 40
1.5
  1
±1°
  7
Font_0
 72
1
 11
248.01235
 21
137.49
100
AcDbText
 73
2
  0
TEXT
  5
34F
100
AcDbEntity
  8
0
100
AcDbText
  6
BYLAYER
 10
254.8195375
 20
136.74
 40
1.5
  1
±30'
  7
Font_0
 72
1
 11
256.6945375
 21
137.49
100
AcDbText
 73
2
  0
TEXT
  5
350
100
AcDbEntity
  8
0
100
AcDbText
  6
BYLAYER
 10
245.76235
 20
144.733125
 40
1.5
  1
10･H､U
  7
Font_0
 72
1
 11
248.01235
 21
145.483125
100
AcDbText
 73
2
  0
TEXT
  5
351
100
AcDbEntity
  8
0
100
AcDbText
  6
BYLAYER
 10
263.501725
 20
136.74
 40
1.5
  1
±20'
  7
Font_0
 72
1
 11
265.376725
 21
137.49
100
AcDbText
 73
2
  0
MTEXT
  5
352
100
AcDbEntity
  8
0
100
AcDbMText
 10
265.376725
 20
145.483125
 40
1.5
 41
  0.0
  1
50･H､W\P100･H､U
 71
5
  7
Font_0
  0
LINE
  5
353
100
AcDbEntity
  8
0
100
AcDbLine
  6
BYLAYER
 10
221.07
 20
155.68125
 11
278.4
 21
155.68125
  0
LINE
  5
354
100
AcDbEntity
  8
0
100
AcDbLine
  6
BYLAYER
 10
221.07
 20
160.09125
 11
278.4
 21
160.09125
  0
LINE
  5
355
100
AcDbEntity
  8
0
100
AcDbLine
  6
BYLAYER
 10
221.07
 20
164.50125
 11
278.4
 21
164.50125
  0
LINE
  5
356
100
AcDbEntity
  8
0
100
AcDbLine
  6
BYLAYER
 10
221.07
 20
168.91125
 11
278.4
 21
168.91125
  0
LINE
  5
357
100
AcDbEntity
  8
0
100
AcDbLine
  6
BYLAYER
 10
221.07
 20
173.32125
 11
278.4
 21
173.32125
  0
LINE
  5
358
100
AcDbEntity
  8
0
100
AcDbLine
  6
BYLAYER
 10
216.66
 20
151.27125
 11
278.4
 21
151.27125
  0
LINE
  5
359
100
AcDbEntity
  8
0
100
AcDbLine
  6
BYLAYER
 10
216.66
 20
180.4875
 11
278.4
 21
180.4875
  0
TEXT
  5
35A
100
AcDbEntity
  8
0
100
AcDbText
  6
BYLAYER
 10
269.1119
 20
175.154375
 40
3.5
  1
ｲﾊｯﾅ
  7
Font_0
 72
1
 11
272.6119
 21
176.904375
100
AcDbText
 73
2
  0
LINE
  5
35B
100
AcDbEntity
  8
0
100
AcDbLine
  6
BYLAYER
 10
243.67125
 20
173.32125
 11
232.06971689676
 21
180.4875
  0
TEXT
  5
35C
100
AcDbEntity
  8
0
100
AcDbText
  6
BYLAYER
 10
230.03
 20
181.49375
 40
3.5
  1
ｦｨ ｫ~ ､ｧ ｴｶ ｳq ､ｽ ｮt
  7
Font_0
 72
1
 11
247.53
 21
183.24375
100
AcDbText
 73
2
  0
TEXT
  5
35D
100
AcDbEntity
  8
0
100
AcDbText
  6
BYLAYER
 10
228.24565
 20
170.36625
 40
1.5
  1
1･H､W~4･H､U
  7
Font_0
 72
1
 11
232.37065
 21
171.11625
100
AcDbText
 73
2
  0
TEXT
  5
35E
100
AcDbEntity
  8
0
100
AcDbText
  6
BYLAYER
 10
227.49565
 20
161.54625
 40
1.5
  1
16･H､W~63･H､U
  7
Font_0
 72
1
 11
232.37065
 21
162.29625
100
AcDbText
 73
2
  0
TEXT
  5
35F
100
AcDbEntity
  8
0
100
AcDbText
  6
BYLAYER
 10
227.12065
 20
157.13625
 40
1.5
  1
63･H､W~250･H､U
  7
Font_0
 72
1
 11
232.37065
 21
157.88625
100
AcDbText
 73
2
  0
TEXT
  5
360
100
AcDbEntity
  8
0
100
AcDbText
  6
BYLAYER
 10
226.37065
 20
152.72625
 40
1.5
  1
250･H､W~1000･H､U
  7
Font_0
 72
1
 11
232.37065
 21
153.47625
100
AcDbText
 73
2
  0
MTEXT
  5
361
100
AcDbEntity
  8
0
100
AcDbMText
 10
218.865
 20
168.879375
 40
3
 41
  0.0
  1
ｪﾗ
 71
4
  7
Font_1
 11
-1.83690953073357E-16
 21
-1
  0
TEXT
  5
362
100
AcDbEntity
  8
0
100
AcDbText
  6
BYLAYER
 10
227.87065
 20
165.95625
 40
1.5
  1
4･H､W~16･H､U
  7
Font_0
 72
1
 11
232.37065
 21
166.70625
100
AcDbText
 73
2
  0
TEXT
  5
363
100
AcDbEntity
  8
0
100
AcDbText
  6
BYLAYER
 10
221.354797302298
 20
174.015263609177
 40
1.7
  1
､ｽｺﾙ､ﾘ､oｹｺ､ﾀm/m
  7
Font_0
100
AcDbText
  0
TEXT
  5
364
100
AcDbEntity
  8
0
100
AcDbText
  6
BYLAYER
 10
237.865638127741
 20
177.454836298923
 40
1.7
  1
ｵ･ｯﾅ
  7
Font_0
100
AcDbText
  0
LINE
  5
365
100
AcDbEntity
  8
0
100
AcDbLine
  6
BYLAYER
 10
266.82375
 20
151.27125
 11
266.82375
 21
180.4875
  0
LINE
  5
366
100
AcDbEntity
  8
0
100
AcDbLine
  6
BYLAYER
 10
255.2475
 20
151.27125
 11
255.2475
 21
180.4875
  0
TEXT
  5
367
100
AcDbEntity
  8
0
100
AcDbText
  6
BYLAYER
 10
247.2094
 20
170.36625
 40
1.5
  1
±0.05
  7
Font_0
 72
1
 11
249.4594
 21
171.11625
100
AcDbText
 73
2
  0
TEXT
  5
368
100
AcDbEntity
  8
0
100
AcDbText
  6
BYLAYER
 10
258.78565
 20
170.36625
 40
1.5
  1
±0.10
  7
Font_0
 72
1
 11
261.03565
 21
171.11625
100
AcDbText
 73
2
  0
TEXT
  5
369
100
AcDbEntity
  8
0
100
AcDbText
  6
BYLAYER
 10
270.3619
 20
170.36625
 40
1.5
  1
±0.30
  7
Font_0
 72
1
 11
272.6119
 21
171.11625
100
AcDbText
 73
2
  0
TEXT
  5
36A
100
AcDbEntity
  8
0
100
AcDbText
  6
BYLAYER
 10
258.78565
 20
165.95625
 40
1.5
  1
±0.20
  7
Font_0
 72
1
 11
261.03565
 21
166.70625
100
AcDbText
 73
2
  0
TEXT
  5
36B
100
AcDbEntity
  8
0
100
AcDbText
  6
BYLAYER
 10
258.78565
 20
161.54625
 40
1.5
  1
±0.30
  7
Font_0
 72
1
 11
261.03565
 21
162.29625
100
AcDbText
 73
2
  0
TEXT
  5
36C
100
AcDbEntity
  8
0
100
AcDbText
  6
BYLAYER
 10
258.78565
 20
157.13625
 40
1.5
  1
±0.50
  7
Font_0
 72
1
 11
261.03565
 21
157.88625
100
AcDbText
 73
2
  0
TEXT
  5
36D
100
AcDbEntity
  8
0
100
AcDbText
  6
BYLAYER
 10
258.78565
 20
152.72625
 40
1.5
  1
±0.80
  7
Font_0
 72
1
 11
261.03565
 21
153.47625
100
AcDbText
 73
2
  0
TEXT
  5
36E
100
AcDbEntity
  8
0
100
AcDbText
  6
BYLAYER
 10
247.2094
 20
157.13625
 40
1.5
  1
±0.20
  7
Font_0
 72
1
 11
249.4594
 21
157.88625
100
AcDbText
 73
2
  0
TEXT
  5
36F
100
AcDbEntity
  8
0
100
AcDbText
  6
BYLAYER
 10
247.2094
 20
152.72625
 40
1.5
  1
±0.30
  7
Font_0
 72
1
 11
249.4594
 21
153.47625
100
AcDbText
 73
2
  0
TEXT
  5
370
100
AcDbEntity
  8
0
100
AcDbText
  6
BYLAYER
 10
247.2094
 20
165.95625
 40
1.5
  1
±0.07
  7
Font_0
 72
1
 11
249.4594
 21
166.70625
100
AcDbText
 73
2
  0
TEXT
  5
371
100
AcDbEntity
  8
0
100
AcDbText
  6
BYLAYER
 10
247.2094
 20
161.54625
 40
1.5
  1
±0.10
  7
Font_0
 72
1
 11
249.4594
 21
162.29625
100
AcDbText
 73
2
  0
TEXT
  5
372
100
AcDbEntity
  8
0
100
AcDbText
  6
BYLAYER
 10
270.3619
 20
152.72625
 40
1.5
  1
±2.00
  7
Font_0
 72
1
 11
272.6119
 21
153.47625
100
AcDbText
 73
2
  0
TEXT
  5
373
100
AcDbEntity
  8
0
100
AcDbText
  6
BYLAYER
 10
270.3619
 20
157.13625
 40
1.5
  1
±1.20
  7
Font_0
 72
1
 11
272.6119
 21
157.88625
100
AcDbText
 73
2
  0
TEXT
  5
374
100
AcDbEntity
  8
0
100
AcDbText
  6
BYLAYER
 10
270.3619
 20
161.54625
 40
1.5
  1
±0.70
  7
Font_0
 72
1
 11
272.6119
 21
162.29625
100
AcDbText
 73
2
  0
TEXT
  5
375
100
AcDbEntity
  8
0
100
AcDbText
  6
BYLAYER
 10
270.3619
 20
165.95625
 40
1.5
  1
±0.50
  7
Font_0
 72
1
 11
272.6119
 21
166.70625
100
AcDbText
 73
2
  0
TEXT
  5
376
100
AcDbEntity
  8
0
100
AcDbText
  6
BYLAYER
 10
257.5356
 20
175.154375
 40
3.5
  1
､､ｯﾅ
  7
Font_0
 72
1
 11
261.0356
 21
176.904375
100
AcDbText
 73
2
  0
TEXT
  5
377
100
AcDbEntity
  8
0
100
AcDbText
  6
BYLAYER
 10
245.9594
 20
175.154375
 40
3.5
  1
ｲﾓｯﾅ
  7
Font_0
 72
1
 11
249.4594
 21
176.904375
100
AcDbText
 73
2
  0
LWPOLYLINE
  5
378
100
AcDbEntity
  8
0
100
AcDbPolyline
  6
BYLAYER
370
20
 90
     4
 70
     1
 10
0
  20
0
 10
0
  20
186
 10
278.4
  20
186
 10
278.4
  20
0
  0
LWPOLYLINE
  5
379
100
AcDbEntity
  8
0
100
AcDbPolyline
  6
BYLAYER
370
20
 90
     2
 10
0
  20
36
 10
278.4
  20
36
  0
LWPOLYLINE
  5
37A
100
AcDbEntity
  8
0
100
AcDbPolyline
  6
BYLAYER
370
20
 90
     2
 10
195.15
  20
36
 10
195.15
  20
0
  0
LWPOLYLINE
  5
37B
100
AcDbEntity
  8
0
100
AcDbPolyline
  6
BYLAYER
370
20
 90
     2
 10
96.85
  20
36
 10
96.85
  20
0
  0
ENDBLK
  5
37C
100
AcDbEntity
  8
0
 67
     1
100
AcDbBlockEnd
  0
BLOCK
  5
37D
100
AcDbEntity
  8
0
100
AcDbBlockBegin
  2
JAME
 70
    0
 10
0
 20
0
 30
0.0
  3
JAME
  1

  0
TEXT
  5
37E
100
AcDbEntity
  8
0
100
AcDbText
  6
BYLAYER
 10
200.830454348633
 20
31.5
 40
3
  1
､魘ﾁ
  7
Font_0
100
AcDbText
  0
LINE
  5
37F
100
AcDbEntity
  8
0
100
AcDbLine
  6
BYLAYER
 10
0
 20
12
 11
278.4
 21
12
  0
LINE
  5
380
100
AcDbEntity
  8
0
100
AcDbLine
  6
BYLAYER
 10
0
 20
6
 11
278.4
 21
6
  0
LINE
  5
381
100
AcDbEntity
  8
0
100
AcDbLine
  6
BYLAYER
 10
0
 20
0
 11
278.4
 21
0
  0
LINE
  5
382
100
AcDbEntity
  8
0
100
AcDbLine
  6
BYLAYER
 10
96.85
 20
30
 11
278.4
 21
30
  0
LINE
  5
383
100
AcDbEntity
  8
0
100
AcDbLine
  6
BYLAYER
 10
96.85
 20
24
 11
278.4
 21
24
  0
LINE
  5
384
100
AcDbEntity
  8
0
100
AcDbLine
  6
BYLAYER
 10
96.85
 20
18
 11
278.4
 21
18
  0
LWPOLYLINE
  5
385
100
AcDbEntity
  8
0
100
AcDbPolyline
  6
BYLAYER
370
0
 90
     2
 70
     1
 10
0
  20
36
 10
278.4
  20
36
  0
LWPOLYLINE
  5
386
100
AcDbEntity
  8
0
100
AcDbPolyline
  6
BYLAYER
 90
     2
 70
     1
 10
278.4
  20
186
 10
0
  20
186
  0
LINE
  5
387
100
AcDbEntity
  8
0
100
AcDbLine
  6
BYLAYER
 10
0
 20
0
 11
0
 21
186
  0
TEXT
  5
388
100
AcDbEntity
  8
0
100
AcDbText
  6
BYLAYER
 10
63.8643398403977
 20
7.09411371042404
 40
2.8
  1
(04)23322629
  7
Font_0
100
AcDbText
  0
TEXT
  5
389
100
AcDbEntity
  8
0
100
AcDbText
  6
BYLAYER
 10
22.1680110084321
 20
15.7553550725962
 40
2.8
  1
CAM YORK INDUSTRIAL CO.,LTD.
  7
Font_0
100
AcDbText
  0
TEXT
  5
38A
100
AcDbEntity
  8
0
100
AcDbText
  6
BYLAYER
 10
22.0468952754036
 20
26
 40
7
  1
ｫﾘｷﾔ､uｷ~ｪﾑ･ｳｭｭ､ｽ･q
  7
Font_0
100
AcDbText
  0
ARC
  5
38B
100
AcDbEntity
  8
0
100
AcDbCircle
  6
BYLAYER
 10
5.4252294212235
 20
17.1818752606574
 40
0.704372460813671
100
AcDbArc
 50
233.852980631667
 51
29.2500716369477
  0
TEXT
  5
38C
100
AcDbEntity
  8
0
100
AcDbText
  6
BYLAYER
 10
3.5
 20
1.5
 40
3
  1
ｳﾆｵ�
  7
Font_0
 72
1
 11
6.5
 21
3
100
AcDbText
 73
2
  0
TEXT
  5
38D
100
AcDbEntity
  8
0
100
AcDbText
  6
BYLAYER
 10
2.6
 20
7.3
 40
3
  1
TEL
  7
Font_0
100
AcDbText
  0
ARC
  5
38E
100
AcDbEntity
  8
0
100
AcDbCircle
  6
BYLAYER
 10
10.1054905349494
 20
24.350263158651
 40
4.41008790801462
100
AcDbArc
 50
90
 51
0
  0
CIRCLE
  5
38F
100
AcDbEntity
  8
0
100
AcDbCircle
  6
BYLAYER
 10
10.1054905349494
 20
24.350263158651
 40
7.62237416200057
  0
CIRCLE
  5
390
100
AcDbEntity
  8
0
100
AcDbCircle
  6
BYLAYER
 10
10.1054905349494
 20
24.350263158651
 40
9.36463111331499
  0
ARC
  5
391
100
AcDbEntity
  8
0
100
AcDbCircle
  6
BYLAYER
 10
6.23761506796892
 20
31.9876821284788
 40
0.704372460813671
100
AcDbArc
 50
113.852980631667
 51
269.250071636948
  0
ARC
  5
392
100
AcDbEntity
  8
0
100
AcDbCircle
  6
BYLAYER
 10
2.46807156512152
 20
20.4823876916705
 40
0.704372460813671
100
AcDbArc
 50
203.852980631667
 51
359.250071636948
  0
ARC
  5
393
100
AcDbEntity
  8
0
100
AcDbCircle
  6
BYLAYER
 10
1.55735395424306
 20
24.8192942304852
 40
0.704372460813671
100
AcDbArc
 50
173.852980631667
 51
329.250071636948
  0
ARC
  5
394
100
AcDbEntity
  8
0
100
AcDbCircle
  6
BYLAYER
 10
2.93710263695578
 20
29.0305242723768
 40
0.704372460813671
100
AcDbArc
 50
143.852980631667
 51
299.250071636948
  0
LINE
  5
395
100
AcDbEntity
  8
0
100
AcDbLine
  6
BYLAYER
 10
62
 20
12
 11
62
 21
6
  0
TEXT
  5
396
100
AcDbEntity
  8
0
100
AcDbText
  6
BYLAYER
 10
51.8
 20
7.2
 40
3
  1
FAX
  7
Font_0
100
AcDbText
  0
LINE
  5
397
100
AcDbEntity
  8
0
100
AcDbLine
  6
BYLAYER
 10
49.4
 20
12
 11
49.4
 21
6
  0
TEXT
  5
398
100
AcDbEntity
  8
0
100
AcDbText
  6
BYLAYER
 10
43.3478047909238
 20
7.2
 40
2.8
  1
~8
  7
Font_0
100
AcDbText
  0
LINE
  5
399
100
AcDbEntity
  8
0
100
AcDbLine
  6
BYLAYER
 10
11.8
 20
12
 11
11.8
 21
0
  0
TEXT
  5
39A
100
AcDbEntity
  8
0
100
AcDbText
  6
BYLAYER
 10
12.8764304985659
 20
7.2
 40
2.8
  1
(04)23322627
  7
Font_0
100
AcDbText
  0
ARC
  5
39B
100
AcDbEntity
  8
0
100
AcDbCircle
  6
BYLAYER
 10
14.7857516486752
 20
31.5186510566446
 40
0.704372460813671
100
AcDbArc
 50
53.8529806316668
 51
209.250071636948
  0
ARC
  5
39C
100
AcDbEntity
  8
0
100
AcDbCircle
  6
BYLAYER
 10
10.5745216067836
 20
32.8983997393573
 40
0.704372460813671
100
AcDbArc
 50
83.8529806316668
 51
239.250071636948
  0
ARC
  5
39D
100
AcDbEntity
  8
0
100
AcDbCircle
  6
BYLAYER
 10
13.9733660019298
 20
16.7128441888231
 40
0.704372460813671
100
AcDbArc
 50
293.852980631667
 51
89.2500716369476
  0
ARC
  5
39E
100
AcDbEntity
  8
0
100
AcDbCircle
  6
BYLAYER
 10
9.63645946311512
 20
15.8021265779447
 40
0.704372460813671
100
AcDbArc
 50
263.852980631667
 51
59.2500716369476
  0
ARC
  5
39F
100
AcDbEntity
  8
0
100
AcDbCircle
  6
BYLAYER
 10
17.273878432943
 20
19.6700020449251
 40
0.704372460813671
100
AcDbArc
 50
323.852980631667
 51
119.250071636948
  0
LINE
  5
3A0
100
AcDbEntity
  8
0
100
AcDbLine
  6
BYLAYER
 10
14.515578442964
 20
24.350263158651
 11
15.4411524483498
 21
24.350263158651
  0
LINE
  5
3A1
100
AcDbEntity
  8
0
100
AcDbLine
  6
BYLAYER
 10
10.1054905349494
 20
28.7603510666656
 11
15.2233703294355
 21
28.7603510666656
  0
TEXT
  5
3A2
100
AcDbEntity
  8
0
100
AcDbText
  6
BYLAYER
 10
7.49210581170385
 20
21.8477388856442
 40
5
  1
Y
  7
Font_0
100
AcDbText
  0
ARC
  5
3A3
100
AcDbEntity
  8
0
100
AcDbCircle
  6
BYLAYER
 10
18.6536271156557
 20
23.8812320868167
 40
0.704372460813671
100
AcDbArc
 50
353.852980631667
 51
149.250071636947
  0
ARC
  5
3A4
100
AcDbEntity
  8
0
100
AcDbCircle
  6
BYLAYER
 10
17.7429095047772
 20
28.2181386256314
 40
0.704372460813671
100
AcDbArc
 50
23.8529806316668
 51
179.250071636948
  0
LINE
  5
3A5
100
AcDbEntity
  8
0
100
AcDbLine
  6
BYLAYER
 10
114
 20
36
 11
114
 21
0
  0
TEXT
  5
3A6
100
AcDbEntity
  8
0
100
AcDbText
  6
BYLAYER
 10
100.4
 20
7.4
 40
3
  1
ｫ~ ｦW
  7
Font_0
100
AcDbText
  0
LINE
  5
3A7
100
AcDbEntity
  8
0
100
AcDbLine
  6
BYLAYER
 10
97.15
 20
36
 11
97.15
 21
0
  0
LINE
  5
3A8
100
AcDbEntity
  8
0
100
AcDbLine
  6
BYLAYER
 10
96.85
 20
36
 11
96.85
 21
0
  0
LWPOLYLINE
  5
3A9
100
AcDbEntity
  8
0
100
AcDbPolyline
  6
BYLAYER
370
0
 90
     4
 10
96.85
  20
36
 10
96.85
  20
0
 10
97.15
  20
0
 10
97.15
  20
36
  0
TEXT
  5
3AA
100
AcDbEntity
  8
0
100
AcDbText
  6
BYLAYER
 10
100.4
 20
1.6
 40
3
  1
ｹﾏ ｸｹ
  7
Font_0
100
AcDbText
  0
TEXT
  5
3AB
100
AcDbEntity
  8
0
100
AcDbText
  6
BYLAYER
 10
100.4
 20
31.6
 40
3
  1
･D ｺﾞ
  7
Font_0
100
AcDbText
  0
TEXT
  5
3AC
100
AcDbEntity
  8
0
100
AcDbText
  6
BYLAYER
 10
100.4
 20
19.6
 40
3
  1
ﾃｸ ｹﾏ
  7
Font_0
100
AcDbText
  0
TEXT
  5
3AD
100
AcDbEntity
  8
0
100
AcDbText
  6
BYLAYER
 10
100.4
 20
25.4
 40
3
  1
ｮﾖ ｹ�
  7
Font_0
100
AcDbText
  0
TEXT
  5
3AE
100
AcDbEntity
  8
0
100
AcDbText
  6
BYLAYER
 10
100.316862435203
 20
13.8
 40
3
  1
ｾ� ｺﾘ
  7
Font_0
100
AcDbText
  0
LINE
  5
3AF
100
AcDbEntity
  8
0
100
AcDbLine
  6
BYLAYER
 10
195.15
 20
36
 11
195.15
 21
0
  0
LINE
  5
3B0
100
AcDbEntity
  8
0
100
AcDbLine
  6
BYLAYER
 10
194.85
 20
36
 11
194.85
 21
0
  0
LINE
  5
3B1
100
AcDbEntity
  8
0
100
AcDbLine
  6
BYLAYER
 10
195.025
 20
36
 11
195.025
 21
0
  0
TEXT
  5
3B2
100
AcDbEntity
  8
0
100
AcDbText
  6
BYLAYER
 10
146.967830348543
 20
7.5
 40
3
  1
ｻsｹﾏ､魘ﾁ
  7
Font_0
100
AcDbText
  0
LINE
  5
3B3
100
AcDbEntity
  8
0
100
AcDbLine
  6
BYLAYER
 10
163
 20
36
 11
163
 21
0
  0
LINE
  5
3B4
100
AcDbEntity
  8
0
100
AcDbLine
  6
BYLAYER
 10
144
 20
36
 11
144
 21
0
  0
TEXT
  5
3B5
100
AcDbEntity
  8
0
100
AcDbText
  6
BYLAYER
 10
147.076922819997
 20
1.5
 40
3
  1
ｹqｸ｣ｽsｸｹ
  7
Font_0
100
AcDbText
  0
TEXT
  5
3B6
100
AcDbEntity
  8
0
100
AcDbText
  6
BYLAYER
 10
148.5
 20
31.5
 40
3
  1
ｧ� ｽ�
  7
Font_0
100
AcDbText
  0
TEXT
  5
3B7
100
AcDbEntity
  8
0
100
AcDbText
  6
BYLAYER
 10
148.5
 20
25.5
 40
3
  1
ｼﾆ ｶq
  7
Font_0
100
AcDbText
  0
TEXT
  5
3B8
100
AcDbEntity
  8
0
100
AcDbText
  6
BYLAYER
 10
148.5
 20
19.5
 40
3
  1
ｳ� ｦ�
  7
Font_0
100
AcDbText
  0
TEXT
  5
3B9
100
AcDbEntity
  8
0
100
AcDbText
  6
BYLAYER
 10
146.967830348543
 20
13.5
 40
3
  1
ｪ揵ｱｳBｲz
  7
Font_0
100
AcDbText
  0
LINE
  5
3BA
100
AcDbEntity
  8
0
100
AcDbLine
  6
BYLAYER
 10
278.4
 20
186
 11
278.4
 21
0
  0
TEXT
  5
3BB
100
AcDbEntity
  8
0
100
AcDbText
  6
BYLAYER
 10
235
 20
31.5
 40
3
  1
ｧ�   ｧ�   ､ｺ   ｮe
  7
Font_0
100
AcDbText
  0
LINE
  5
3BC
100
AcDbEntity
  8
0
100
AcDbLine
  6
BYLAYER
 10
232
 20
36
 11
232
 21
0
  0
LINE
  5
3BD
100
AcDbEntity
  8
0
100
AcDbLine
  6
BYLAYER
 10
213
 20
36
 11
213
 21
0
  0
TEXT
  5
3BE
100
AcDbEntity
  8
0
100
AcDbText
  6
BYLAYER
 10
218.659856969007
 20
31.5
 40
3
  1
ｭtｳd､H
  7
Font_0
100
AcDbText
  0
ENDBLK
  5
3BF
100
AcDbEntity
  8
0
 67
     1
100
AcDbBlockEnd
  0
BLOCK
  5
3C0
100
AcDbEntity
  8
0
100
AcDbBlockBegin
  2
GENAXEH
 70
    0
 10
0
 20
0
 30
0.0
  3
GENAXEH
  1

  0
LINE
  5
3C1
100
AcDbEntity
  8
0
100
AcDbLine
  6
BYLAYER
 10
-1
 20
0
 11
1
 21
0
  0
ENDBLK
  5
3C2
100
AcDbEntity
  8
0
 67
     1
100
AcDbBlockEnd
  0
BLOCK
  5
3C3
100
AcDbEntity
  8
0
100
AcDbBlockBegin
  2
A$C36D836D4
 70
    0
 10
0
 20
0
 30
0.0
  3
A$C36D836D4
  1

  0
LINE
  5
3C4
100
AcDbEntity
  8
BASE
100
AcDbLine
  6
BYLAYER
 10
-156.592114756201
 20
-85.2890618578437
 11
-73.3421147562014
 21
-85.2890618578437
  0
LINE
  5
3C5
100
AcDbEntity
  8
BASE
100
AcDbLine
  6
BYLAYER
 10
-156.592114756201
 20
-91.2890618578437
 11
-73.3421147562014
 21
-91.2890618578437
  0
LINE
  5
3C6
100
AcDbEntity
  8
BASE
100
AcDbLine
  6
BYLAYER
 10
-156.592114756201
 20
-97.2890618578437
 11
-73.3421147562014
 21
-97.2890618578437
  0
LINE
  5
3C7
100
AcDbEntity
  8
BASE
100
AcDbLine
  6
BYLAYER
 10
-156.592114756201
 20
-103.289061857844
 11
-73.3421147562014
 21
-103.289061857844
  0
LINE
  5
3C8
100
AcDbEntity
  8
BASE
100
AcDbLine
  6
BYLAYER
 10
-156.592114756201
 20
-109.289061857844
 11
-73.3421147562014
 21
-109.289061857844
  0
LINE
  5
3C9
100
AcDbEntity
  8
BASE
100
AcDbLine
  6
BYLAYER
 10
-156.592114756201
 20
-115.289061857844
 11
-73.3421147562014
 21
-115.289061857844
  0
LINE
  5
3CA
100
AcDbEntity
  8
BASE
100
AcDbLine
  6
BYLAYER
 10
-156.592114756201
 20
-121.289061857844
 11
-73.3421147562014
 21
-121.289061857844
  0
LINE
  5
3CB
100
AcDbEntity
  8
BASE
100
AcDbLine
  6
BYLAYER
 10
-156.592114756201
 20
-127.289061857844
 11
-73.3421147562014
 21
-127.289061857844
  0
LINE
  5
3CC
100
AcDbEntity
  8
BASE
100
AcDbLine
  6
BYLAYER
 10
-146.592114756201
 20
-85.2890618578437
 11
-146.592114756201
 21
-133.289061857844
  0
LINE
  5
3CD
100
AcDbEntity
  8
BASE
100
AcDbLine
  6
BYLAYER
 10
-156.592114756201
 20
-85.2890618578437
 11
-156.592114756201
 21
-133.289061857844
  0
LINE
  5
3CE
100
AcDbEntity
  8
BASE
100
AcDbLine
  6
BYLAYER
 10
-136.592114756201
 20
-85.2890618578437
 11
-136.592114756201
 21
-133.289061857844
  0
TEXT
  5
3CF
100
AcDbEntity
  8
BASE
100
AcDbText
  6
BYLAYER
 10
-152.287315422519
 20
-120.581955076657
 40
3.5
  1
B
  7
Font_0
 72
1
 11
-151.412315422519
 21
-120.581955076657
100
AcDbText
  0
TEXT
  5
3D0
100
AcDbEntity
  8
BASE
100
AcDbText
  6
BYLAYER
 10
-154.338363967876
 20
-132.581955076657
 40
3.5
  1
ｶｵｦｸ
  7
Font_0
 72
1
 11
-150.838363967876
 21
-132.581955076657
100
AcDbText
  0
TEXT
  5
3D1
100
AcDbEntity
  8
BASE
100
AcDbText
  6
BYLAYER
 10
-151.961433062886
 20
-126.581955076657
 40
3.5
  1
A
  7
Font_0
 72
1
 11
-151.086433062886
 21
-126.581955076657
100
AcDbText
  0
TEXT
  5
3D2
100
AcDbEntity
  8
0
100
AcDbText
  6
BYLAYER
 10
-125.857609278239
 20
-132.019757538773
 40
3.5
  1
ｹﾏ
  7
Font_0
 11
-125.857609278239
 21
-128.519757538773
100
AcDbText
 73
3
  0
TEXT
  5
3D3
100
AcDbEntity
  8
0
100
AcDbText
  6
BYLAYER
 10
-112.160031551964
 20
-132.156603581708
 40
3.5
  1
ｸｹ
  7
Font_0
 11
-112.160031551964
 21
-128.656603581708
100
AcDbText
 73
3
  0
TEXT
  5
3D4
100
AcDbEntity
  8
BASE
100
AcDbText
  6
BYLAYER
 10
-152.150339695197
 20
-114.581955076657
 40
3.5
  1
C
  7
Font_0
 72
1
 11
-151.275339695197
 21
-114.581955076657
100
AcDbText
  0
LINE
  5
3D5
100
AcDbEntity
  8
BASE
100
AcDbLine
  6
BYLAYER
 10
-92.7050670689118
 20
-85.2890618578437
 11
-92.7050670689118
 21
-133.289061857844
  0
LINE
  5
3D6
100
AcDbEntity
  8
BASE
100
AcDbLine
  6
BYLAYER
 10
-82.7050670689118
 20
-85.2890618578437
 11
-82.7050670689118
 21
-133.289061857844
  0
TEXT
  5
3D7
100
AcDbEntity
  8
0
100
AcDbText
  6
BYLAYER
 10
-91.2050670689118
 20
-132.72329119719
 40
3.5
  1
ｪｩ･ｻ
  7
Font_0
 72
1
 11
-87.7050670689118
 21
-130.97329119719
100
AcDbText
 73
2
  0
TEXT
  5
3D8
100
AcDbEntity
  8
BASE
100
AcDbText
  6
BYLAYER
 10
-81.5235909125566
 20
-132.581955076657
 40
3.5
  1
ｼﾆｶq
  7
Font_0
 72
1
 11
-78.0235909125566
 21
-132.581955076657
100
AcDbText
  0
TEXT
  5
3D9
100
AcDbEntity
  8
BASE
100
AcDbText
  6
BYLAYER
 10
-79.1985909125566
 20
-126.581955076657
 40
3.5
  1
1
  7
Font_0
 72
1
 11
-78.3235909125566
 21
-126.581955076657
100
AcDbText
  0
TEXT
  5
3DA
100
AcDbEntity
  8
BASE
100
AcDbText
  6
BYLAYER
 10
-79.1985909125566
 20
-120.581955076657
 40
3.5
  1
1
  7
Font_0
 72
1
 11
-78.3235909125566
 21
-120.581955076657
100
AcDbText
  0
TEXT
  5
3DB
100
AcDbEntity
  8
BASE
100
AcDbText
  6
BYLAYER
 10
-79.1985909125566
 20
-114.581955076657
 40
3.5
  1
1
  7
Font_0
 72
1
 11
-78.3235909125566
 21
-114.581955076657
100
AcDbText
  0
ENDBLK
  5
3DC
100
AcDbEntity
  8
0
 67
     1
100
AcDbBlockEnd
  0
BLOCK
  5
3DD
100
AcDbEntity
  8
0
100
AcDbBlockBegin
  2
A$C520435C5
 70
    0
 10
0
 20
0
 30
0.0
  3
A$C520435C5
  1

  0
LINE
  5
3DE
100
AcDbEntity
  8
CEN
100
AcDbLine
  6
BYLAYER
 10
42.4999999576461
 20
37.5000000875314
 11
42.4999999576461
 21
8.75313617E-8
  0
CIRCLE
  5
3DF
100
AcDbEntity
  8
BASE
100
AcDbCircle
  6
BYLAYER
 10
42.4999999576461
 20
42.5000000875313
 40
31.25
  0
CIRCLE
  5
3E0
100
AcDbEntity
  8
BASE
100
AcDbCircle
  6
BYLAYER
 10
42.4999999576461
 20
42.5000000875313
 40
8
  0
CIRCLE
  5
3E1
100
AcDbEntity
  8
BASE
100
AcDbCircle
  6
BYLAYER
 10
42.4999999576461
 20
42.5000000875313
 40
25.5
  0
CIRCLE
  5
3E2
100
AcDbEntity
  8
BASE
100
AcDbCircle
  6
BYLAYER
 10
42.4999999576461
 20
42.5000000875313
 40
28.5
  0
CIRCLE
  5
3E3
100
AcDbEntity
  8
BASE
100
AcDbCircle
  6
BYLAYER
 10
42.4999999576461
 20
42.5000000875313
 40
16.25
  0
CIRCLE
  5
3E4
100
AcDbEntity
  8
BASE
100
AcDbCircle
  6
BYLAYER
 10
42.4999999576461
 20
42.5000000875313
 40
14
  0
LINE
  5
3E5
100
AcDbEntity
  8
CEN
100
AcDbLine
  6
BYLAYER
 10
47.4999999576461
 20
42.5000000875313
 11
84.9999999576461
 21
42.5000000875313
  0
LINE
  5
3E6
100
AcDbEntity
  8
CEN
100
AcDbLine
  6
BYLAYER
 10
42.4999999576461
 20
47.5000000875313
 11
42.4999999576461
 21
85.0000000875314
  0
LINE
  5
3E7
100
AcDbEntity
  8
CEN
100
AcDbLine
  6
BYLAYER
 10
37.4999999576461
 20
42.5000000875313
 11
-4.23538893E-8
 21
42.5000000875313
  0
LINE
  5
3E8
100
AcDbEntity
  8
HIDDEN
100
AcDbLine
  6
BYLAYER
 10
40.4999999576461
 20
50.2459667799462
 11
40.4999999576461
 21
44.7360680650312
  0
LINE
  5
3E9
100
AcDbEntity
  8
HIDDEN
100
AcDbLine
  6
BYLAYER
 10
44.4999999576461
 20
50.2459667799462
 11
44.4999999576461
 21
44.7360680650312
  0
LINE
  5
3EA
100
AcDbEntity
  8
HIDDEN
100
AcDbLine
  6
BYLAYER
 10
41.2999999576461
 20
50.4094880608454
 11
41.2999999576461
 21
45.2495455045049
  0
LINE
  5
3EB
100
AcDbEntity
  8
HIDDEN
100
AcDbLine
  6
BYLAYER
 10
43.6999999576461
 20
50.4094880608454
 11
43.6999999576461
 21
45.2495455045049
  0
LINE
  5
3EC
100
AcDbEntity
  8
CEN
100
AcDbLine
  6
BYLAYER
 10
42.4999999576461
 20
40.0000000875313
 11
42.4999999576461
 21
45.0000000875313
  0
CIRCLE
  5
3ED
100
AcDbEntity
  8
BASE
100
AcDbCircle
  6
BYLAYER
 10
42.4999999576461
 20
42.5000000875313
 40
3
  0
LINE
  5
3EE
100
AcDbEntity
  8
CEN
100
AcDbLine
  6
BYLAYER
 10
39.9999999576461
 20
42.5000000875313
 11
44.9999999576461
 21
42.5000000875313
  0
ENDBLK
  5
3EF
100
AcDbEntity
  8
0
 67
     1
100
AcDbBlockEnd
  0
BLOCK
  5
3F0
100
AcDbEntity
  8
0
100
AcDbBlockBegin
  2
A$C60F9129D
 70
    0
 10
0
 20
0
 30
0.0
  3
A$C60F9129D
  1

  0
LINE
  5
3F1
100
AcDbEntity
  8
BASE
100
AcDbLine
  6
BYLAYER
 10
56.8497610654588
 20
24.5009881171584
 11
72.8497610654588
 21
24.5009881171584
  0
LINE
  5
3F2
100
AcDbEntity
  8
BASE
100
AcDbLine
  6
BYLAYER
 10
56.8497610654588
 20
31.5009881171584
 11
72.8497610654588
 21
31.5009881171584
  0
LINE
  5
3F3
100
AcDbEntity
  8
BASE
100
AcDbLine
  6
BYLAYER
 10
56.8497610654588
 20
6.50098811715838
 11
72.8497610654588
 21
6.50098811715838
  0
LINE
  5
3F4
100
AcDbEntity
  8
HIDDEN
100
AcDbLine
  6
BYLAYER
 10
56.8497610654588
 20
13.5009881171584
 11
72.8497610654588
 21
13.5009881171584
  0
LINE
  5
3F5
100
AcDbEntity
  8
DIM
100
AcDbLine
  6
BYLAYER
 62
0
370
  -2
 10
52.3497610654587
 20
10.5745178828921
 11
52.3497610654587
 21
4.15013925290424
  0
LINE
  5
3F6
100
AcDbEntity
  8
DIM
100
AcDbLine
  6
BYLAYER
 62
0
370
  -2
 10
56.3497610654587
 20
9.93848811715834
 11
56.3497610654587
 21
4.15013925290424
  0
LINE
  5
3F7
100
AcDbEntity
  8
DIM
100
AcDbLine
  6
BYLAYER
 62
0
370
  -2
 10
52.5297610654587
 20
4.33013925290423
 11
56.1697610654587
 21
4.33013925290423
  0
LINE
  5
3F8
100
AcDbEntity
  8
DIM
100
AcDbLine
  6
BYLAYER
 62
0
370
  -2
 10
56.3497610654587
 20
4.33013925290423
 11
88.2797610654587
 21
4.33013925290423
  0
SOLID
  5
3F9
100
AcDbEntity
  8
DIM
100
AcDbTrace
 10
52.3497610654587
 20
4.33013925290423
 30
0.0
 11
52.5297610654587
 21
4.30013925290423
 31
0.0
 12
52.5297610654587
 22
4.36013925290423
 32
0.0
 13
52.5297610654587
 23
4.36013925290423
 33
0.0
  0
SOLID
  5
3FA
100
AcDbEntity
  8
DIM
100
AcDbTrace
 10
56.1697610654587
 20
4.36013925290423
 30
0.0
 11
56.1697610654587
 21
4.30013925290423
 31
0.0
 12
56.3497610654587
 22
4.33013925290423
 32
0.0
 13
56.3497610654587
 23
4.33013925290423
 33
0.0
  0
TEXT
  5
3FB
100
AcDbEntity
  8
DIM
 62
0
100
AcDbText
  6
BYLAYER
 62
0
 10
88.8497610654587
 20
4.24013925290423
 40
0.18
  1
4.0000
  7
Font_0
 72
1
 11
89.1197610654587
 21
4.33013925290423
100
AcDbText
 73
2
  0
LINE
  5
3FC
100
AcDbEntity
  8
DIM
100
AcDbLine
  6
BYLAYER
 62
0
370
  -2
 10
52.3497610654587
 20
10.4384881171583
 11
52.3497610654587
 21
4.76934530979634E-7
  0
LINE
  5
3FD
100
AcDbEntity
  8
DIM
100
AcDbLine
  6
BYLAYER
 62
0
370
  -2
 10
73.3497610654587
 20
6.93848811715834
 11
73.3497610654587
 21
4.76934530979634E-7
  0
LINE
  5
3FE
100
AcDbEntity
  8
DIM
100
AcDbLine
  6
BYLAYER
 62
0
370
  -2
 10
52.5297610654587
 20
0.180000476934524
 11
62.3097610654587
 21
0.180000476934524
  0
LINE
  5
3FF
100
AcDbEntity
  8
DIM
100
AcDbLine
  6
BYLAYER
 62
0
370
  -2
 10
73.1697610654587
 20
0.180000476934524
 11
63.3897610654587
 21
0.180000476934524
  0
SOLID
  5
400
100
AcDbEntity
  8
DIM
100
AcDbTrace
 10
52.3497610654587
 20
0.180000476934524
 30
0.0
 11
52.5297610654587
 21
0.150000476934522
 31
0.0
 12
52.5297610654587
 22
0.210000476934525
 32
0.0
 13
52.5297610654587
 23
0.210000476934525
 33
0.0
  0
SOLID
  5
401
100
AcDbEntity
  8
DIM
100
AcDbTrace
 10
73.1697610654587
 20
0.210000476934525
 30
0.0
 11
73.1697610654587
 21
0.150000476934522
 31
0.0
 12
73.3497610654587
 22
0.180000476934524
 32
0.0
 13
73.3497610654587
 23
0.180000476934524
 33
0.0
  0
TEXT
  5
402
100
AcDbEntity
  8
DIM
 62
0
100
AcDbText
  6
BYLAYER
 62
0
 10
62.5347610654587
 20
0.0900004769345236
 40
0.18
  1
21.0000
  7
Font_0
 72
1
 11
62.8497610654587
 21
0.180000476934524
100
AcDbText
 73
2
  0
LINE
  5
403
100
AcDbEntity
  8
DIM
100
AcDbLine
  6
BYLAYER
 62
0
370
  -2
 10
65.3497610654587
 20
31.5634881171583
 11
65.3497610654587
 21
35.4088867475892
  0
LINE
  5
404
100
AcDbEntity
  8
DIM
100
AcDbLine
  6
BYLAYER
 62
0
370
  -2
 10
73.3497610654587
 20
31.0634881171583
 11
73.3497610654587
 21
35.4088867475892
  0
LINE
  5
405
100
AcDbEntity
  8
DIM
100
AcDbLine
  6
BYLAYER
 62
0
370
  -2
 10
65.5297610654587
 20
35.2288867475892
 11
68.8697610654587
 21
35.2288867475892
  0
LINE
  5
406
100
AcDbEntity
  8
DIM
100
AcDbLine
  6
BYLAYER
 62
0
370
  -2
 10
73.1697610654587
 20
35.2288867475892
 11
69.8297610654587
 21
35.2288867475892
  0
SOLID
  5
407
100
AcDbEntity
  8
DIM
100
AcDbTrace
 10
65.3497610654587
 20
35.2288867475892
 30
0.0
 11
65.5297610654587
 21
35.1988867475892
 31
0.0
 12
65.5297610654587
 22
35.2588867475892
 32
0.0
 13
65.5297610654587
 23
35.2588867475892
 33
0.0
  0
SOLID
  5
408
100
AcDbEntity
  8
DIM
100
AcDbTrace
 10
73.1697610654587
 20
35.2588867475892
 30
0.0
 11
73.1697610654587
 21
35.1988867475892
 31
0.0
 12
73.3497610654587
 22
35.2288867475892
 32
0.0
 13
73.3497610654587
 23
35.2288867475892
 33
0.0
  0
TEXT
  5
409
100
AcDbEntity
  8
DIM
 62
0
100
AcDbText
  6
BYLAYER
 62
0
 10
69.0797610654587
 20
35.1388867475892
 40
0.18
  1
8.0000
  7
Font_0
 72
1
 11
69.3497610654587
 21
35.2288867475892
100
AcDbText
 73
2
  0
LINE
  5
40A
100
AcDbEntity
  8
BASE
100
AcDbLine
  6
BYLAYER
 10
52.3497610654588
 20
27.2289285856908
 11
52.3497610654588
 21
10.773047648626
  0
LINE
  5
40B
100
AcDbEntity
  8
DIM
100
AcDbLine
  6
BYLAYER
 62
0
370
  -2
 10
54.2872610654587
 20
26.5009881171583
 11
48.3699477433158
 21
26.5009881171583
  0
LINE
  5
40C
100
AcDbEntity
  8
DIM
100
AcDbLine
  6
BYLAYER
 62
0
370
  -2
 10
54.2872610654587
 20
11.5009881171583
 11
48.3699477433158
 21
11.5009881171583
  0
LINE
  5
40D
100
AcDbEntity
  8
DIM
100
AcDbLine
  6
BYLAYER
 62
0
370
  -2
 10
48.5499477433158
 20
26.3209881171583
 11
48.5499477433158
 21
19.1809881171583
  0
LINE
  5
40E
100
AcDbEntity
  8
DIM
100
AcDbLine
  6
BYLAYER
 62
0
370
  -2
 10
48.5499477433158
 20
11.6809881171583
 11
48.5499477433158
 21
18.8209881171583
  0
SOLID
  5
40F
100
AcDbEntity
  8
DIM
100
AcDbTrace
 10
48.5199477433158
 20
26.3209881171583
 30
0.0
 11
48.5799477433158
 21
26.3209881171583
 31
0.0
 12
48.5499477433158
 22
26.5009881171583
 32
0.0
 13
48.5499477433158
 23
26.5009881171583
 33
0.0
  0
SOLID
  5
410
100
AcDbEntity
  8
DIM
100
AcDbTrace
 10
48.5499477433158
 20
11.5009881171583
 30
0.0
 11
48.5799477433158
 21
11.6809881171583
 31
0.0
 12
48.5199477433158
 22
11.6809881171583
 32
0.0
 13
48.5199477433158
 23
11.6809881171583
 33
0.0
  0
TEXT
  5
411
100
AcDbEntity
  8
DIM
 62
0
100
AcDbText
  6
BYLAYER
 62
0
 10
48.3699477433157
 20
18.9109881171583
 40
0.18
  1
Φ15
  7
Font_0
 72
1
 11
48.5499477433157
 21
19.0009881171583
100
AcDbText
 73
2
  0
LINE
  5
412
100
AcDbEntity
  8
CEN
100
AcDbLine
  6
BYLAYER
 10
14.9999989478504
 20
34.0009881171584
 11
14.9999989478504
 21
4.00098811715838
  0
LINE
  5
413
100
AcDbEntity
  8
DIM
100
AcDbLine
  6
BYLAYER
 62
0
370
  -2
 10
52.7872610654587
 20
28.0009881171583
 11
44.3126344211728
 21
28.0009881171583
  0
LINE
  5
414
100
AcDbEntity
  8
DIM
100
AcDbLine
  6
BYLAYER
 62
0
370
  -2
 10
52.7872610654587
 20
10.0009881171583
 11
44.3126344211728
 21
10.0009881171583
  0
LINE
  5
415
100
AcDbEntity
  8
DIM
100
AcDbLine
  6
BYLAYER
 62
0
370
  -2
 10
44.4926344211728
 20
27.8209881171583
 11
44.4926344211728
 21
19.1809881171583
  0
LINE
  5
416
100
AcDbEntity
  8
DIM
100
AcDbLine
  6
BYLAYER
 62
0
370
  -2
 10
44.4926344211728
 20
10.1809881171583
 11
44.4926344211728
 21
18.8209881171583
  0
SOLID
  5
417
100
AcDbEntity
  8
DIM
100
AcDbTrace
 10
44.4626344211728
 20
27.8209881171583
 30
0.0
 11
44.5226344211728
 21
27.8209881171583
 31
0.0
 12
44.4926344211728
 22
28.0009881171583
 32
0.0
 13
44.4926344211728
 23
28.0009881171583
 33
0.0
  0
SOLID
  5
418
100
AcDbEntity
  8
DIM
100
AcDbTrace
 10
44.4926344211728
 20
10.0009881171583
 30
0.0
 11
44.5226344211728
 21
10.1809881171583
 31
0.0
 12
44.4626344211728
 22
10.1809881171583
 32
0.0
 13
44.4626344211728
 23
10.1809881171583
 33
0.0
  0
TEXT
  5
419
100
AcDbEntity
  8
DIM
 62
0
100
AcDbText
  6
BYLAYER
 62
0
 10
44.3126344211728
 20
18.9109881171583
 40
0.18
  1
Φ18
  7
Font_0
 72
1
 11
44.4926344211728
 21
19.0009881171583
100
AcDbText
 73
2
  0
LINE
  5
41A
100
AcDbEntity
  8
DIM
100
AcDbLine
  6
BYLAYER
 62
0
370
  -2
 10
18.304178717982
 20
14.0432567041127
 11
18.124178717982
 21
14.0432567041127
  0
LINE
  5
41B
100
AcDbEntity
  8
DIM
100
AcDbLine
  6
BYLAYER
 62
0
370
  -2
 10
18.124178717982
 20
14.0432567041127
 11
18.028214151664
 21
14.1955419693598
  0
TEXT
  5
41C
100
AcDbEntity
  8
DIM
 62
0
100
AcDbText
  6
BYLAYER
 62
0
 10
18.859178717982
 20
13.9532567041127
 40
0.18
  1
φ11.0000
  7
Font_0
 72
1
 11
19.264178717982
 21
14.0432567041127
100
AcDbText
 73
2
  0
SOLID
  5
41D
100
AcDbEntity
  8
DIM
100
AcDbTrace
 10
17.9322495853459
 20
14.347827234607
 30
0.0
 11
18.0028332741228
 21
14.1795478749735
 31
0.0
 12
18.0535950292052
 22
14.2115360637462
 32
0.0
 13
18.0535950292052
 23
14.2115360637462
 33
0.0
  0
LINE
  5
41E
100
AcDbEntity
  8
DIM
100
AcDbLine
  6
BYLAYER
 62
0
370
  -2
 10
14.9099989478502
 20
19.0009881171583
 11
15.0899989478502
 21
19.0009881171583
  0
LINE
  5
41F
100
AcDbEntity
  8
DIM
100
AcDbLine
  6
BYLAYER
 62
0
370
  -2
 10
14.9999989478503
 20
18.9109881171583
 11
14.9999989478502
 21
19.0909881171583
  0
CIRCLE
  5
420
100
AcDbEntity
  8
BASE
100
AcDbCircle
  6
BYLAYER
 10
14.9999989478504
 20
19.0009881171584
 40
12.5
  0
CIRCLE
  5
421
100
AcDbEntity
  8
BASE
100
AcDbCircle
  6
BYLAYER
 10
14.9999989478504
 20
19.0009881171584
 40
9
  0
CIRCLE
  5
422
100
AcDbEntity
  8
BASE
100
AcDbCircle
  6
BYLAYER
 10
14.9999989478504
 20
19.0009881171584
 40
5.5
  0
CIRCLE
  5
423
100
AcDbEntity
  8
BASE
100
AcDbCircle
  6
BYLAYER
 10
14.9999989478504
 20
19.0009881171584
 40
7.5
  0
LINE
  5
424
100
AcDbEntity
  8
DIM
100
AcDbLine
  6
BYLAYER
 62
0
370
  -2
 10
9.605148122294
 20
30.756196786816
 11
9.78514812229399
 21
30.756196786816
  0
LINE
  5
425
100
AcDbEntity
  8
DIM
100
AcDbLine
  6
BYLAYER
 62
0
370
  -2
 10
9.78514812229399
 20
30.756196786816
 11
9.85813981347599
 21
30.5916604290758
  0
TEXT
  5
426
100
AcDbEntity
  8
DIM
 62
0
100
AcDbText
  6
BYLAYER
 62
0
 10
8.54014812229399
 20
30.6661967868159
 40
0.18
  1
φ25.0000
  7
Font_0
 72
1
 11
8.94514812229399
 21
30.7561967868159
100
AcDbText
 73
2
  0
SOLID
  5
427
100
AcDbEntity
  8
DIM
100
AcDbTrace
 10
9.885562539766
 20
30.6038257109395
 30
0.0
 11
9.83071708718599
 21
30.5794951472122
 31
0.0
 12
9.931131504658
 22
30.4271240713357
 32
0.0
 13
9.931131504658
 23
30.4271240713357
 33
0.0
  0
LINE
  5
428
100
AcDbEntity
  8
DIM
100
AcDbLine
  6
BYLAYER
 62
0
370
  -2
 10
14.9099989478503
 20
19.0009881171583
 11
15.0899989478503
 21
19.0009881171583
  0
LINE
  5
429
100
AcDbEntity
  8
DIM
100
AcDbLine
  6
BYLAYER
 62
0
370
  -2
 10
14.9999989478504
 20
18.9109881171583
 11
14.9999989478504
 21
19.0909881171583
  0
LINE
  5
42A
100
AcDbEntity
  8
BASE
100
AcDbLine
  6
BYLAYER
 10
56.3497610654588
 20
7.00098811715838
 11
56.3497610654588
 21
10.0009881171584
  0
LINE
  5
42B
100
AcDbEntity
  8
BASE
100
AcDbLine
  6
BYLAYER
 10
56.3497610654588
 20
7.00098811715838
 11
56.8497610654588
 21
6.50098811715838
  0
LINE
  5
42C
100
AcDbEntity
  8
HIDDEN
100
AcDbLine
  6
BYLAYER
 10
56.3497610654588
 20
11.5009881171584
 11
56.3497610654588
 21
13.0009881171584
  0
LINE
  5
42D
100
AcDbEntity
  8
HIDDEN
100
AcDbLine
  6
BYLAYER
 10
56.3497610654588
 20
13.0009881171584
 11
56.8497610654588
 21
13.5009881171584
  0
LINE
  5
42E
100
AcDbEntity
  8
BASE
100
AcDbLine
  6
BYLAYER
 10
52.3497610654588
 20
10.5009881171584
 11
52.3497610654588
 21
10.773047648626
  0
LINE
  5
42F
100
AcDbEntity
  8
BASE
100
AcDbLine
  6
BYLAYER
 10
52.8497610654588
 20
10.0009881171584
 11
52.3497610654588
 21
10.5009881171584
  0
LINE
  5
430
100
AcDbEntity
  8
HIDDEN
100
AcDbLine
  6
BYLAYER
 10
54.3497610654588
 20
11.5009881171584
 11
52.3497610654588
 21
10.773047648626
  0
LINE
  5
431
100
AcDbEntity
  8
BASE
100
AcDbLine
  6
BYLAYER
 10
52.8497610654588
 20
10.0009881171584
 11
56.3497610654588
 21
10.0009881171584
  0
LINE
  5
432
100
AcDbEntity
  8
HIDDEN
100
AcDbLine
  6
BYLAYER
 10
54.3497610654587
 20
11.5009881171584
 11
56.3497610654588
 21
11.5009881171584
  0
TEXT
  5
433
100
AcDbEntity
  8
DIM
100
AcDbText
  6
BYLAYER
 10
39.4059876884986
 20
36.6122833856465
 40
2
  1
M6x1.0x10L､ｺ､ｻｨ､ﾁｳｵｷ
  7
Font_0
 72
2
 11
59.4059876884986
 21
36.6122833856465
100
AcDbText
  0
LINE
  5
434
100
AcDbEntity
  8
CEN
100
AcDbLine
  6
BYLAYER
 10
-1.0521496279E-6
 20
19.0009881171584
 11
29.9999989478504
 21
19.0009881171584
  0
LINE
  5
435
100
AcDbEntity
  8
HIDDEN
100
AcDbLine
  6
BYLAYER
 10
14.9999989478504
 20
24.5009881171584
 11
14.9999989478504
 21
31.5009881171584
  0
LINE
  5
436
100
AcDbEntity
  8
HIDDEN
100
AcDbLine
  6
BYLAYER
 10
12.7999989478504
 20
24.0418213816098
 11
12.7999989478504
 21
31.3058651990313
  0
LINE
  5
437
100
AcDbEntity
  8
HIDDEN
100
AcDbLine
  6
BYLAYER
 10
11.9999989478504
 20
23.6107603458048
 11
11.9999989478504
 21
31.13564921667
  0
LINE
  5
438
100
AcDbEntity
  8
HIDDEN
100
AcDbLine
  6
BYLAYER
 10
17.1999989478504
 20
24.0418213816098
 11
17.1999989478504
 21
31.3058651990313
  0
LINE
  5
439
100
AcDbEntity
  8
HIDDEN
100
AcDbLine
  6
BYLAYER
 10
17.9999989478504
 20
23.6107603458048
 11
17.9999989478504
 21
31.13564921667
  0
LINE
  5
43A
100
AcDbEntity
  8
CEN
100
AcDbLine
  6
BYLAYER
 10
65.3497610654588
 20
31.5009881171584
 11
65.3497610654588
 21
24.5009881171584
  0
LINE
  5
43B
100
AcDbEntity
  8
BASE
100
AcDbLine
  6
BYLAYER
 10
62.3497610654588
 20
31.5009881171584
 11
62.3497610654588
 21
24.5009881171584
  0
LINE
  5
43C
100
AcDbEntity
  8
BASE
100
AcDbLine
  6
BYLAYER
 10
68.3497610654588
 20
31.5009881171584
 11
68.3497610654588
 21
24.5009881171584
  0
LINE
  5
43D
100
AcDbEntity
  8
BASE
100
AcDbLine
  6
BYLAYER
 10
56.8497610654588
 20
24.5009881171584
 11
56.3497610654588
 21
25.0009881171584
  0
LINE
  5
43E
100
AcDbEntity
  8
DIM
100
AcDbLine
  6
BYLAYER
 62
0
370
  -2
 10
52.3497610654587
 20
27.1664285856907
 11
52.3497610654587
 21
23.0349796425414
  0
LINE
  5
43F
100
AcDbEntity
  8
DIM
100
AcDbLine
  6
BYLAYER
 62
0
370
  -2
 10
56.3497610654587
 20
26.4384881171583
 11
56.3497610654587
 21
23.0349796425414
  0
LINE
  5
440
100
AcDbEntity
  8
DIM
100
AcDbLine
  6
BYLAYER
 62
0
370
  -2
 10
52.5297610654587
 20
23.2149796425414
 11
53.8697610654587
 21
23.2149796425414
  0
LINE
  5
441
100
AcDbEntity
  8
DIM
100
AcDbLine
  6
BYLAYER
 62
0
370
  -2
 10
56.1697610654587
 20
23.2149796425414
 11
54.8297610654587
 21
23.2149796425414
  0
SOLID
  5
442
100
AcDbEntity
  8
DIM
100
AcDbTrace
 10
52.3497610654587
 20
23.2149796425414
 30
0.0
 11
52.5297610654587
 21
23.1849796425414
 31
0.0
 12
52.5297610654587
 22
23.2449796425414
 32
0.0
 13
52.5297610654587
 23
23.2449796425414
 33
0.0
  0
SOLID
  5
443
100
AcDbEntity
  8
DIM
100
AcDbTrace
 10
56.1697610654587
 20
23.2449796425414
 30
0.0
 11
56.1697610654587
 21
23.1849796425414
 31
0.0
 12
56.3497610654587
 22
23.2149796425414
 32
0.0
 13
56.3497610654587
 23
23.2149796425414
 33
0.0
  0
TEXT
  5
444
100
AcDbEntity
  8
DIM
 62
0
100
AcDbText
  6
BYLAYER
 62
0
 10
54.0797610654587
 20
23.1249796425414
 40
0.18
  1
4.0000
  7
Font_0
 72
1
 11
54.3497610654587
 21
23.2149796425414
100
AcDbText
 73
2
  0
LINE
  5
445
100
AcDbEntity
  8
BASE
100
AcDbLine
  6
BYLAYER
 10
56.3497610654588
 20
31.0009881171584
 11
56.3497610654588
 21
28.0009881171584
  0
LINE
  5
446
100
AcDbEntity
  8
BASE
100
AcDbLine
  6
BYLAYER
 10
56.3497610654588
 20
31.0009881171584
 11
56.8497610654588
 21
31.5009881171584
  0
LINE
  5
447
100
AcDbEntity
  8
BASE
100
AcDbLine
  6
BYLAYER
 10
52.3497610654588
 20
27.5009881171584
 11
52.3497610654588
 21
27.2289285856908
  0
LINE
  5
448
100
AcDbEntity
  8
BASE
100
AcDbLine
  6
BYLAYER
 10
52.8497610654588
 20
28.0009881171584
 11
52.3497610654588
 21
27.5009881171584
  0
LINE
  5
449
100
AcDbEntity
  8
BASE
100
AcDbLine
  6
BYLAYER
 10
52.8497610654588
 20
28.0009881171584
 11
56.3497610654588
 21
28.0009881171584
  0
LINE
  5
44A
100
AcDbEntity
  8
BASE
100
AcDbLine
  6
BYLAYER
 10
56.3497610654588
 20
26.5009881171584
 11
56.3497610654588
 21
25.0009881171584
  0
LINE
  5
44B
100
AcDbEntity
  8
BASE
100
AcDbLine
  6
BYLAYER
 10
54.3497610654587
 20
26.5009881171584
 11
56.3497610654588
 21
26.5009881171584
  0
LINE
  5
44C
100
AcDbEntity
  8
BASE
100
AcDbLine
  6
BYLAYER
 10
54.3497610654588
 20
26.5009881171584
 11
52.3497610654588
 21
27.2289285856908
  0
LINE
  5
44D
100
AcDbEntity
  8
BASE
100
AcDbLine
  6
BYLAYER
 10
73.3497610654588
 20
25.0009881171584
 11
73.3497610654588
 21
13.0009881171584
  0
LINE
  5
44E
100
AcDbEntity
  8
BASE
100
AcDbLine
  6
BYLAYER
 10
73.3497610654588
 20
7.00098811715838
 11
73.3497610654588
 21
13.0009881171584
  0
LINE
  5
44F
100
AcDbEntity
  8
BASE
100
AcDbLine
  6
BYLAYER
 10
72.8497610654588
 20
6.50098811715838
 11
73.3497610654588
 21
7.00098811715838
  0
LINE
  5
450
100
AcDbEntity
  8
HIDDEN
100
AcDbLine
  6
BYLAYER
 10
72.8497610654588
 20
13.5009881171584
 11
73.3497610654588
 21
13.0009881171584
  0
LINE
  5
451
100
AcDbEntity
  8
BASE
100
AcDbLine
  6
BYLAYER
 10
72.8497610654588
 20
24.5009881171584
 11
73.3497610654588
 21
25.0009881171584
  0
LINE
  5
452
100
AcDbEntity
  8
BASE
100
AcDbLine
  6
BYLAYER
 10
72.8497610654588
 20
31.5009881171584
 11
73.3497610654588
 21
31.0009881171584
  0
LINE
  5
453
100
AcDbEntity
  8
BASE
100
AcDbLine
  6
BYLAYER
 10
73.3497610654588
 20
31.0009881171584
 11
73.3497610654588
 21
25.0009881171584
  0
ENDBLK
  5
454
100
AcDbEntity
  8
0
 67
     1
100
AcDbBlockEnd
  0
BLOCK
  5
455
100
AcDbEntity
  8
0
100
AcDbBlockBegin
  2
A
 70
    0
 10
0
 20
0
 30
0.0
  3
A
  1

  0
TEXT
  5
456
100
AcDbEntity
  8
0
100
AcDbText
  6
BYLAYER
 10
127.674651975441
 20
244.795661972877
 40
2.5
  1
a
  7
Font_0
100
AcDbText
  0
LWPOLYLINE
  5
457
100
AcDbEntity
  8
0
100
AcDbPolyline
  6
BYLAYER
370
0
 90
     3
 70
     1
 10
126.71643944311
  20
244.632620693086
 10
129.71643944311
  20
244.632620693086
 10
128.21643944311
  20
247.230696904439
  0
ENDBLK
  5
458
100
AcDbEntity
  8
0
 67
     1
100
AcDbBlockEnd
  0
BLOCK
  5
459
100
AcDbEntity
  8
0
100
AcDbBlockBegin
  2
B
 70
    0
 10
0
 20
0
 30
0.0
  3
B
  1

  0
LWPOLYLINE
  5
45A
100
AcDbEntity
  8
0
100
AcDbPolyline
  6
BYLAYER
370
0
 90
     3
 70
     1
 10
131.70249874082
  20
244.288443720077
 10
135.28174293015
  20
244.288443720077
 10
133.492120835485
  20
247.388160114384
  0
TEXT
  5
45B
100
AcDbEntity
  8
0
100
AcDbText
  6
BYLAYER
 10
132.758464625955
 20
244.383450143826
 40
2.5
  1
b
  7
Font_0
100
AcDbText
  0
ENDBLK
  5
45C
100
AcDbEntity
  8
0
 67
     1
100
AcDbBlockEnd
  0
BLOCK
  5
45D
100
AcDbEntity
  8
0
100
AcDbBlockBegin
  2
C
 70
    0
 10
0
 20
0
 30
0.0
  3
C
  1

  0
LWPOLYLINE
  5
45E
100
AcDbEntity
  8
0
100
AcDbPolyline
  6
BYLAYER
370
0
 90
     3
 70
     1
 10
135.509916074992
  20
244.473484482901
 10
139.001038434513
  20
244.473484482901
 10
137.255477254752
  20
247.496885133966
  0
TEXT
  5
45F
100
AcDbEntity
  8
0
100
AcDbText
  6
BYLAYER
 10
136.382181305809
 20
244.594791834341
 40
2.5
  1
c
  7
Font_0
100
AcDbText
  0
ENDBLK
  5
460
100
AcDbEntity
  8
0
 67
     1
100
AcDbBlockEnd
  0
BLOCK
  5
461
100
AcDbEntity
  8
0
100
AcDbBlockBegin
  2
D
 70
    0
 10
0
 20
0
 30
0.0
  3
D
  1

  0
LWPOLYLINE
  5
462
100
AcDbEntity
  8
0
100
AcDbPolyline
  6
BYLAYER
370
0
 90
     3
 70
     1
 10
140.763374439689
  20
244.465698913845
 10
144.291976798415
  20
244.465698913845
 10
142.527675619052
  20
247.521558196355
  0
TEXT
  5
463
100
AcDbEntity
  8
0
100
AcDbText
  6
BYLAYER
 10
141.593202675708
 20
244.519464650768
 40
2.5
  1
d
  7
Font_0
100
AcDbText
  0
ENDBLK
  5
464
100
AcDbEntity
  8
0
 67
     1
100
AcDbBlockEnd
  0
BLOCK
  5
465
100
AcDbEntity
  8
0
100
AcDbBlockBegin
  2
A4ｹﾏｮﾘ_JAME_
 70
    0
 10
0
 20
0
 30
0.0
  3
A4ｹﾏｮﾘ_JAME_
  1

  0
POINT
  5
466
100
AcDbEntity
  8
7475A
100
AcDbPoint
 10
289
 20
0
  0
TEXT
  5
467
100
AcDbEntity
  8
0
100
AcDbText
  6
BYLAYER
 10
3.82484782096731
 20
38.4479746826859
 40
5
  1
ｦCｦL､魘ﾁ :
  7
Font_0
100
AcDbText
  0
LINE
  5
468
100
AcDbEntity
  8
0
100
AcDbLine
  6
BYLAYER
 10
49.4
 20
12
 11
49.4
 21
6
  0
TEXT
  5
469
100
AcDbEntity
  8
TEXT
100
AcDbText
  6
BYLAYER
 10
129
 20
19
 40
3.5
  1
JAME
  7
Font_0
100
AcDbText
  0
TEXT
  5
46A
100
AcDbEntity
  8
TEXT
100
AcDbText
  6
BYLAYER
 10
179
 20
7
 40
3.5
 41
0.8
  1
20020101
  7
Font_0
100
AcDbText
  0
TEXT
  5
46B
100
AcDbEntity
  8
TEXT
100
AcDbText
  6
BYLAYER
 10
179
 20
19
 40
3.5
  1
M/M
  7
Font_0
100
AcDbText
  0
TEXT
  5
46C
100
AcDbEntity
  8
TEXT
100
AcDbText
  6
BYLAYER
 10
179
 20
25
 40
3.5
  1
1
  7
Font_0
100
AcDbText
  0
INSERT
  5
46D
100
AcDbEntity
  8
0
100
AcDbBlockReference
  6
CONTINUOUS
  2
JAME
 10
0
 20
0
 30
0.0
  0
ENDBLK
  5
46E
100
AcDbEntity
  8
0
 67
     1
100
AcDbBlockEnd
  0
BLOCK
  5
46F
100
AcDbEntity
  8
0
100
AcDbBlockBegin
  2
A$C32581AA9
 70
    0
 10
0
 20
0
 30
0.0
  3
A$C32581AA9
  1

  0
LINE
  5
470
100
AcDbEntity
  8
ｾﾉｪO
100
AcDbLine
  6
BYLAYER
 10
3.25093287170262
 20
71.7540838291134
 11
2.45093287170266
 21
71.7540838291134
  0
LINE
  5
471
100
AcDbEntity
  8
ｾﾉｪO
100
AcDbLine
  6
BYLAYER
 10
3.25093287170262
 20
64.6770418880442
 11
3.25093287170262
 21
64.7540838291134
  0
LINE
  5
472
100
AcDbEntity
  8
ｾﾉｪO
100
AcDbLine
  6
BYLAYER
 10
-1.0709021581E-6
 20
35.8770418880442
 11
9.7999989290978
 21
35.8770418880442
  0
LINE
  5
473
100
AcDbEntity
  8
ｾﾉｪO
100
AcDbLine
  6
BYLAYER
370
0
 10
3.25093287170262
 20
71.7540838291134
 11
3.25093287170262
 21
64.6770418880442
  0
ARC
  5
474
100
AcDbEntity
  8
ｾﾉｪO
100
AcDbCircle
  6
BYLAYER
370
0
 10
6.25093287170263
 20
64.6770418880442
 40
3.00000000000001
100
AcDbArc
 50
-180
 51
-90.0000000000003
  0
LINE
  5
475
100
AcDbEntity
  8
ｾﾉｪO
100
AcDbLine
  6
BYLAYER
370
0
 10
6.25093287170262
 20
61.6770418880442
 11
7.45093287170266
 21
61.6770418880442
  0
LINE
  5
476
100
AcDbEntity
  8
ｾﾉｪO
100
AcDbLine
  6
BYLAYER
370
0
 10
2.45093287170266
 20
71.7540838291134
 11
2.45093287170266
 21
64.6770418880442
  0
ARC
  5
477
100
AcDbEntity
  8
ｾﾉｪO
100
AcDbCircle
  6
BYLAYER
370
0
 10
6.25093287170264
 20
64.6770418880441
 40
3.79999999999998
100
AcDbArc
 50
-180.000000000001
 51
-90.0000000000003
  0
LINE
  5
478
100
AcDbEntity
  8
ｾﾉｪO
100
AcDbLine
  6
BYLAYER
370
0
 10
6.25093287170262
 20
60.8770418880442
 11
7.45093287170266
 21
60.8770418880442
  0
LINE
  5
479
100
AcDbEntity
  8
ｾﾉｪO
100
AcDbLine
  6
BYLAYER
370
0
 10
2.45093287170266
 20
-5.30250759E-8
 11
2.45093287170266
 21
7.07704188804416
  0
ARC
  5
47A
100
AcDbEntity
  8
ｾﾉｪO
100
AcDbCircle
  6
BYLAYER
370
0
 10
6.25093287170263
 20
7.0770418880442
 40
3.79999999999997
100
AcDbArc
 50
90.0000000000002
 51
-179.999999999999
  0
LINE
  5
47B
100
AcDbEntity
  8
ｾﾉｪO
100
AcDbLine
  6
BYLAYER
370
0
 10
6.25093287170262
 20
10.8770418880442
 11
7.45093287170266
 21
10.8770418880442
  0
LINE
  5
47C
100
AcDbEntity
  8
ｾﾉｪO
100
AcDbLine
  6
BYLAYER
370
0
 10
3.25093287170262
 20
-5.30250759E-8
 11
3.25093287170262
 21
7.07704188804416
  0
ARC
  5
47D
100
AcDbEntity
  8
ｾﾉｪO
100
AcDbCircle
  6
BYLAYER
370
0
 10
6.25093287170263
 20
7.07704188804415
 40
3.00000000000001
100
AcDbArc
 50
90.0000000000002
 51
-180
  0
LINE
  5
47E
100
AcDbEntity
  8
ｾﾉｪO
100
AcDbLine
  6
BYLAYER
370
0
 10
6.25093287170262
 20
10.0770418880442
 11
7.45093287170266
 21
10.0770418880442
  0
LINE
  5
47F
100
AcDbEntity
  8
ｾﾉｪO
100
AcDbLine
  6
BYLAYER
370
0
 10
7.45093287170266
 20
10.0770418880442
 11
7.45093287170266
 21
61.6770418880442
  0
LINE
  5
480
100
AcDbEntity
  8
ｾﾉｪO
100
AcDbLine
  6
BYLAYER
 10
3.25093287170262
 20
7.07704188804416
 11
3.25093287170262
 21
6.99999994697492
  0
LINE
  5
481
100
AcDbEntity
  8
ｾﾉｪO
100
AcDbLine
  6
BYLAYER
 10
3.25093287170262
 20
-5.30250759E-8
 11
2.45093287170266
 21
-5.30250759E-8
  0
LINE
  5
482
100
AcDbEntity
  8
ｾﾉｪO
100
AcDbLine
  6
BYLAYER
 10
2.45093287170266
 20
64.6770418880442
 11
2.45093287170266
 21
7.07704188804416
  0
ENDBLK
  5
483
100
AcDbEntity
  8
0
 67
     1
100
AcDbBlockEnd
  0
BLOCK
  5
484
100
AcDbEntity
  8
0
100
AcDbBlockBegin
  2
A$C71CC070F
 70
    0
 10
0
 20
0
 30
0.0
  3
A$C71CC070F
  1

  0
CIRCLE
  5
485
100
AcDbEntity
  8
ｾﾉｪO
100
AcDbCircle
  6
BYLAYER
 10
38.1458202304954
 20
41.0000014993231
 40
25
  0
ARC
  5
486
100
AcDbEntity
  8
ｾﾉｪO
100
AcDbCircle
  6
BYLAYER
 10
38.1458202304954
 20
41.0000014993231
 40
36
100
AcDbArc
 50
161.358784390518
 51
258.641215609482
  0
ARC
  5
487
100
AcDbEntity
  8
ｾﾉｪO
100
AcDbCircle
  6
BYLAYER
 10
38.1458202304954
 20
41.0000014993231
 40
36
100
AcDbArc
 50
281.358784390518
 51
18.6412156094817
  0
ARC
  5
488
100
AcDbEntity
  8
ｾﾉｪO
100
AcDbCircle
  6
BYLAYER
 10
38.1458202304954
 20
5.0000014993231
 40
5
100
AcDbArc
 50
196.231194229358
 51
343.768805770642
  0
ARC
  5
489
100
AcDbEntity
  8
ｾﾉｪO
100
AcDbCircle
  6
BYLAYER
 10
30.4646870394379
 20
2.76389038821196
 40
3
100
AcDbArc
 50
16.2311942293584
 51
78.6412156094819
  0
CIRCLE
  5
48A
100
AcDbEntity
  8
ｾﾉｪO
100
AcDbCircle
  6
BYLAYER
 10
38.1458202304954
 20
5.0000014993231
 40
1.75
  0
ARC
  5
48B
100
AcDbEntity
  8
ｾﾉｪO
100
AcDbCircle
  6
BYLAYER
 10
45.8269534215528
 20
2.76389038821196
 40
3
100
AcDbArc
 50
101.358784390518
 51
163.768805770642
  0
ARC
  5
48C
100
AcDbEntity
  8
ｾﾉｪO
100
AcDbCircle
  6
BYLAYER
 10
38.1458202304954
 20
41.0000014993231
 40
36
100
AcDbArc
 50
41.3587843905183
 51
138.641215609482
  0
CIRCLE
  5
48D
100
AcDbEntity
  8
ｾﾉｪO
100
AcDbCircle
  6
BYLAYER
 10
6.96890569425557
 20
59.0000014993231
 40
1.75
  0
ARC
  5
48E
100
AcDbEntity
  8
ｾﾉｪO
100
AcDbCircle
  6
BYLAYER
 10
6.96890569425557
 20
59.0000014993231
 40
5
100
AcDbArc
 50
76.2311942293594
 51
223.76880577064
  0
ARC
  5
48F
100
AcDbEntity
  8
ｾﾉｪO
100
AcDbCircle
  6
BYLAYER
 10
1.19181007081994
 20
53.4660005815711
 40
3
100
AcDbArc
 50
341.358784390517
 51
43.76880577064
  0
ARC
  5
490
100
AcDbEntity
  8
ｾﾉｪO
100
AcDbCircle
  6
BYLAYER
 10
8.87294326187748
 20
66.7701135281863
 40
3
100
AcDbArc
 50
256.231194229359
 51
318.641215609482
  0
ARC
  5
491
100
AcDbEntity
  8
ｾﾉｪO
100
AcDbCircle
  6
BYLAYER
 10
69.3227347667353
 20
59.0000014993231
 40
5
100
AcDbArc
 50
316.23119422936
 51
103.768805770641
  0
CIRCLE
  5
492
100
AcDbEntity
  8
ｾﾉｪO
100
AcDbCircle
  6
BYLAYER
 10
69.3227347667353
 20
59.0000014993231
 40
1.75
  0
ARC
  5
493
100
AcDbEntity
  8
ｾﾉｪO
100
AcDbCircle
  6
BYLAYER
 10
67.4186971991134
 20
66.7701135281863
 40
3
100
AcDbArc
 50
221.358784390518
 51
283.768805770641
  0
ARC
  5
494
100
AcDbEntity
  8
ｾﾉｪO
100
AcDbCircle
  6
BYLAYER
 10
75.0998303901708
 20
53.4660005815709
 40
3
100
AcDbArc
 50
136.23119422936
 51
198.641215609482
  0
LINE
  5
495
100
AcDbEntity
  8
ｾﾉｪO
100
AcDbLine
  6
BYLAYER
 10
35.9999962629785
 20
41.0000014993231
 11
40.2916441980123
 21
41.0000014993231
  0
LINE
  5
496
100
AcDbEntity
  8
ｾﾉｪO
100
AcDbLine
  6
BYLAYER
 10
38.1458202304954
 20
38.8541775318062
 11
38.1458202304954
 21
43.14582546684
  0
LINE
  5
497
100
AcDbEntity
  8
ｾﾉｪO
100
AcDbLine
  6
BYLAYER
 10
33.8541722954616
 20
41.0000014993231
 11
-3.7370215296E-6
 21
41.0000014993231
  0
LINE
  5
498
100
AcDbEntity
  8
ｾﾉｪO
100
AcDbLine
  6
BYLAYER
 10
42.4374681655293
 20
41.0000014993231
 11
76.2916441980123
 21
41.0000014993231
  0
LINE
  5
499
100
AcDbEntity
  8
ｾﾉｪO
100
AcDbLine
  6
BYLAYER
 10
38.1458202304954
 20
36.7083535642893
 11
38.1458202304954
 21
2.85417753180622
  0
LINE
  5
49A
100
AcDbEntity
  8
ｾﾉｪO
100
AcDbLine
  6
BYLAYER
 10
38.1458202304954
 20
45.2916494343569
 11
38.1458202304954
 21
79.14582546684
  0
ENDBLK
  5
49B
100
AcDbEntity
  8
0
 67
     1
100
AcDbBlockEnd
  0
BLOCK
  5
49C
100
AcDbEntity
  8
0
100
AcDbBlockBegin
  2
A$C566D5D50
 70
    0
 10
0
 20
0
 30
0.0
  3
A$C566D5D50
  1

  0
LINE
  5
49D
100
AcDbEntity
  8
ｭｷｽ�
100
AcDbLine
  6
BYLAYER
 10
29.5149896879855
 20
26.3500004570776
 11
29.5149896879855
 21
17.0403765113973
  0
LINE
  5
49E
100
AcDbEntity
  8
ｭｷｽ�
100
AcDbLine
  6
BYLAYER
 10
30.3149896879855
 20
26.3500004570776
 11
30.3149896879855
 21
17.8403765113973
  0
LINE
  5
49F
100
AcDbEntity
  8
ｭｷｽ�
100
AcDbLine
  6
BYLAYER
 10
31.5149896879855
 20
59.0403765113973
 11
31.5149896879855
 21
5.04037651139731
  0
LINE
  5
4A0
100
AcDbEntity
  8
ｭｷｽ�
100
AcDbLine
  6
BYLAYER
 10
1.51498968798552
 20
64.0000004570776
 11
1.51498968798558
 21
4.570775332E-7
  0
ARC
  5
4A1
100
AcDbEntity
  8
ｭｷｽ�
100
AcDbCircle
  6
BYLAYER
 10
28.5149896879855
 20
5.04037651139731
 40
2.2
100
AcDbArc
 50
270
 51
0
  0
ARC
  5
4A2
100
AcDbEntity
  8
ｭｷｽ�
100
AcDbCircle
  6
BYLAYER
 10
28.5149896879855
 20
5.04037651139731
 40
3
100
AcDbArc
 50
270
 51
0
  0
ARC
  5
4A3
100
AcDbEntity
  8
ｭｷｽ�
100
AcDbCircle
  6
BYLAYER
 10
30.3149896879855
 20
17.0403765113973
 40
0.8
100
AcDbArc
 50
180
 51
270
  0
LINE
  5
4A4
100
AcDbEntity
  8
ｭｷｽ�
100
AcDbLine
  6
BYLAYER
 10
7.06498968798547
 20
1.29037651139731
 11
25.5649896879855
 21
1.29037651139731
  0
LINE
  5
4A5
100
AcDbEntity
  8
ｭｷｽ�
100
AcDbLine
  6
BYLAYER
 10
1.51498968798552
 20
2.84037651139732
 11
4.81498968798547
 21
2.84037651139732
  0
LINE
  5
4A6
100
AcDbEntity
  8
ｭｷｽ�
100
AcDbLine
  6
BYLAYER
 10
2.31498968798547
 20
2.04037651139731
 11
4.81498968798547
 21
2.04037651139731
  0
LINE
  5
4A7
100
AcDbEntity
  8
ｭｷｽ�
100
AcDbLine
  6
BYLAYER
 10
2.31498968798547
 20
4.570775332E-7
 11
2.31498968798547
 21
2.04037651139731
  0
LINE
  5
4A8
100
AcDbEntity
  8
ｭｷｽ�
100
AcDbLine
  6
BYLAYER
 10
4.81498968798547
 20
2.04037651139731
 11
7.06498968798547
 21
1.29037651139731
  0
LINE
  5
4A9
100
AcDbEntity
  8
ｭｷｽ�
100
AcDbLine
  6
BYLAYER
 10
27.8149896879855
 20
2.04037651139731
 11
28.5149896879855
 21
2.04037651139731
  0
LINE
  5
4AA
100
AcDbEntity
  8
ｭｷｽ�
100
AcDbLine
  6
BYLAYER
 10
27.8149896879855
 20
2.84037651139732
 11
28.5149896879855
 21
2.84037651139732
  0
LINE
  5
4AB
100
AcDbEntity
  8
ｭｷｽ�
100
AcDbLine
  6
BYLAYER
 10
27.8149896879855
 20
2.04037651139731
 11
28.5149896879855
 21
2.04037651139731
  0
LINE
  5
4AC
100
AcDbEntity
  8
ｭｷｽ�
100
AcDbLine
  6
BYLAYER
 10
25.5649896879855
 20
1.29037651139731
 11
27.8149896879855
 21
2.04037651139731
  0
LINE
  5
4AD
100
AcDbEntity
  8
ｭｷｽ�
100
AcDbLine
  6
BYLAYER
 10
30.7149896879855
 20
16.2403765113973
 11
30.7149896879855
 21
5.04037651139731
  0
ARC
  5
4AE
100
AcDbEntity
  8
ｭｷｽ�
100
AcDbCircle
  6
BYLAYER
 10
28.5149896879855
 20
5.04037651139731
 40
3
100
AcDbArc
 50
0
 51
0
  0
ARC
  5
4AF
100
AcDbEntity
  8
ｭｷｽ�
100
AcDbCircle
  6
BYLAYER
 10
31.1149896879855
 20
17.8403765113973
 40
0.8
100
AcDbArc
 50
180
 51
270
  0
LINE
  5
4B0
100
AcDbEntity
  8
ｭｷｽ�
100
AcDbLine
  6
BYLAYER
 10
30.3149896879855
 20
16.2403765113973
 11
30.7149896879855
 21
16.2403765113973
  0
LINE
  5
4B1
100
AcDbEntity
  8
ｭｷｽ�
100
AcDbLine
  6
BYLAYER
 10
31.1149896879855
 20
17.0403765113973
 11
31.5149896879855
 21
17.0403765113973
  0
LINE
  5
4B2
100
AcDbEntity
  8
ｭｷｽ�
100
AcDbLine
  6
BYLAYER
 10
1.21685275E-8
 20
32.0000004570776
 11
33.0000000121685
 21
32.0000004570776
  0
LINE
  5
4B3
100
AcDbEntity
  8
ｭｷｽ�
100
AcDbLine
  6
BYLAYER
 10
30.3149896879855
 20
37.6500004570776
 11
30.3149896879855
 21
46.1596244027578
  0
LINE
  5
4B4
100
AcDbEntity
  8
ｭｷｽ�
100
AcDbLine
  6
BYLAYER
 10
29.5149896879855
 20
37.6500004570776
 11
29.5149896879855
 21
46.9596244027579
  0
LINE
  5
4B5
100
AcDbEntity
  8
ｭｷｽ�
100
AcDbLine
  6
BYLAYER
 10
25.5649896879855
 20
62.7096244027578
 11
27.8149896879855
 21
61.9596244027578
  0
ARC
  5
4B6
100
AcDbEntity
  8
ｭｷｽ�
100
AcDbCircle
  6
BYLAYER
 10
28.5149896879855
 20
58.9596244027578
 40
3
100
AcDbArc
 50
0
 51
90
  0
LINE
  5
4B7
100
AcDbEntity
  8
ｭｷｽ�
100
AcDbLine
  6
BYLAYER
 10
30.7149896879855
 20
47.7596244027579
 11
30.7149896879855
 21
58.9596244027578
  0
LINE
  5
4B8
100
AcDbEntity
  8
ｭｷｽ�
100
AcDbLine
  6
BYLAYER
 10
27.8149896879855
 20
61.9596244027578
 11
28.5149896879855
 21
61.9596244027578
  0
LINE
  5
4B9
100
AcDbEntity
  8
ｭｷｽ�
100
AcDbLine
  6
BYLAYER
 10
27.8149896879855
 20
61.1596244027578
 11
28.5149896879855
 21
61.1596244027578
  0
LINE
  5
4BA
100
AcDbEntity
  8
ｭｷｽ�
100
AcDbLine
  6
BYLAYER
 10
27.8149896879855
 20
61.9596244027578
 11
28.5149896879855
 21
61.9596244027578
  0
ARC
  5
4BB
100
AcDbEntity
  8
ｭｷｽ�
100
AcDbCircle
  6
BYLAYER
 10
28.5149896879855
 20
58.9596244027578
 40
2.2
100
AcDbArc
 50
0
 51
90
  0
ARC
  5
4BC
100
AcDbEntity
  8
ｭｷｽ�
100
AcDbCircle
  6
BYLAYER
 10
28.5149896879855
 20
58.9596244027578
 40
3
100
AcDbArc
 50
0
 51
0
  0
ARC
  5
4BD
100
AcDbEntity
  8
ｭｷｽ�
100
AcDbCircle
  6
BYLAYER
 10
30.3149896879855
 20
46.9596244027579
 40
0.8
100
AcDbArc
 50
90
 51
180
  0
LINE
  5
4BE
100
AcDbEntity
  8
ｭｷｽ�
100
AcDbLine
  6
BYLAYER
 10
31.1149896879855
 20
46.9596244027579
 11
31.5149896879855
 21
46.9596244027579
  0
LINE
  5
4BF
100
AcDbEntity
  8
ｭｷｽ�
100
AcDbLine
  6
BYLAYER
 10
30.3149896879855
 20
47.7596244027579
 11
30.7149896879855
 21
47.7596244027579
  0
ARC
  5
4C0
100
AcDbEntity
  8
ｭｷｽ�
100
AcDbCircle
  6
BYLAYER
 10
31.1149896879855
 20
46.1596244027578
 40
0.8
100
AcDbArc
 50
90
 51
180
  0
LINE
  5
4C1
100
AcDbEntity
  8
ｭｷｽ�
100
AcDbLine
  6
BYLAYER
 10
7.06498968798547
 20
62.7096244027578
 11
25.5649896879855
 21
62.7096244027578
  0
LINE
  5
4C2
100
AcDbEntity
  8
ｭｷｽ�
100
AcDbLine
  6
BYLAYER
 10
4.81498968798547
 20
61.9596244027578
 11
7.06498968798547
 21
62.7096244027578
  0
LINE
  5
4C3
100
AcDbEntity
  8
ｭｷｽ�
100
AcDbLine
  6
BYLAYER
 10
2.31498968798547
 20
64.0000004570776
 11
2.31498968798547
 21
61.9596244027578
  0
LINE
  5
4C4
100
AcDbEntity
  8
ｭｷｽ�
100
AcDbLine
  6
BYLAYER
 10
2.31498968798547
 20
61.9596244027578
 11
4.81498968798547
 21
61.9596244027578
  0
LINE
  5
4C5
100
AcDbEntity
  8
ｭｷｽ�
100
AcDbLine
  6
BYLAYER
 10
1.51498968798552
 20
61.1596244027578
 11
4.81498968798547
 21
61.1596244027578
  0
LINE
  5
4C6
100
AcDbEntity
  8
ｭｷｽ�
100
AcDbLine
  6
BYLAYER
 10
1.51498968798552
 20
64.0000004570776
 11
2.31498968798547
 21
64.0000004570776
  0
LINE
  5
4C7
100
AcDbEntity
  8
ｭｷｽ�
100
AcDbLine
  6
BYLAYER
 10
1.51498968798558
 20
4.570775332E-7
 11
2.31498968798547
 21
4.570775332E-7
  0
LINE
  5
4C8
100
AcDbEntity
  8
ｭｷｽ�
100
AcDbLine
  6
BYLAYER
 10
4.81498968798547
 20
61.9596244027578
 11
4.81498968798547
 21
2.04037651139731
  0
LINE
  5
4C9
100
AcDbEntity
  8
ｭｷｽ�
100
AcDbLine
  6
BYLAYER
 10
27.8149896879855
 20
61.9596244027578
 11
27.8149896879855
 21
2.04037651139731
  0
LINE
  5
4CA
100
AcDbEntity
  8
ｭｷｽ�
100
AcDbLine
  6
BYLAYER
 10
7.06498968798553
 20
61.9699778662389
 11
25.5649896879855
 21
61.9699778662389
  0
LINE
  5
4CB
100
AcDbEntity
  8
ｭｷｽ�
100
AcDbLine
  6
BYLAYER
 10
7.06498968798553
 20
61.5190886378706
 11
25.5649896879855
 21
61.5190886378706
  0
LINE
  5
4CC
100
AcDbEntity
  8
ｭｷｽ�
100
AcDbLine
  6
BYLAYER
 10
7.06498968798553
 20
60.713725403478
 11
25.5649896879855
 21
60.713725403478
  0
LINE
  5
4CD
100
AcDbEntity
  8
ｭｷｽ�
100
AcDbLine
  6
BYLAYER
 10
7.06498968798553
 20
57.4127194347316
 11
25.5649896879854
 21
57.4127194347316
  0
LINE
  5
4CE
100
AcDbEntity
  8
ｭｷｽ�
100
AcDbLine
  6
BYLAYER
 10
7.06498968798553
 20
56.646773482678
 11
25.5649896879854
 21
56.646773482678
  0
LINE
  5
4CF
100
AcDbEntity
  8
ｭｷｽ�
100
AcDbLine
  6
BYLAYER
 10
4.81498968798547
 20
61.2199778662389
 11
7.06498968798547
 21
61.9699778662389
  0
LINE
  5
4D0
100
AcDbEntity
  8
ｭｷｽ�
100
AcDbLine
  6
BYLAYER
 10
4.81498968798547
 20
60.7690886378706
 11
7.06498968798547
 21
61.5190886378706
  0
LINE
  5
4D1
100
AcDbEntity
  8
ｭｷｽ�
100
AcDbLine
  6
BYLAYER
 10
4.81498968798547
 20
59.963725403478
 11
7.06498968798547
 21
60.713725403478
  0
LINE
  5
4D2
100
AcDbEntity
  8
ｭｷｽ�
100
AcDbLine
  6
BYLAYER
 10
4.81498968798547
 20
56.6627194347316
 11
7.06498968798547
 21
57.4127194347316
  0
LINE
  5
4D3
100
AcDbEntity
  8
ｭｷｽ�
100
AcDbLine
  6
BYLAYER
 10
4.81498968798547
 20
55.896773482678
 11
7.06498968798547
 21
56.646773482678
  0
LINE
  5
4D4
100
AcDbEntity
  8
ｭｷｽ�
100
AcDbLine
  6
BYLAYER
 10
27.8149896879855
 20
55.896773482678
 11
25.5649896879855
 21
56.646773482678
  0
LINE
  5
4D5
100
AcDbEntity
  8
ｭｷｽ�
100
AcDbLine
  6
BYLAYER
 10
27.8149896879855
 20
56.6627194347316
 11
25.5649896879855
 21
57.4127194347316
  0
LINE
  5
4D6
100
AcDbEntity
  8
ｭｷｽ�
100
AcDbLine
  6
BYLAYER
 10
27.8149896879855
 20
59.963725403478
 11
25.5649896879855
 21
60.713725403478
  0
LINE
  5
4D7
100
AcDbEntity
  8
ｭｷｽ�
100
AcDbLine
  6
BYLAYER
 10
27.8149896879855
 20
60.7690886378706
 11
25.5649896879855
 21
61.5190886378706
  0
LINE
  5
4D8
100
AcDbEntity
  8
ｭｷｽ�
100
AcDbLine
  6
BYLAYER
 10
27.8149896879855
 20
61.2199778662389
 11
25.5649896879855
 21
61.9699778662389
  0
LINE
  5
4D9
100
AcDbEntity
  8
ｭｷｽ�
100
AcDbLine
  6
BYLAYER
 10
7.06498968798553
 20
7.35322743147715
 11
25.5649896879854
 21
7.35322743147714
  0
LINE
  5
4DA
100
AcDbEntity
  8
ｭｷｽ�
100
AcDbLine
  6
BYLAYER
 10
7.06498968798553
 20
6.58728147942355
 11
25.5649896879854
 21
6.58728147942354
  0
LINE
  5
4DB
100
AcDbEntity
  8
ｭｷｽ�
100
AcDbLine
  6
BYLAYER
 10
4.81498968798547
 20
8.10322743147715
 11
7.06498968798547
 21
7.35322743147715
  0
LINE
  5
4DC
100
AcDbEntity
  8
ｭｷｽ�
100
AcDbLine
  6
BYLAYER
 10
4.81498968798547
 20
7.33728147942354
 11
7.06498968798547
 21
6.58728147942354
  0
LINE
  5
4DD
100
AcDbEntity
  8
ｭｷｽ�
100
AcDbLine
  6
BYLAYER
 10
27.8149896879855
 20
7.33728147942354
 11
25.5649896879855
 21
6.58728147942354
  0
LINE
  5
4DE
100
AcDbEntity
  8
ｭｷｽ�
100
AcDbLine
  6
BYLAYER
 10
27.8149896879855
 20
8.10322743147715
 11
25.5649896879855
 21
7.35322743147715
  0
LINE
  5
4DF
100
AcDbEntity
  8
ｭｷｽ�
100
AcDbLine
  6
BYLAYER
 10
7.06498968798553
 20
3.28627551067711
 11
25.5649896879855
 21
3.28627551067711
  0
LINE
  5
4E0
100
AcDbEntity
  8
ｭｷｽ�
100
AcDbLine
  6
BYLAYER
 10
7.06498968798553
 20
2.48091227628453
 11
25.5649896879855
 21
2.48091227628453
  0
LINE
  5
4E1
100
AcDbEntity
  8
ｭｷｽ�
100
AcDbLine
  6
BYLAYER
 10
7.06498968798553
 20
2.03002304791625
 11
25.5649896879855
 21
2.03002304791625
  0
LINE
  5
4E2
100
AcDbEntity
  8
ｭｷｽ�
100
AcDbLine
  6
BYLAYER
 10
4.81498968798547
 20
4.03627551067711
 11
7.06498968798547
 21
3.28627551067711
  0
LINE
  5
4E3
100
AcDbEntity
  8
ｭｷｽ�
100
AcDbLine
  6
BYLAYER
 10
4.81498968798547
 20
3.23091227628453
 11
7.06498968798547
 21
2.48091227628453
  0
LINE
  5
4E4
100
AcDbEntity
  8
ｭｷｽ�
100
AcDbLine
  6
BYLAYER
 10
4.81498968798547
 20
2.78002304791625
 11
7.06498968798547
 21
2.03002304791625
  0
LINE
  5
4E5
100
AcDbEntity
  8
ｭｷｽ�
100
AcDbLine
  6
BYLAYER
 10
27.8149896879855
 20
4.03627551067711
 11
25.5649896879855
 21
3.28627551067711
  0
LINE
  5
4E6
100
AcDbEntity
  8
ｭｷｽ�
100
AcDbLine
  6
BYLAYER
 10
27.8149896879855
 20
2.78002304791625
 11
25.5649896879855
 21
2.03002304791625
  0
LINE
  5
4E7
100
AcDbEntity
  8
ｭｷｽ�
100
AcDbLine
  6
BYLAYER
 10
27.8149896879855
 20
3.23091227628453
 11
25.5649896879855
 21
2.48091227628453
  0
LINE
  5
4E8
100
AcDbEntity
  8
ｭｷｽ�
100
AcDbLine
  6
BYLAYER
 10
17.5149896879855
 20
39.5000004570776
 11
17.5149896879855
 21
24.5000004570776
  0
LINE
  5
4E9
100
AcDbEntity
  8
ｭｷｽ�
100
AcDbLine
  6
BYLAYER
 10
29.5149896879855
 20
40.0000004570776
 11
29.5149896879855
 21
37.6250004570776
  0
LINE
  5
4EA
100
AcDbEntity
  8
ｭｷｽ�
100
AcDbLine
  6
BYLAYER
 10
29.5149896879855
 20
40.0000004570776
 11
18.0149896879855
 21
40.0000004570776
  0
LINE
  5
4EB
100
AcDbEntity
  8
ｭｷｽ�
100
AcDbLine
  6
BYLAYER
 10
30.3149896879855
 20
36.7500004570776
 11
29.5149896879855
 21
36.7500004570776
  0
LINE
  5
4EC
100
AcDbEntity
  8
ｭｷｽ�
100
AcDbLine
  6
BYLAYER
 10
27.9272764477141
 20
34.0000004570776
 11
18.0149896879855
 21
34.0000004570776
  0
LINE
  5
4ED
100
AcDbEntity
  8
ｭｷｽ�
100
AcDbLine
  6
BYLAYER
 10
30.3149896879855
 20
27.2500004570776
 11
29.5149896879855
 21
27.2500004570776
  0
LINE
  5
4EE
100
AcDbEntity
  8
ｭｷｽ�
100
AcDbLine
  6
BYLAYER
 10
27.9272764477141
 20
30.0000004570776
 11
18.0149896879855
 21
30.0000004570776
  0
LINE
  5
4EF
100
AcDbEntity
  8
ｭｷｽ�
100
AcDbLine
  6
BYLAYER
 10
29.5149896879855
 20
24.0000004570776
 11
18.0149896879855
 21
24.0000004570776
  0
LINE
  5
4F0
100
AcDbEntity
  8
ｭｷｽ�
100
AcDbLine
  6
BYLAYER
 10
29.5149896879855
 20
26.3500004570776
 11
29.5149896879855
 21
24.0000004570776
  0
LINE
  5
4F1
100
AcDbEntity
  8
ｭｷｽ�
100
AcDbLine
  6
BYLAYER
 10
18.0149896879855
 20
40.0000004570776
 11
17.5149896879855
 21
39.5000004570776
  0
LINE
  5
4F2
100
AcDbEntity
  8
ｭｷｽ�
100
AcDbLine
  6
BYLAYER
 10
17.5149896879855
 20
24.5000004570776
 11
18.0149896879855
 21
24.0000004570776
  0
LINE
  5
4F3
100
AcDbEntity
  8
ｭｷｽ�
100
AcDbLine
  6
BYLAYER
 10
18.0149896879855
 20
30.0000004570776
 11
17.5149896879855
 21
29.5000004570776
  0
LINE
  5
4F4
100
AcDbEntity
  8
ｭｷｽ�
100
AcDbLine
  6
BYLAYER
 10
18.0149896879855
 20
34.0000004570776
 11
17.5149896879855
 21
34.5000004570776
  0
LINE
  5
4F5
100
AcDbEntity
  8
ｭｷｽ�
100
AcDbLine
  6
BYLAYER
 10
22.5149896879855
 20
40.0000004570776
 11
22.5149896879855
 21
34.0000004570776
  0
LINE
  5
4F6
100
AcDbEntity
  8
ｭｷｽ�
100
AcDbLine
  6
BYLAYER
 10
21.0149896879855
 20
40.0000004570776
 11
21.0149896879855
 21
34.0000004570776
  0
LINE
  5
4F7
100
AcDbEntity
  8
ｭｷｽ�
100
AcDbLine
  6
BYLAYER
 10
24.0149896879855
 20
40.0000004570776
 11
24.0149896879855
 21
34.0000004570776
  0
LINE
  5
4F8
100
AcDbEntity
  8
ｭｷｽ�
100
AcDbLine
  6
BYLAYER
 10
29.5149896879855
 20
36.7500004570776
 11
27.9272764477141
 21
34.0000004570776
  0
LINE
  5
4F9
100
AcDbEntity
  8
ｭｷｽ�
100
AcDbLine
  6
BYLAYER
 10
29.5149896879855
 20
27.2500004570776
 11
27.9272764477141
 21
30.0000004570776
  0
ARC
  5
4FA
100
AcDbEntity
  8
ｭｷｽ�
100
AcDbCircle
  6
BYLAYER
 10
30.3149896879855
 20
37.6500004570776
 40
0.900000000000006
100
AcDbArc
 50
270
 51
90
  0
ARC
  5
4FB
100
AcDbEntity
  8
ｭｷｽ�
100
AcDbCircle
  6
BYLAYER
 10
30.3149896879855
 20
26.3500004570776
 40
0.900000000000006
100
AcDbArc
 50
270
 51
90
  0
LINE
  5
4FC
100
AcDbEntity
  8
ｭｷｽ�
100
AcDbLine
  6
BYLAYER
 10
29.5149896879855
 20
37.6500004570776
 11
30.3149896879855
 21
37.6500004570776
  0
LINE
  5
4FD
100
AcDbEntity
  8
ｭｷｽ�
100
AcDbLine
  6
BYLAYER
 10
29.5149896879855
 20
26.3500004570776
 11
30.3149896879855
 21
26.3500004570776
  0
LINE
  5
4FE
100
AcDbEntity
  8
ｭｷｽ�
100
AcDbLine
  6
BYLAYER
 10
18.0149896879855
 20
34.0000004570776
 11
18.0149896879855
 21
30.0000004570776
  0
LINE
  5
4FF
100
AcDbEntity
  8
ｭｷｽ�
100
AcDbLine
  6
BYLAYER
 10
27.9272764477141
 20
34.0000004570776
 11
27.9272764477141
 21
30.0000004570776
  0
LINE
  5
500
100
AcDbEntity
  8
ｭｷｽ�
100
AcDbLine
  6
BYLAYER
 10
29.5149896879855
 20
36.7500004570776
 11
29.5149896879855
 21
27.2500004570776
  0
LINE
  5
501
100
AcDbEntity
  8
ｭｷｽ�
100
AcDbLine
  6
BYLAYER
 10
30.3149896879855
 20
36.7500004570776
 11
30.3149896879855
 21
27.2500004570776
  0
LINE
  5
502
100
AcDbEntity
  8
ｭｷｽ�
100
AcDbLine
  6
BYLAYER
 10
31.2149896879855
 20
37.6500004570776
 11
31.2149896879855
 21
26.3500004570776
  0
LINE
  5
503
100
AcDbEntity
  8
0
100
AcDbLine
  6
BYLAYER
 10
24.0149896879855
 20
37.0000004570776
 11
22.5149896879855
 21
37.0000004570776
  0
LINE
  5
504
100
AcDbEntity
  8
0
100
AcDbLine
  6
BYLAYER
 10
22.5149896879855
 20
37.0000004570776
 11
21.0149896879855
 21
37.0000004570776
  0
LINE
  5
505
100
AcDbEntity
  8
0
100
AcDbLine
  6
BYLAYER
 10
24.0149896879855
 20
38.0000004570776
 11
22.5149896879855
 21
38.0000004570776
  0
LINE
  5
506
100
AcDbEntity
  8
0
100
AcDbLine
  6
BYLAYER
 10
22.5149896879855
 20
38.0000004570776
 11
21.0149896879855
 21
38.0000004570776
  0
LINE
  5
507
100
AcDbEntity
  8
0
100
AcDbLine
  6
BYLAYER
 10
24.0149896879855
 20
39.0000004570776
 11
22.5149896879855
 21
39.0000004570776
  0
LINE
  5
508
100
AcDbEntity
  8
0
100
AcDbLine
  6
BYLAYER
 10
22.5149896879855
 20
39.0000004570776
 11
21.0149896879855
 21
39.0000004570776
  0
LINE
  5
509
100
AcDbEntity
  8
0
100
AcDbLine
  6
BYLAYER
 10
24.0149896879855
 20
36.0000004570776
 11
22.5149896879855
 21
36.0000004570776
  0
LINE
  5
50A
100
AcDbEntity
  8
0
100
AcDbLine
  6
BYLAYER
 10
22.5149896879855
 20
36.0000004570776
 11
21.0149896879855
 21
36.0000004570776
  0
LINE
  5
50B
100
AcDbEntity
  8
0
100
AcDbLine
  6
BYLAYER
 10
24.0149896879855
 20
35.0000004570776
 11
22.5149896879855
 21
35.0000004570776
  0
LINE
  5
50C
100
AcDbEntity
  8
0
100
AcDbLine
  6
BYLAYER
 10
22.5149896879855
 20
35.0000004570776
 11
21.0149896879855
 21
35.0000004570776
  0
LINE
  5
50D
100
AcDbEntity
  8
0
100
AcDbLine
  6
BYLAYER
 10
24.0149896879855
 20
36.5000004570776
 11
23.7649896879855
 21
36.5000004570776
  0
LINE
  5
50E
100
AcDbEntity
  8
0
100
AcDbLine
  6
BYLAYER
 10
23.5149896879855
 20
36.5000004570776
 11
23.0149896879855
 21
36.5000004570776
  0
LINE
  5
50F
100
AcDbEntity
  8
0
100
AcDbLine
  6
BYLAYER
 10
22.7649896879855
 20
36.5000004570776
 11
22.5149896879855
 21
36.5000004570776
  0
LINE
  5
510
100
AcDbEntity
  8
0
100
AcDbLine
  6
BYLAYER
 10
22.5149896879855
 20
36.5000004570776
 11
22.2649896879855
 21
36.5000004570776
  0
LINE
  5
511
100
AcDbEntity
  8
0
100
AcDbLine
  6
BYLAYER
 10
22.0149896879855
 20
36.5000004570776
 11
21.5149896879855
 21
36.5000004570776
  0
LINE
  5
512
100
AcDbEntity
  8
0
100
AcDbLine
  6
BYLAYER
 10
21.2649896879855
 20
36.5000004570776
 11
21.0149896879855
 21
36.5000004570776
  0
LINE
  5
513
100
AcDbEntity
  8
0
100
AcDbLine
  6
BYLAYER
 10
24.0149896879855
 20
37.5000004570776
 11
23.7649896879855
 21
37.5000004570776
  0
LINE
  5
514
100
AcDbEntity
  8
0
100
AcDbLine
  6
BYLAYER
 10
23.5149896879855
 20
37.5000004570776
 11
23.0149896879855
 21
37.5000004570776
  0
LINE
  5
515
100
AcDbEntity
  8
0
100
AcDbLine
  6
BYLAYER
 10
22.7649896879855
 20
37.5000004570776
 11
22.5149896879855
 21
37.5000004570776
  0
LINE
  5
516
100
AcDbEntity
  8
0
100
AcDbLine
  6
BYLAYER
 10
22.5149896879855
 20
37.5000004570776
 11
22.2649896879855
 21
37.5000004570776
  0
LINE
  5
517
100
AcDbEntity
  8
0
100
AcDbLine
  6
BYLAYER
 10
22.0149896879855
 20
37.5000004570776
 11
21.5149896879855
 21
37.5000004570776
  0
LINE
  5
518
100
AcDbEntity
  8
0
100
AcDbLine
  6
BYLAYER
 10
21.2649896879855
 20
37.5000004570776
 11
21.0149896879855
 21
37.5000004570776
  0
LINE
  5
519
100
AcDbEntity
  8
0
100
AcDbLine
  6
BYLAYER
 10
24.0149896879855
 20
38.5000004570776
 11
23.7649896879855
 21
38.5000004570776
  0
LINE
  5
51A
100
AcDbEntity
  8
0
100
AcDbLine
  6
BYLAYER
 10
23.5149896879855
 20
38.5000004570776
 11
23.0149896879855
 21
38.5000004570776
  0
LINE
  5
51B
100
AcDbEntity
  8
0
100
AcDbLine
  6
BYLAYER
 10
22.7649896879855
 20
38.5000004570776
 11
22.5149896879855
 21
38.5000004570776
  0
LINE
  5
51C
100
AcDbEntity
  8
0
100
AcDbLine
  6
BYLAYER
 10
22.5149896879855
 20
38.5000004570776
 11
22.2649896879855
 21
38.5000004570776
  0
LINE
  5
51D
100
AcDbEntity
  8
0
100
AcDbLine
  6
BYLAYER
 10
22.0149896879855
 20
38.5000004570776
 11
21.5149896879855
 21
38.5000004570776
  0
LINE
  5
51E
100
AcDbEntity
  8
0
100
AcDbLine
  6
BYLAYER
 10
21.2649896879855
 20
38.5000004570776
 11
21.0149896879855
 21
38.5000004570776
  0
LINE
  5
51F
100
AcDbEntity
  8
0
100
AcDbLine
  6
BYLAYER
 10
24.0149896879855
 20
39.5000004570776
 11
23.7649896879855
 21
39.5000004570776
  0
LINE
  5
520
100
AcDbEntity
  8
0
100
AcDbLine
  6
BYLAYER
 10
23.5149896879855
 20
39.5000004570776
 11
23.0149896879855
 21
39.5000004570776
  0
LINE
  5
521
100
AcDbEntity
  8
0
100
AcDbLine
  6
BYLAYER
 10
22.7649896879855
 20
39.5000004570776
 11
22.5149896879855
 21
39.5000004570776
  0
LINE
  5
522
100
AcDbEntity
  8
0
100
AcDbLine
  6
BYLAYER
 10
22.5149896879855
 20
39.5000004570776
 11
22.2649896879855
 21
39.5000004570776
  0
LINE
  5
523
100
AcDbEntity
  8
0
100
AcDbLine
  6
BYLAYER
 10
22.0149896879855
 20
39.5000004570776
 11
21.5149896879855
 21
39.5000004570776
  0
LINE
  5
524
100
AcDbEntity
  8
0
100
AcDbLine
  6
BYLAYER
 10
21.2649896879855
 20
39.5000004570776
 11
21.0149896879855
 21
39.5000004570776
  0
LINE
  5
525
100
AcDbEntity
  8
0
100
AcDbLine
  6
BYLAYER
 10
24.0149896879855
 20
35.5000004570776
 11
23.7649896879855
 21
35.5000004570776
  0
LINE
  5
526
100
AcDbEntity
  8
0
100
AcDbLine
  6
BYLAYER
 10
23.5149896879855
 20
35.5000004570776
 11
23.0149896879855
 21
35.5000004570776
  0
LINE
  5
527
100
AcDbEntity
  8
0
100
AcDbLine
  6
BYLAYER
 10
22.7649896879855
 20
35.5000004570776
 11
22.5149896879855
 21
35.5000004570776
  0
LINE
  5
528
100
AcDbEntity
  8
0
100
AcDbLine
  6
BYLAYER
 10
22.5149896879855
 20
35.5000004570776
 11
22.2649896879855
 21
35.5000004570776
  0
LINE
  5
529
100
AcDbEntity
  8
0
100
AcDbLine
  6
BYLAYER
 10
22.0149896879855
 20
35.5000004570776
 11
21.5149896879855
 21
35.5000004570776
  0
LINE
  5
52A
100
AcDbEntity
  8
0
100
AcDbLine
  6
BYLAYER
 10
21.2649896879855
 20
35.5000004570776
 11
21.0149896879855
 21
35.5000004570776
  0
LINE
  5
52B
100
AcDbEntity
  8
0
100
AcDbLine
  6
BYLAYER
 10
24.0149896879855
 20
34.5000004570776
 11
23.7649896879855
 21
34.5000004570776
  0
LINE
  5
52C
100
AcDbEntity
  8
0
100
AcDbLine
  6
BYLAYER
 10
23.5149896879855
 20
34.5000004570776
 11
23.0149896879855
 21
34.5000004570776
  0
LINE
  5
52D
100
AcDbEntity
  8
0
100
AcDbLine
  6
BYLAYER
 10
22.7649896879855
 20
34.5000004570776
 11
22.5149896879855
 21
34.5000004570776
  0
LINE
  5
52E
100
AcDbEntity
  8
0
100
AcDbLine
  6
BYLAYER
 10
22.5149896879855
 20
34.5000004570776
 11
22.2649896879855
 21
34.5000004570776
  0
LINE
  5
52F
100
AcDbEntity
  8
0
100
AcDbLine
  6
BYLAYER
 10
22.0149896879855
 20
34.5000004570776
 11
21.5149896879855
 21
34.5000004570776
  0
LINE
  5
530
100
AcDbEntity
  8
0
100
AcDbLine
  6
BYLAYER
 10
21.2649896879855
 20
34.5000004570776
 11
21.0149896879855
 21
34.5000004570776
  0
ENDBLK
  5
531
100
AcDbEntity
  8
0
 67
     1
100
AcDbBlockEnd
  0
BLOCK
  5
532
100
AcDbEntity
  8
0
100
AcDbBlockBegin
  2
A$C425C5C0B
 70
    0
 10
0
 20
0
 30
0.0
  3
A$C425C5C0B
  1

  0
ARC
  5
533
100
AcDbEntity
  8
ｭｷｽ�
100
AcDbCircle
  6
BYLAYER
 10
56.9955695636146
 20
24.194580094443
 40
5.5
100
AcDbArc
 50
9.41802721995394
 51
90.043291498876
  0
ARC
  5
534
100
AcDbEntity
  8
ｭｷｽ�
100
AcDbCircle
  6
BYLAYER
 10
56.9914138772594
 20
24.194580094443
 40
6.3
100
AcDbArc
 50
8.21321070173798
 51
90
  0
CIRCLE
  5
535
100
AcDbEntity
  8
ｭｷｽ�
100
AcDbCircle
  6
BYLAYER
 10
33.7077086037144
 20
33.7077057161069
 40
32
  0
CIRCLE
  5
536
100
AcDbEntity
  8
ｭｷｽ�
100
AcDbCircle
  6
BYLAYER
 10
33.7077086037144
 20
33.7077057161069
 40
15.8
  0
CIRCLE
  5
537
100
AcDbEntity
  8
ｭｷｽ�
100
AcDbCircle
  6
BYLAYER
 10
33.7077086037144
 20
33.7077057161069
 40
29.2
  0
ARC
  5
538
100
AcDbEntity
  8
ｭｷｽ�
100
AcDbCircle
  6
BYLAYER
 10
24.1945829820504
 20
10.4198447562067
 40
5.5
100
AcDbArc
 50
279.418027219954
 51
0.0432914988751858
  0
ARC
  5
539
100
AcDbEntity
  8
ｭｷｽ�
100
AcDbCircle
  6
BYLAYER
 10
24.1945829820504
 20
10.4240004425618
 40
6.3
100
AcDbArc
 50
278.213210701738
 51
0
  0
ARC
  5
53A
100
AcDbEntity
  8
ｭｷｽ�
100
AcDbCircle
  6
BYLAYER
 10
9.27575838089447
 20
27.7157247839898
 40
5.5
100
AcDbArc
 50
225.418027219954
 51
306.043291498876
  0
ARC
  5
53B
100
AcDbEntity
  8
ｭｷｽ�
100
AcDbCircle
  6
BYLAYER
 10
9.2791204017791
 20
27.7181674351425
 40
6.3
100
AcDbArc
 50
224.213210701738
 51
305.999999999999
  0
LINE
  5
53C
100
AcDbEntity
  8
ｭｷｽ�
100
AcDbLine
  6
BYLAYER
 10
4.76359639044364
 20
23.3249860249282
 11
5.415148933712
 21
23.7983666568427
  0
ARC
  5
53D
100
AcDbEntity
  8
ｭｷｽ�
100
AcDbCircle
  6
BYLAYER
 10
12.3256097276503
 20
20.4624674014111
 40
6.3
100
AcDbArc
 50
242.213210701737
 51
324.000000000001
  0
ARC
  5
53E
100
AcDbEntity
  8
ｭｷｽ�
100
AcDbCircle
  6
BYLAYER
 10
17.4638436916465
 20
14.4993512863361
 40
5.5
100
AcDbArc
 50
261.418027219955
 51
342.043291498876
  0
ARC
  5
53F
100
AcDbEntity
  8
ｭｷｽ�
100
AcDbCircle
  6
BYLAYER
 10
17.4651278693535
 20
14.5033035789239
 40
6.3
100
AcDbArc
 50
260.213210701738
 51
341.999999999999
  0
LINE
  5
540
100
AcDbEntity
  8
ｭｷｽ�
100
AcDbLine
  6
BYLAYER
 10
16.3942394492444
 20
8.29498673845289
 11
16.6431103753165
 21
9.06093269050648
  0
LINE
  5
541
100
AcDbEntity
  8
ｭｷｽ�
100
AcDbLine
  6
BYLAYER
 10
25.0945829820504
 20
4.18861753531388
 11
25.0945829820504
 21
4.99398076970647
  0
LINE
  5
542
100
AcDbEntity
  8
ｭｷｽ�
100
AcDbLine
  6
BYLAYER
 10
22.6959372154755
 20
12.8037105938824
 11
23.4567839220129
 21
12.5564965143618
  0
LINE
  5
543
100
AcDbEntity
  8
ｭｷｽ�
100
AcDbLine
  6
BYLAYER
 10
16.7752019258789
 20
17.2296494356508
 11
17.4224167922124
 21
16.7594203119685
  0
ARC
  5
544
100
AcDbEntity
  8
ｭｷｽ�
100
AcDbCircle
  6
BYLAYER
 10
12.3231670764975
 20
20.4591053805264
 40
5.5
100
AcDbArc
 50
243.418027219955
 51
324.043291498875
  0
LINE
  5
545
100
AcDbEntity
  8
ｭｷｽ�
100
AcDbLine
  6
BYLAYER
 10
9.38865890731074
 20
14.8889299359492
 11
9.86203953922524
 21
15.5404824792176
  0
LINE
  5
546
100
AcDbEntity
  8
ｭｷｽ�
100
AcDbLine
  6
BYLAYER
 10
12.51193836562
 20
23.2685752355193
 11
12.9821674912217
 21
22.6213603705804
  0
LINE
  5
547
100
AcDbEntity
  8
ｭｷｽ�
100
AcDbLine
  6
BYLAYER
 10
50.1857648841705
 20
16.7751990382715
 11
50.6559940078528
 21
17.4224139046049
  0
ARC
  5
548
100
AcDbEntity
  8
ｭｷｽ�
100
AcDbCircle
  6
BYLAYER
 10
46.9563089392948
 20
12.32316418889
 40
5.5
100
AcDbArc
 50
333.418027219954
 51
54.0432914988761
  0
ARC
  5
549
100
AcDbEntity
  8
ｭｷｽ�
100
AcDbCircle
  6
BYLAYER
 10
31.8552491124395
 20
8.62386860548814
 40
6.3
100
AcDbArc
 50
296.213210701738
 51
18.0000000000005
  0
ARC
  5
54A
100
AcDbEntity
  8
ｭｷｽ�
100
AcDbCircle
  6
BYLAYER
 10
31.8565332901466
 20
8.61991631290037
 40
5.5
100
AcDbArc
 50
297.418027219954
 51
18.0432914988763
  0
LINE
  5
54B
100
AcDbEntity
  8
ｭｷｽ�
100
AcDbLine
  6
BYLAYER
 10
34.6380392618798
 20
2.97178235489201
 11
34.3891683358077
 21
3.7377283069456
  0
LINE
  5
54C
100
AcDbEntity
  8
ｭｷｽ�
100
AcDbLine
  6
BYLAYER
 10
29.6945814120757
 20
10.4240004413756
 11
30.4945829820504
 21
10.4240004425618
  0
LINE
  5
54D
100
AcDbEntity
  8
ｭｷｽ�
100
AcDbLine
  6
BYLAYER
 10
37.0860584592947
 20
10.3234615882733
 11
37.8469051650989
 21
10.5706756700503
  0
ARC
  5
54E
100
AcDbEntity
  8
ｭｷｽ�
100
AcDbCircle
  6
BYLAYER
 10
39.6996895358315
 20
9.27575549328698
 40
5.5
100
AcDbArc
 50
315.418027219955
 51
36.0432914988754
  0
ARC
  5
54F
100
AcDbEntity
  8
ｭｷｽ�
100
AcDbCircle
  6
BYLAYER
 10
39.6972468846788
 20
9.27911751417163
 40
6.3
100
AcDbArc
 50
314.213210701738
 51
35.9999999999994
  0
LINE
  5
550
100
AcDbEntity
  8
ｭｷｽ�
100
AcDbLine
  6
BYLAYER
 10
44.0904282948931
 20
4.76359350283616
 11
43.6170476629786
 21
5.41514604610455
  0
LINE
  5
551
100
AcDbEntity
  8
ｭｷｽ�
100
AcDbLine
  6
BYLAYER
 10
44.146839084302
 20
12.5119354780125
 11
44.7940539492409
 21
12.9821646036142
  0
ARC
  5
552
100
AcDbEntity
  8
ｭｷｽ�
100
AcDbCircle
  6
BYLAYER
 10
46.9529469184102
 20
12.3256068400428
 40
6.3
100
AcDbArc
 50
332.213210701738
 51
54.0000000000008
  0
LINE
  5
553
100
AcDbEntity
  8
ｭｷｽ�
100
AcDbLine
  6
BYLAYER
 10
52.5264843838721
 20
9.3886560197033
 11
51.8749318406037
 21
9.8620366516178
  0
ARC
  5
554
100
AcDbEntity
  8
ｭｷｽ�
100
AcDbCircle
  6
BYLAYER
 10
52.9160630334851
 20
17.463840804039
 40
5.5
100
AcDbArc
 50
351.418027219955
 51
72.0432914988762
  0
ARC
  5
555
100
AcDbEntity
  8
ｭｷｽ�
100
AcDbCircle
  6
BYLAYER
 10
52.9121107408974
 20
17.465124981746
 40
6.3
100
AcDbArc
 50
350.213210701738
 51
71.9999999999998
  0
LINE
  5
556
100
AcDbEntity
  8
ｭｷｽ�
100
AcDbLine
  6
BYLAYER
 10
59.1204275813684
 20
16.394236561637
 11
58.3544816293148
 21
16.643107487709
  0
LINE
  5
557
100
AcDbEntity
  8
ｭｷｽ�
100
AcDbLine
  6
BYLAYER
 10
54.6117037259389
 20
22.6959343278681
 11
54.8589178054595
 21
23.4567810344055
  0
LINE
  5
558
100
AcDbEntity
  8
ｭｷｽ�
100
AcDbLine
  6
BYLAYER
 10
63.2267967845074
 20
25.094580094443
 11
62.4214335501148
 21
25.094580094443
  0
ARC
  5
559
100
AcDbEntity
  8
ｭｷｽ�
100
AcDbCircle
  6
BYLAYER
 10
35.5601680949892
 20
58.7915428267257
 40
6.3
100
AcDbArc
 50
116.213210701738
 51
198.000000000001
  0
ARC
  5
55A
100
AcDbEntity
  8
ｭｷｽ�
100
AcDbCircle
  6
BYLAYER
 10
20.4591082681339
 20
55.0922472433238
 40
5.5
100
AcDbArc
 50
153.418027219954
 51
234.043291498876
  0
ARC
  5
55B
100
AcDbEntity
  8
ｭｷｽ�
100
AcDbCircle
  6
BYLAYER
 10
20.4624702890186
 20
55.0898045921711
 40
6.3
100
AcDbArc
 50
152.213210701738
 51
234.000000000001
  0
ARC
  5
55C
100
AcDbEntity
  8
ｭｷｽ�
100
AcDbCircle
  6
BYLAYER
 10
8.61991920050784
 20
35.5588810296747
 40
5.5
100
AcDbArc
 50
207.418027219955
 51
288.043291498876
  0
ARC
  5
55D
100
AcDbEntity
  8
ｭｷｽ�
100
AcDbCircle
  6
BYLAYER
 10
8.62387149309561
 20
35.5601652073818
 40
6.3
100
AcDbArc
 50
206.213210701738
 51
288
  0
ARC
  5
55E
100
AcDbEntity
  8
ｭｷｽ�
100
AcDbCircle
  6
BYLAYER
 10
10.4198476438141
 20
43.2208313377709
 40
5.5
100
AcDbArc
 50
189.418027219954
 51
270.043291498876
  0
ARC
  5
55F
100
AcDbEntity
  8
ｭｷｽ�
100
AcDbCircle
  6
BYLAYER
 10
10.4240033301693
 20
43.2208313377709
 40
6.3
100
AcDbArc
 50
188.213210701738
 51
270
  0
LINE
  5
560
100
AcDbEntity
  8
ｭｷｽ�
100
AcDbLine
  6
BYLAYER
 10
2.97178524249944
 20
32.7773750579415
 11
3.73773119455302
 21
33.0262459840136
  0
LINE
  5
561
100
AcDbEntity
  8
ｭｷｽ�
100
AcDbLine
  6
BYLAYER
 10
4.18862042292133
 20
42.3208313377709
 11
4.99398365731389
 21
42.3208313377709
  0
LINE
  5
562
100
AcDbEntity
  8
ｭｷｽ�
100
AcDbLine
  6
BYLAYER
 10
10.3234644758807
 20
30.3293558605266
 11
10.5706785576577
 21
29.5685091547224
  0
LINE
  5
563
100
AcDbEntity
  8
ｭｷｽ�
100
AcDbLine
  6
BYLAYER
 10
10.424003328983
 20
37.7208329077456
 11
10.4240033301693
 21
36.9208313377709
  0
ARC
  5
564
100
AcDbEntity
  8
ｭｷｽ�
100
AcDbCircle
  6
BYLAYER
 10
14.4993541739436
 20
49.9515706281748
 40
5.5
100
AcDbArc
 50
171.418027219955
 51
252.043291498876
  0
ARC
  5
565
100
AcDbEntity
  8
ｭｷｽ�
100
AcDbCircle
  6
BYLAYER
 10
14.5033064665313
 20
49.9502864504678
 40
6.3
100
AcDbArc
 50
170.213210701738
 51
252
  0
LINE
  5
566
100
AcDbEntity
  8
ｭｷｽ�
100
AcDbLine
  6
BYLAYER
 10
12.8037134814898
 20
44.7194771043458
 11
12.5564994019692
 21
43.9586303978084
  0
LINE
  5
567
100
AcDbEntity
  8
ｭｷｽ�
100
AcDbLine
  6
BYLAYER
 10
8.29498962606033
 20
51.0211748705769
 11
9.06093557811391
 21
50.7723039445048
  0
LINE
  5
568
100
AcDbEntity
  8
ｭｷｽ�
100
AcDbLine
  6
BYLAYER
 10
17.2296523232582
 20
50.6402123939424
 11
16.759423199576
 21
49.9929975276089
  0
LINE
  5
569
100
AcDbEntity
  8
ｭｷｽ�
100
AcDbLine
  6
BYLAYER
 10
14.8889328235567
 20
58.0267554125105
 11
15.540485366825
 21
57.5533747805961
  0
ARC
  5
56A
100
AcDbEntity
  8
ｭｷｽ�
100
AcDbCircle
  6
BYLAYER
 10
27.7157276715973
 20
58.1396559389269
 40
5.5
100
AcDbArc
 50
135.418027219955
 51
216.043291498876
  0
ARC
  5
56B
100
AcDbEntity
  8
ｭｷｽ�
100
AcDbCircle
  6
BYLAYER
 10
27.71817032275
 20
58.1362939180422
 40
6.3
100
AcDbArc
 50
134.213210701738
 51
215.999999999999
  0
LINE
  5
56C
100
AcDbEntity
  8
ｭｷｽ�
100
AcDbLine
  6
BYLAYER
 10
23.2685781231267
 20
54.9034759542013
 11
22.6213632581878
 21
54.4332468285996
  0
LINE
  5
56D
100
AcDbEntity
  8
ｭｷｽ�
100
AcDbLine
  6
BYLAYER
 10
23.3249889125356
 20
62.6518179293777
 11
23.7983695444501
 21
62.0002653861093
  0
LINE
  5
56E
100
AcDbEntity
  8
ｭｷｽ�
100
AcDbLine
  6
BYLAYER
 10
58.026758300118
 20
52.5264814962646
 11
57.5533776682035
 21
51.8749289529962
  0
ARC
  5
56F
100
AcDbEntity
  8
ｭｷｽ�
100
AcDbCircle
  6
BYLAYER
 10
55.0922501309312
 20
46.9563060516874
 40
5.5
100
AcDbArc
 50
63.4180272199547
 51
144.043291498875
  0
ARC
  5
570
100
AcDbEntity
  8
ｭｷｽ�
100
AcDbCircle
  6
BYLAYER
 10
55.0898074797785
 20
46.9529440308028
 40
6.3
100
AcDbArc
 50
62.2132107017374
 51
144.000000000001
  0
LINE
  5
571
100
AcDbEntity
  8
ｭｷｽ�
100
AcDbLine
  6
BYLAYER
 10
50.6402152815498
 20
50.1857619965631
 11
49.9930004152164
 21
50.6559911202453
  0
ARC
  5
572
100
AcDbEntity
  8
ｭｷｽ�
100
AcDbCircle
  6
BYLAYER
 10
58.7954980069209
 20
31.8565304025391
 40
5.5
100
AcDbArc
 50
27.4180272199553
 51
108.043291498876
  0
ARC
  5
573
100
AcDbEntity
  8
ｭｷｽ�
100
AcDbCircle
  6
BYLAYER
 10
58.7915457143331
 20
31.8552462248321
 40
6.3
100
AcDbArc
 50
26.2132107017384
 51
108
  0
LINE
  5
574
100
AcDbEntity
  8
ｭｷｽ�
100
AcDbLine
  6
BYLAYER
 10
56.9914138784457
 20
29.6945785244682
 11
56.9914138772594
 21
30.494580094443
  0
LINE
  5
575
100
AcDbEntity
  8
ｭｷｽ�
100
AcDbLine
  6
BYLAYER
 10
57.091952731548
 20
37.0860555716873
 11
56.844738649771
 21
37.8469022774915
  0
LINE
  5
576
100
AcDbEntity
  8
ｭｷｽ�
100
AcDbLine
  6
BYLAYER
 10
64.4436319649293
 20
34.6380363742724
 11
63.6776860128757
 21
34.3891654482003
  0
ARC
  5
577
100
AcDbEntity
  8
ｭｷｽ�
100
AcDbCircle
  6
BYLAYER
 10
58.1396588265343
 20
39.6996866482241
 40
5.5
100
AcDbArc
 50
45.4180272199536
 51
126.043291498876
  0
ARC
  5
578
100
AcDbEntity
  8
ｭｷｽ�
100
AcDbCircle
  6
BYLAYER
 10
58.1362968056497
 20
39.6972439970713
 40
6.3
100
AcDbArc
 50
44.2132107017383
 51
125.999999999999
  0
LINE
  5
579
100
AcDbEntity
  8
ｭｷｽ�
100
AcDbLine
  6
BYLAYER
 10
54.9034788418087
 20
44.1468361966946
 11
54.4332497162071
 21
44.7940510616335
  0
LINE
  5
57A
100
AcDbEntity
  8
ｭｷｽ�
100
AcDbLine
  6
BYLAYER
 10
62.6518208169851
 20
44.0904254072857
 11
62.0002682737168
 21
43.6170447753712
  0
ARC
  5
57B
100
AcDbEntity
  8
ｭｷｽ�
100
AcDbCircle
  6
BYLAYER
 10
49.9515735157823
 20
52.9160601458777
 40
5.5
100
AcDbArc
 50
81.4180272199545
 51
162.043291498876
  0
ARC
  5
57C
100
AcDbEntity
  8
ｭｷｽ�
100
AcDbCircle
  6
BYLAYER
 10
49.9502893380753
 20
52.9121078532899
 40
6.3
100
AcDbArc
 50
80.2132107017381
 51
161.999999999999
  0
ARC
  5
57D
100
AcDbEntity
  8
ｭｷｽ�
100
AcDbCircle
  6
BYLAYER
 10
43.2208342253783
 20
56.9955666760072
 40
5.5
100
AcDbArc
 50
99.4180272199542
 51
180.043291498875
  0
ARC
  5
57E
100
AcDbEntity
  8
ｭｷｽ�
100
AcDbCircle
  6
BYLAYER
 10
43.2208342253783
 20
56.991410989652
 40
6.3
100
AcDbArc
 50
98.2132107017384
 51
180
  0
ARC
  5
57F
100
AcDbEntity
  8
ｭｷｽ�
100
AcDbCircle
  6
BYLAYER
 10
35.5588839172822
 20
58.7954951193135
 40
5.5
100
AcDbArc
 50
117.418027219954
 51
198.043291498876
  0
LINE
  5
580
100
AcDbEntity
  8
ｭｷｽ�
100
AcDbLine
  6
BYLAYER
 10
30.329358748134
 20
57.0919498439406
 11
29.5685120423298
 21
56.8447357621635
  0
LINE
  5
581
100
AcDbEntity
  8
ｭｷｽ�
100
AcDbLine
  6
BYLAYER
 10
37.720835795353
 20
56.9914109908383
 11
36.9208342253783
 21
56.991410989652
  0
LINE
  5
582
100
AcDbEntity
  8
ｭｷｽ�
100
AcDbLine
  6
BYLAYER
 10
32.7773779455489
 20
64.4436290773218
 11
33.026248871621
 21
63.6776831252682
  0
LINE
  5
583
100
AcDbEntity
  8
ｭｷｽ�
100
AcDbLine
  6
BYLAYER
 10
44.7194799919532
 20
54.6117008383314
 11
43.9586332854158
 21
54.858914917852
  0
LINE
  5
584
100
AcDbEntity
  8
ｭｷｽ�
100
AcDbLine
  6
BYLAYER
 10
42.3208342253783
 20
63.2267938968999
 11
42.3208342253783
 21
62.4214306625074
  0
LINE
  5
585
100
AcDbEntity
  8
ｭｷｽ�
100
AcDbLine
  6
BYLAYER
 10
51.0211777581844
 20
59.1204246937609
 11
50.7723068321123
 21
58.3544787417073
  0
LINE
  5
586
100
AcDbEntity
  8
ｭｷｽ�
100
AcDbLine
  6
BYLAYER
 10
32.000003875441
 20
33.7077057161069
 11
35.4154133319878
 21
33.7077057161069
  0
LINE
  5
587
100
AcDbEntity
  8
ｭｷｽ�
100
AcDbLine
  6
BYLAYER
 10
33.7077086037144
 20
32.0000009878335
 11
33.7077086037144
 21
35.4154104443803
  0
LINE
  5
588
100
AcDbEntity
  8
ｭｷｽ�
100
AcDbLine
  6
BYLAYER
 10
30.2922991471675
 20
33.7077057161069
 11
3.8754409672E-6
 21
33.7077057161069
  0
LINE
  5
589
100
AcDbEntity
  8
ｭｷｽ�
100
AcDbLine
  6
BYLAYER
 10
37.1231180602612
 20
33.7077057161069
 11
67.4154133319877
 21
33.7077057161069
  0
LINE
  5
58A
100
AcDbEntity
  8
ｭｷｽ�
100
AcDbLine
  6
BYLAYER
 10
33.7077086037144
 20
30.2922962595601
 11
33.7077086037144
 21
9.878335163E-7
  0
LINE
  5
58B
100
AcDbEntity
  8
ｭｷｽ�
100
AcDbLine
  6
BYLAYER
 10
33.7077086037144
 20
37.1231151726537
 11
33.7077086037144
 21
67.4154104443803
  0
CIRCLE
  5
58C
100
AcDbEntity
  8
ｭｷｽ�
100
AcDbCircle
  6
BYLAYER
 10
33.7077086037144
 20
33.7077057161069
 40
2
  0
CIRCLE
  5
58D
100
AcDbEntity
  8
ｭｷｽ�
100
AcDbCircle
  6
BYLAYER
 10
33.7077086037144
 20
33.7077057161069
 40
8
  0
ENDBLK
  5
58E
100
AcDbEntity
  8
0
 67
     1
100
AcDbBlockEnd
  0
BLOCK
  5
58F
100
AcDbEntity
  8
0
100
AcDbBlockBegin
  2
A$C0A2D333D
 70
    0
 10
0
 20
0
 30
0.0
  3
A$C0A2D333D
  1

  0
LINE
  5
590
100
AcDbEntity
  8
HIDDEN
100
AcDbLine
  6
BYLAYER
 10
7.24999859965885
 20
50.7499994122673
 11
50.7499985996589
 21
50.7499994122673
  0
LINE
  5
591
100
AcDbEntity
  8
HIDDEN
100
AcDbLine
  6
BYLAYER
 10
50.7499985996589
 20
7.24999941226728
 11
7.24999859965885
 21
7.24999941226728
  0
LINE
  5
592
100
AcDbEntity
  8
ｮﾘ
100
AcDbLine
  6
BYLAYER
 10
49.7499985996589
 20
49.7499994122673
 11
8.24999859965885
 21
49.7499994122673
  0
LINE
  5
593
100
AcDbEntity
  8
ｮﾘ
100
AcDbLine
  6
BYLAYER
 10
8.24999859965885
 20
8.24999941226728
 11
49.7499985996589
 21
8.24999941226728
  0
LINE
  5
594
100
AcDbEntity
  8
ｮﾘ
100
AcDbLine
  6
BYLAYER
 10
54.9999985996589
 20
-5.877327141E-7
 11
2.99999859965885
 21
-5.877327141E-7
  0
LINE
  5
595
100
AcDbEntity
  8
ｮﾘ
100
AcDbLine
  6
BYLAYER
 10
2.99999859965885
 20
57.9999994122673
 11
54.9999985996589
 21
57.9999994122673
  0
LINE
  5
596
100
AcDbEntity
  8
HIDDEN
100
AcDbLine
  6
BYLAYER
 10
7.24999859965885
 20
7.24999941226728
 11
7.24999859965885
 21
50.7499994122673
  0
LINE
  5
597
100
AcDbEntity
  8
ｮﾘ
100
AcDbLine
  6
BYLAYER
 10
8.24999859965885
 20
49.7499994122673
 11
8.24999859965885
 21
8.24999941226728
  0
LINE
  5
598
100
AcDbEntity
  8
ｮﾘ
100
AcDbLine
  6
BYLAYER
 10
-1.4003411479E-6
 20
2.99999941226729
 11
-1.4003411479E-6
 21
54.9999994122673
  0
ARC
  5
599
100
AcDbEntity
  8
ｮﾘ
100
AcDbCircle
  6
BYLAYER
 10
2.99999859965885
 20
2.99999941226729
 40
3
100
AcDbArc
 50
180
 51
270
  0
CIRCLE
  5
59A
100
AcDbEntity
  8
ｮﾘ
100
AcDbCircle
  6
BYLAYER
 10
3.99999859965885
 20
3.99999941226729
 40
2.25
  0
ARC
  5
59B
100
AcDbEntity
  8
ｮﾘ
100
AcDbCircle
  6
BYLAYER
 10
2.99999859965885
 20
54.9999994122673
 40
3
100
AcDbArc
 50
90
 51
180
  0
CIRCLE
  5
59C
100
AcDbEntity
  8
ｮﾘ
100
AcDbCircle
  6
BYLAYER
 10
3.99999859965885
 20
53.9999994122672
 40
2.25
  0
LINE
  5
59D
100
AcDbEntity
  8
HIDDEN
100
AcDbLine
  6
BYLAYER
 10
50.7499985996589
 20
50.7499994122673
 11
50.7499985996589
 21
7.24999941226728
  0
LINE
  5
59E
100
AcDbEntity
  8
ｮﾘ
100
AcDbLine
  6
BYLAYER
 10
49.7499985996589
 20
8.24999941226728
 11
49.7499985996589
 21
49.7499994122673
  0
LINE
  5
59F
100
AcDbEntity
  8
ｮﾘ
100
AcDbLine
  6
BYLAYER
 10
57.9999985996589
 20
54.9999994122673
 11
57.9999985996589
 21
2.99999941226729
  0
ARC
  5
5A0
100
AcDbEntity
  8
ｮﾘ
100
AcDbCircle
  6
BYLAYER
 10
54.9999985996589
 20
2.99999941226729
 40
3
100
AcDbArc
 50
270
 51
0
  0
CIRCLE
  5
5A1
100
AcDbEntity
  8
ｮﾘ
100
AcDbCircle
  6
BYLAYER
 10
53.9999985996589
 20
3.99999941226729
 40
2.25
  0
ARC
  5
5A2
100
AcDbEntity
  8
ｮﾘ
100
AcDbCircle
  6
BYLAYER
 10
54.9999985996589
 20
54.9999994122673
 40
3
100
AcDbArc
 50
0
 51
90
  0
CIRCLE
  5
5A3
100
AcDbEntity
  8
ｮﾘ
100
AcDbCircle
  6
BYLAYER
 10
53.9999985996589
 20
53.9999994122673
 40
2.25
  0
ENDBLK
  5
5A4
100
AcDbEntity
  8
0
 67
     1
100
AcDbBlockEnd
  0
BLOCK
  5
5A5
100
AcDbEntity
  8
0
100
AcDbBlockBegin
  2
A$C68B77DB9
 70
    0
 10
0
 20
0
 30
0.0
  3
A$C68B77DB9
  1

  0
LINE
  5
5A6
100
AcDbEntity
  8
ｮﾘ
100
AcDbLine
  6
BYLAYER
 10
6.52995971380926
 20
8.24999832319175
 11
6.52995971380926
 21
49.7499983231917
  0
LINE
  5
5A7
100
AcDbEntity
  8
ｮﾘ
100
AcDbLine
  6
BYLAYER
 10
7.52995971380926
 20
57.9999983231917
 11
7.52995971380926
 21
-1.6768082531E-6
  0
LINE
  5
5A8
100
AcDbEntity
  8
ｮﾘ
100
AcDbLine
  6
BYLAYER
 10
2.2992352342E-6
 20
12.9733250023948
 11
6.52995971380926
 21
8.24999832319175
  0
LINE
  5
5A9
100
AcDbEntity
  8
ｮﾘ
100
AcDbLine
  6
BYLAYER
 10
6.52995971380926
 20
-1.6768082531E-6
 11
6.52995971380926
 21
7.24999832319175
  0
LINE
  5
5AA
100
AcDbEntity
  8
ｮﾘ
100
AcDbLine
  6
BYLAYER
 10
7.52995971380926
 20
-1.6768082531E-6
 11
6.52995971380926
 21
-1.6768082531E-6
  0
LINE
  5
5AB
100
AcDbEntity
  8
ｮﾘ
100
AcDbLine
  6
BYLAYER
 10
0.0299597138092622
 20
8.24999832319175
 11
6.52995971380926
 21
8.24999832319175
  0
LINE
  5
5AC
100
AcDbEntity
  8
ｮﾘ
100
AcDbLine
  6
BYLAYER
 10
6.52995971380926
 20
7.24999832319175
 11
0.0299597138092622
 21
7.24999832319175
  0
LINE
  5
5AD
100
AcDbEntity
  8
ｮﾘ
100
AcDbLine
  6
BYLAYER
 10
0.0299597138092622
 20
7.24999832319175
 11
0.0299597138092622
 21
8.24999832319175
  0
LINE
  5
5AE
100
AcDbEntity
  8
ｮﾘ
100
AcDbLine
  6
BYLAYER
 10
6.52995971380926
 20
50.7499983231917
 11
6.52995971380926
 21
57.9999983231917
  0
LINE
  5
5AF
100
AcDbEntity
  8
ｮﾘ
100
AcDbLine
  6
BYLAYER
 10
6.52995971380926
 20
49.7499983231917
 11
2.2992351774E-6
 21
44.7269541581347
  0
LINE
  5
5B0
100
AcDbEntity
  8
ｮﾘ
100
AcDbLine
  6
BYLAYER
 10
0.0299597138092622
 20
50.7499983231917
 11
6.52995971380926
 21
50.7499983231917
  0
LINE
  5
5B1
100
AcDbEntity
  8
ｮﾘ
100
AcDbLine
  6
BYLAYER
 10
6.52995971380926
 20
49.7499983231917
 11
0.0299597138092622
 21
49.7499983231917
  0
LINE
  5
5B2
100
AcDbEntity
  8
ｮﾘ
100
AcDbLine
  6
BYLAYER
 10
0.0299597138092622
 20
49.7499983231917
 11
0.0299597138092622
 21
50.7499983231917
  0
LINE
  5
5B3
100
AcDbEntity
  8
ｮﾘ
100
AcDbLine
  6
BYLAYER
 10
6.52995971380926
 20
57.9999983231917
 11
7.52995971380926
 21
57.9999983231917
  0
LINE
  5
5B4
100
AcDbEntity
  8
ｮﾘ
100
AcDbLine
  6
BYLAYER
 10
2.2992352342E-6
 20
12.9733250023948
 11
2.2992351774E-6
 21
44.7269541581347
  0
ENDBLK
  5
5B5
100
AcDbEntity
  8
0
 67
     1
100
AcDbBlockEnd
  0
BLOCK
  5
5B6
100
AcDbEntity
  8
0
100
AcDbBlockBegin
  2
A$C08AC7193
 70
    0
 10
0
 20
0
 30
0.0
  3
A$C08AC7193
  1

  0
CIRCLE
  5
5B7
100
AcDbEntity
  8
BASE
100
AcDbCircle
  6
BYLAYER
 10
44.3722070570552
 20
40.7116662247145
 40
33
  0
CIRCLE
  5
5B8
100
AcDbEntity
  8
BASE
100
AcDbCircle
  6
BYLAYER
 10
44.3722070570552
 20
4.71166622471446
 40
1.65
  0
CIRCLE
  5
5B9
100
AcDbEntity
  8
BASE
100
AcDbCircle
  6
BYLAYER
 10
13.1952925208154
 20
58.7116662247145
 40
1.65
  0
LINE
  5
5BA
100
AcDbEntity
  8
BASE
100
AcDbLine
  6
BYLAYER
 10
91.3722070570552
 20
88.7116662247145
 11
91.3722070570552
 21
48.7116662247145
  0
CIRCLE
  5
5BB
100
AcDbEntity
  8
BASE
100
AcDbCircle
  6
BYLAYER
 10
75.549121593295
 20
58.7116662247145
 40
1.65
  0
CIRCLE
  5
5BC
100
AcDbEntity
  8
BASE
100
AcDbCircle
  6
BYLAYER
 10
84.6722070570552
 20
58.7116662247146
 40
1
  0
CIRCLE
  5
5BD
100
AcDbEntity
  8
BASE
100
AcDbCircle
  6
BYLAYER
 10
84.6722070570552
 20
78.7116662247146
 40
1
  0
CIRCLE
  5
5BE
100
AcDbEntity
  8
CEN
100
AcDbCircle
  6
BYLAYER
 10
44.3722070570552
 20
40.7116662247145
 40
36
  0
LINE
  5
5BF
100
AcDbEntity
  8
CEN
100
AcDbLine
  6
BYLAYER
 10
82.5093217329321
 20
78.7116662247146
 11
86.8350923811783
 21
78.7116662247146
  0
LINE
  5
5C0
100
AcDbEntity
  8
CEN
100
AcDbLine
  6
BYLAYER
 10
84.6722070570552
 20
76.5487809005914
 11
84.6722070570552
 21
80.8745515488377
  0
LINE
  5
5C1
100
AcDbEntity
  8
CEN
100
AcDbLine
  6
BYLAYER
 10
82.5093217329321
 20
58.7116662247146
 11
86.8350923811783
 21
58.7116662247146
  0
LINE
  5
5C2
100
AcDbEntity
  8
CEN
100
AcDbLine
  6
BYLAYER
 10
84.6722070570552
 20
56.5487809005914
 11
84.6722070570552
 21
60.8745515488377
  0
LINE
  5
5C3
100
AcDbEntity
  8
BASE
100
AcDbLine
  6
BYLAYER
370
0
 10
91.3722070570552
 20
48.7116662247145
 11
86.0372671022063
 21
48.7116662247145
  0
ARC
  5
5C4
100
AcDbEntity
  8
BASE
100
AcDbCircle
  6
BYLAYER
370
0
 10
86.0372671022064
 20
44.7116662247145
 40
3.99999999999994
100
AcDbArc
 50
-269.999999999999
 51
-174.308526590723
  0
ARC
  5
5C5
100
AcDbEntity
  8
BASE
100
AcDbCircle
  6
BYLAYER
370
0
 10
41.9101249198972
 20
40.3138240888491
 40
40.3457516863761
100
AcDbArc
 50
-86.5013759339496
 51
-354.308526590725
  0
ARC
  5
5C6
100
AcDbEntity
  8
BASE
100
AcDbCircle
  6
BYLAYER
370
0
 10
42.4482189419703
 20
42.4453268987967
 40
42.4456885876003
100
AcDbArc
 50
182.867979174752
 51
-87.4019933011521
  0
ARC
  5
5C7
100
AcDbEntity
  8
BASE
100
AcDbCircle
  6
BYLAYER
370
0
 10
46.113537767796
 20
42.6289503092506
 40
46.1156040705261
100
AcDbArc
 50
92.1640099275032
 51
-177.132020825248
  0
LINE
  5
5C8
100
AcDbEntity
  8
BASE
100
AcDbLine
  6
BYLAYER
370
0
 10
44.3722070570552
 20
88.7116662247145
 11
91.3722070570552
 21
88.7116662247145
  0
LINE
  5
5C9
100
AcDbEntity
  8
HIDDEN
100
AcDbLine
  6
BYLAYER
370
0
 10
91.3722070570552
 20
49.7116662247145
 11
86.0372671022063
 21
49.7116662247145
  0
ARC
  5
5CA
100
AcDbEntity
  8
HIDDEN
100
AcDbCircle
  6
BYLAYER
370
0
 10
86.0372671022063
 20
44.7116662247146
 40
4.99999999999992
100
AcDbArc
 50
-269.999999999999
 51
-174.308526590724
  0
ARC
  5
5CB
100
AcDbEntity
  8
HIDDEN
100
AcDbCircle
  6
BYLAYER
370
0
 10
41.9101249198972
 20
40.3138240888491
 40
39.3457516863761
100
AcDbArc
 50
-86.4899343725437
 51
-354.308526590725
  0
ARC
  5
5CC
100
AcDbEntity
  8
HIDDEN
100
AcDbCircle
  6
BYLAYER
370
0
 10
42.4482189419703
 20
42.4453268987967
 40
41.4456885876002
100
AcDbArc
 50
182.867979174752
 51
-87.4128619774224
  0
ARC
  5
5CD
100
AcDbEntity
  8
HIDDEN
100
AcDbCircle
  6
BYLAYER
370
0
 10
46.113537767796
 20
42.6289503092506
 40
45.1156040705261
100
AcDbArc
 50
92.1878643089908
 51
-177.132020825248
  0
LINE
  5
5CE
100
AcDbEntity
  8
HIDDEN
100
AcDbLine
  6
BYLAYER
370
0
 10
44.3911974024662
 20
87.7116662247145
 11
91.3722070570552
 21
87.7116662247145
  0
CIRCLE
  5
5CF
100
AcDbEntity
  8
HIDDEN
100
AcDbCircle
  6
BYLAYER
 10
13.1952925208155
 20
58.7116662247145
 40
2
  0
CIRCLE
  5
5D0
100
AcDbEntity
  8
HIDDEN
100
AcDbCircle
  6
BYLAYER
 10
44.3722070570553
 20
4.71166622471446
 40
2
  0
CIRCLE
  5
5D1
100
AcDbEntity
  8
HIDDEN
100
AcDbCircle
  6
BYLAYER
 10
75.549121593295
 20
58.7116662247145
 40
2
  0
ENDBLK
  5
5D2
100
AcDbEntity
  8
0
 67
     1
100
AcDbBlockEnd
  0
BLOCK
  5
5D3
100
AcDbEntity
  8
0
100
AcDbBlockBegin
  2
A$C64CC058F
 70
    0
 10
0
 20
0
 30
0.0
  3
A$C64CC058F
  1

  0
LINE
  5
5D4
100
AcDbEntity
  8
0
100
AcDbLine
  6
BYLAYER
 10
96.9499996013085
 20
49.0000000672808
 11
97.9499996013085
 21
49.0000000672808
  0
LINE
  5
5D5
100
AcDbEntity
  8
0
100
AcDbLine
  6
BYLAYER
 10
97.9499996013085
 20
49.0000000672808
 11
97.9499996013085
 21
107.000000067281
  0
LINE
  5
5D6
100
AcDbEntity
  8
0
100
AcDbLine
  6
BYLAYER
 10
97.9499996013085
 20
107.000000067281
 11
96.9499996013085
 21
107.000000067281
  0
LINE
  5
5D7
100
AcDbEntity
  8
0
100
AcDbLine
  6
BYLAYER
 10
96.9499996013085
 20
107.000000067281
 11
96.9499996013085
 21
49.0000000672808
  0
LINE
  5
5D8
100
AcDbEntity
  8
0
100
AcDbLine
  6
BYLAYER
 10
90.1999996013085
 20
90.1720000672807
 11
90.1999996013085
 21
65.8280000672808
  0
LINE
  5
5D9
100
AcDbEntity
  8
0
100
AcDbLine
  6
BYLAYER
 10
94.1999996013085
 20
94.1720000672807
 11
90.1999996013085
 21
90.1720000672807
  0
LINE
  5
5DA
100
AcDbEntity
  8
0
100
AcDbLine
  6
BYLAYER
 10
90.1999996013085
 20
65.8280000672808
 11
94.1999996013085
 21
61.8280000672808
  0
LINE
  5
5DB
100
AcDbEntity
  8
0
100
AcDbLine
  6
BYLAYER
 10
94.1999996013085
 20
94.1720000672807
 11
94.199999601308
 21
99.7500000672808
  0
LINE
  5
5DC
100
AcDbEntity
  8
0
100
AcDbLine
  6
BYLAYER
 10
90.1999996013083
 20
98.7500000672808
 11
94.1999996013081
 21
98.7500000672808
  0
LINE
  5
5DD
100
AcDbEntity
  8
0
100
AcDbLine
  6
BYLAYER
 10
90.1999996013085
 20
99.7500000672808
 11
96.9499996013085
 21
99.7500000672808
  0
LINE
  5
5DE
100
AcDbEntity
  8
0
100
AcDbLine
  6
BYLAYER
 10
90.1999996013083
 20
98.7500000672808
 11
90.1999996013085
 21
99.7500000672808
  0
LINE
  5
5DF
100
AcDbEntity
  8
0
100
AcDbLine
  6
BYLAYER
 10
90.1999996013083
 20
57.2500000672808
 11
94.1999996013078
 21
57.2500000672808
  0
LINE
  5
5E0
100
AcDbEntity
  8
0
100
AcDbLine
  6
BYLAYER
 10
90.1999996013085
 20
56.2500000672808
 11
96.9499996013085
 21
56.2500000672808
  0
LINE
  5
5E1
100
AcDbEntity
  8
0
100
AcDbLine
  6
BYLAYER
 10
90.1999996013083
 20
57.2500000672808
 11
90.1999996013085
 21
56.2500000672808
  0
LINE
  5
5E2
100
AcDbEntity
  8
0
100
AcDbLine
  6
BYLAYER
 10
94.1999996013085
 20
61.8280000672808
 11
94.1999996013077
 21
56.2500000672808
  0
LINE
  5
5E3
100
AcDbEntity
  8
HIDDEN
100
AcDbLine
  6
BYLAYER
 10
94.1999996013081
 20
98.7500000672808
 11
96.9499996013085
 21
98.7500000672808
  0
LINE
  5
5E4
100
AcDbEntity
  8
HIDDEN
100
AcDbLine
  6
BYLAYER
 10
94.1999996013078
 20
57.2500000672808
 11
96.9499996013085
 21
57.2500000672808
  0
ARC
  5
5E5
100
AcDbEntity
  8
HIDDEN
100
AcDbCircle
  6
BYLAYER
 10
96.9499996013085
 20
99.7500000672808
 40
1
100
AcDbArc
 50
270
 51
0
  0
ARC
  5
5E6
100
AcDbEntity
  8
HIDDEN
100
AcDbCircle
  6
BYLAYER
 10
96.9499996013085
 20
56.2500000672808
 40
1
100
AcDbArc
 50
0
 51
90
  0
LINE
  5
5E7
100
AcDbEntity
  8
HIDDEN
100
AcDbLine
  6
BYLAYER
 10
96.9999996013084
 20
98.5000000672813
 11
96.9999996013084
 21
57.5000000672801
  0
CIRCLE
  5
5E8
100
AcDbEntity
  8
0
100
AcDbCircle
  6
BYLAYER
 10
89.1999996013085
 20
68.0000000672822
 40
1
  0
CIRCLE
  5
5E9
100
AcDbEntity
  8
0
100
AcDbCircle
  6
BYLAYER
 10
89.1999996013085
 20
88.0000000672822
 40
1
  0
CIRCLE
  5
5EA
100
AcDbEntity
  8
0
100
AcDbCircle
  6
BYLAYER
 10
49.9999996013084
 20
50.0000000672819
 40
33
  0
CIRCLE
  5
5EB
100
AcDbEntity
  8
0
100
AcDbCircle
  6
BYLAYER
 10
81.176914137548
 20
68.0000000672819
 40
1.3
  0
CIRCLE
  5
5EC
100
AcDbEntity
  8
HIDDEN
100
AcDbCircle
  6
BYLAYER
 10
81.176914137548
 20
68.0000000672819
 40
1.5
  0
CIRCLE
  5
5ED
100
AcDbEntity
  8
HIDDEN
100
AcDbCircle
  6
BYLAYER
 10
81.176914137548
 20
68.0000000672819
 40
1.85
  0
CIRCLE
  5
5EE
100
AcDbEntity
  8
0
100
AcDbCircle
  6
BYLAYER
 10
18.8230850650686
 20
68.0000000672817
 40
1.3
  0
CIRCLE
  5
5EF
100
AcDbEntity
  8
HIDDEN
100
AcDbCircle
  6
BYLAYER
 10
18.8230850650686
 20
68.0000000672817
 40
1.5
  0
CIRCLE
  5
5F0
100
AcDbEntity
  8
HIDDEN
100
AcDbCircle
  6
BYLAYER
 10
18.8230850650686
 20
68.0000000672817
 40
1.85
  0
CIRCLE
  5
5F1
100
AcDbEntity
  8
0
100
AcDbCircle
  6
BYLAYER
 10
49.9999996013084
 20
14.0000000672821
 40
1.3
  0
CIRCLE
  5
5F2
100
AcDbEntity
  8
HIDDEN
100
AcDbCircle
  6
BYLAYER
 10
49.9999996013084
 20
14.0000000672821
 40
1.5
  0
CIRCLE
  5
5F3
100
AcDbEntity
  8
HIDDEN
100
AcDbCircle
  6
BYLAYER
 10
49.9999996013084
 20
14.0000000672821
 40
1.85
  0
LINE
  5
5F4
100
AcDbEntity
  8
CEN
100
AcDbLine
  6
BYLAYER
 10
-3.986914408E-7
 20
50.0000000672819
 11
99.9999996013084
 21
50.0000000672819
  0
LINE
  5
5F5
100
AcDbEntity
  8
CEN
100
AcDbLine
  6
BYLAYER
 10
49.9999996013083
 20
6.72820306E-8
 11
49.9999996013083
 21
100.000000067282
  0
LINE
  5
5F6
100
AcDbEntity
  8
0
100
AcDbLine
  6
BYLAYER
370
0
 10
94.1999996013079
 20
58.0000000672801
 11
90.5462595565086
 21
58.0000000672799
  0
ARC
  5
5F7
100
AcDbEntity
  8
0
100
AcDbCircle
  6
BYLAYER
370
0
 10
90.5462595565079
 20
55.0000000672819
 40
2.99999999999801
100
AcDbArc
 50
-270.000000000013
 51
-172.846391064226
  0
ARC
  5
5F8
100
AcDbEntity
  8
0
100
AcDbCircle
  6
BYLAYER
370
0
 10
47.5379174641484
 20
49.6021579314164
 40
40.3457516863801
100
AcDbArc
 50
-86.5013759419285
 51
-352.846391064235
  0
ARC
  5
5F9
100
AcDbEntity
  8
0
100
AcDbCircle
  6
BYLAYER
370
0
 10
48.0760114862734
 20
51.7336607413228
 40
42.445688587649
100
AcDbArc
 50
182.867979174654
 51
-87.4019933088025
  0
ARC
  5
5FA
100
AcDbEntity
  8
0
100
AcDbCircle
  6
BYLAYER
370
0
 10
51.7413303120512
 20
51.9172841518139
 40
46.1156040705289
100
AcDbArc
 50
92.1640099274639
 51
-177.132020825289
  0
LINE
  5
5FB
100
AcDbEntity
  8
0
100
AcDbLine
  6
BYLAYER
370
0
 10
49.9999996013419
 20
98.0000000672818
 11
94.1999996013081
 21
98.0000000672814
  0
LINE
  5
5FC
100
AcDbEntity
  8
0
100
AcDbLine
  6
BYLAYER
370
0
 10
94.1999996013079
 20
57.5000000672801
 11
90.5462595565087
 21
57.5000000672799
  0
ARC
  5
5FD
100
AcDbEntity
  8
0
100
AcDbCircle
  6
BYLAYER
370
0
 10
90.546259556508
 20
55.0000000672819
 40
2.49999999999807
100
AcDbArc
 50
-270.000000000014
 51
-172.846391064227
  0
ARC
  5
5FE
100
AcDbEntity
  8
0
100
AcDbCircle
  6
BYLAYER
370
0
 10
47.5379174641484
 20
49.6021579314164
 40
40.8457516863801
100
AcDbArc
 50
-86.5068891957176
 51
-352.846391064235
  0
ARC
  5
5FF
100
AcDbEntity
  8
0
100
AcDbCircle
  6
BYLAYER
370
0
 10
48.0760114862734
 20
51.7336607413228
 40
42.945688587649
100
AcDbArc
 50
182.867979174654
 51
-87.3967512274158
  0
ARC
  5
600
100
AcDbEntity
  8
0
100
AcDbCircle
  6
BYLAYER
370
0
 10
51.741330312051
 20
51.9172841518141
 40
46.6156040705287
100
AcDbArc
 50
92.1523716573705
 51
-177.13202082529
  0
LINE
  5
601
100
AcDbEntity
  8
0
100
AcDbLine
  6
BYLAYER
370
0
 10
49.9905816724338
 20
98.5000000672818
 11
94.1999996013081
 21
98.5000000672814
  0
LINE
  5
602
100
AcDbEntity
  8
HIDDEN
100
AcDbLine
  6
BYLAYER
370
0
 10
96.9999996013083
 20
59.0000000672802
 11
90.5462595565086
 21
59.0000000672799
  0
ARC
  5
603
100
AcDbEntity
  8
HIDDEN
100
AcDbCircle
  6
BYLAYER
370
0
 10
90.5462595565078
 20
55.000000067282
 40
3.9999999999979
100
AcDbArc
 50
-270.000000000012
 51
-172.846391064225
  0
ARC
  5
604
100
AcDbEntity
  8
HIDDEN
100
AcDbCircle
  6
BYLAYER
370
0
 10
47.5379174641485
 20
49.6021579314163
 40
39.34575168638
100
AcDbArc
 50
-86.4899343804863
 51
-352.846391064235
  0
ARC
  5
605
100
AcDbEntity
  8
HIDDEN
100
AcDbCircle
  6
BYLAYER
370
0
 10
48.0760114862732
 20
51.7336607413231
 40
41.4456885876488
100
AcDbArc
 50
182.867979174654
 51
-87.41286198503
  0
ARC
  5
606
100
AcDbEntity
  8
HIDDEN
100
AcDbCircle
  6
BYLAYER
370
0
 10
51.7413303120517
 20
51.9172841518134
 40
45.1156040705294
100
AcDbArc
 50
92.1878643089516
 51
-177.132020825289
  0
LINE
  5
607
100
AcDbEntity
  8
HIDDEN
100
AcDbLine
  6
BYLAYER
370
0
 10
50.0189899467526
 20
97.0000000672818
 11
96.9999996013084
 21
97.0000000672813
  0
CIRCLE
  5
608
100
AcDbEntity
  8
CEN
100
AcDbCircle
  6
BYLAYER
 10
49.9999996013085
 20
50.0000000672819
 40
19.25
  0
CIRCLE
  5
609
100
AcDbEntity
  8
0
100
AcDbCircle
  6
BYLAYER
 10
30.7499996013084
 20
50.0000000672819
 40
2.1
  0
CIRCLE
  5
60A
100
AcDbEntity
  8
0
100
AcDbCircle
  6
BYLAYER
 10
69.2499996013085
 20
50.0000000672819
 40
2.1
  0
CIRCLE
  5
60B
100
AcDbEntity
  8
0
100
AcDbCircle
  6
BYLAYER
 10
68.9999996013085
 20
68.0000000672819
 40
1.3
  0
CIRCLE
  5
60C
100
AcDbEntity
  8
HIDDEN
100
AcDbCircle
  6
BYLAYER
 10
68.9999996013085
 20
68.0000000672819
 40
1.85
  0
CIRCLE
  5
60D
100
AcDbEntity
  8
HIDDEN
100
AcDbCircle
  6
BYLAYER
 10
30.9999996013084
 20
68.0000000672819
 40
1.85
  0
CIRCLE
  5
60E
100
AcDbEntity
  8
0
100
AcDbCircle
  6
BYLAYER
 10
30.9999996013084
 20
68.0000000672819
 40
1.3
  0
CIRCLE
  5
60F
100
AcDbEntity
  8
0
100
AcDbCircle
  6
BYLAYER
 10
49.9999996013085
 20
50.0000000672819
 40
12.5
  0
LINE
  5
610
100
AcDbEntity
  8
HIDDEN
100
AcDbLine
  6
BYLAYER
 10
94.1999996013079
 20
58.0000000672801
 11
96.9999996013084
 21
58.0000000672801
  0
LINE
  5
611
100
AcDbEntity
  8
HIDDEN
100
AcDbLine
  6
BYLAYER
 10
94.1999996013079
 20
57.5000000672801
 11
96.9999996013099
 21
57.5000000672801
  0
LINE
  5
612
100
AcDbEntity
  8
HIDDEN
100
AcDbLine
  6
BYLAYER
 10
94.1999996013081
 20
98.0000000672814
 11
96.9999996013084
 21
98.0000000672814
  0
LINE
  5
613
100
AcDbEntity
  8
HIDDEN
100
AcDbLine
  6
BYLAYER
 10
94.1999996013081
 20
98.5000000672814
 11
96.9999996013084
 21
98.5000000672813
  0
ENDBLK
  5
614
100
AcDbEntity
  8
0
 67
     1
100
AcDbBlockEnd
  0
BLOCK
  5
615
100
AcDbEntity
  8
0
100
AcDbBlockBegin
  2
A$C08922197
 70
    0
 10
0
 20
0
 30
0.0
  3
A$C08922197
  1

  0
CIRCLE
  5
616
100
AcDbEntity
  8
0
100
AcDbCircle
  6
BYLAYER
 10
4.00000048595507
 20
44.192028143156
 40
2.25
  0
CIRCLE
  5
617
100
AcDbEntity
  8
0
100
AcDbCircle
  6
BYLAYER
 10
54.0000004859551
 20
44.192028143156
 40
2.25
  0
CIRCLE
  5
618
100
AcDbEntity
  8
0
100
AcDbCircle
  6
BYLAYER
 10
4.00000048595507
 20
94.1920281431559
 40
2.25
  0
CIRCLE
  5
619
100
AcDbEntity
  8
0
100
AcDbCircle
  6
BYLAYER
 10
54.0000004859551
 20
94.192028143156
 40
2.25
  0
LINE
  5
61A
100
AcDbEntity
  8
0
100
AcDbLine
  6
BYLAYER
370
0
 10
3.00000048595507
 20
40.192028143156
 11
55.0000004859551
 21
40.192028143156
  0
ARC
  5
61B
100
AcDbEntity
  8
0
100
AcDbCircle
  6
BYLAYER
370
0
 10
55.0000004859551
 20
43.192028143156
 40
2.99999999999999
100
AcDbArc
 50
-90
 51
6.36110936292703E-15
  0
LINE
  5
61C
100
AcDbEntity
  8
0
100
AcDbLine
  6
BYLAYER
370
0
 10
58.0000004859551
 20
43.192028143156
 11
58.0000004859551
 21
95.192028143156
  0
ARC
  5
61D
100
AcDbEntity
  8
0
100
AcDbCircle
  6
BYLAYER
370
0
 10
55.0000004859551
 20
95.192028143156
 40
3
100
AcDbArc
 50
-6.99722029921974E-14
 51
89.9999999999999
  0
LINE
  5
61E
100
AcDbEntity
  8
0
100
AcDbLine
  6
BYLAYER
370
0
 10
55.0000004859551
 20
98.192028143156
 11
3.00000048595496
 21
98.192028143156
  0
ARC
  5
61F
100
AcDbEntity
  8
0
100
AcDbCircle
  6
BYLAYER
370
0
 10
3.00000048595496
 20
95.192028143156
 40
3
100
AcDbArc
 50
-270
 51
-180
  0
LINE
  5
620
100
AcDbEntity
  8
0
100
AcDbLine
  6
BYLAYER
370
0
 10
4.859549563E-7
 20
95.192028143156
 11
4.8595507E-7
 21
43.192028143156
  0
ARC
  5
621
100
AcDbEntity
  8
0
100
AcDbCircle
  6
BYLAYER
370
0
 10
3.00000048595507
 20
43.192028143156
 40
3
100
AcDbArc
 50
-180
 51
-90
  0
LINE
  5
622
100
AcDbEntity
  8
0
100
AcDbLine
  6
BYLAYER
 10
8.25000048595507
 20
48.442028143156
 11
49.7500004859551
 21
48.442028143156
  0
LINE
  5
623
100
AcDbEntity
  8
0
100
AcDbLine
  6
BYLAYER
 10
49.7500004859551
 20
48.442028143156
 11
49.7500004859551
 21
89.942028143156
  0
LINE
  5
624
100
AcDbEntity
  8
0
100
AcDbLine
  6
BYLAYER
 10
49.7500004859551
 20
89.942028143156
 11
8.25000048595507
 21
89.942028143156
  0
LINE
  5
625
100
AcDbEntity
  8
0
100
AcDbLine
  6
BYLAYER
 10
8.25000048595507
 20
89.942028143156
 11
8.25000048595507
 21
48.442028143156
  0
LINE
  5
626
100
AcDbEntity
  8
HIDDEN
100
AcDbLine
  6
BYLAYER
 10
7.25000048595507
 20
47.442028143156
 11
50.7500004859551
 21
47.442028143156
  0
LINE
  5
627
100
AcDbEntity
  8
HIDDEN
100
AcDbLine
  6
BYLAYER
 10
50.7500004859551
 20
47.442028143156
 11
50.7500004859551
 21
90.942028143156
  0
LINE
  5
628
100
AcDbEntity
  8
HIDDEN
100
AcDbLine
  6
BYLAYER
 10
50.7500004859551
 20
90.942028143156
 11
7.25000048595507
 21
90.942028143156
  0
LINE
  5
629
100
AcDbEntity
  8
HIDDEN
100
AcDbLine
  6
BYLAYER
 10
7.25000048595507
 20
90.942028143156
 11
7.25000048595507
 21
47.442028143156
  0
ARC
  5
62A
100
AcDbEntity
  8
HIDDEN
100
AcDbCircle
  6
BYLAYER
 10
10.7500004859551
 20
87.442028143156
 40
3.53553390593274
100
AcDbArc
 50
98.1301023541547
 51
171.869897645845
  0
LINE
  5
62B
100
AcDbEntity
  8
HIDDEN
100
AcDbLine
  6
BYLAYER
 10
16.8280004859549
 20
90.942028143156
 11
16.8280004859549
 21
89.942028143156
  0
LINE
  5
62C
100
AcDbEntity
  8
HIDDEN
100
AcDbLine
  6
BYLAYER
 10
41.172000485955
 20
90.942028143156
 11
41.172000485955
 21
89.942028143156
  0
LINE
  5
62D
100
AcDbEntity
  8
HIDDEN
100
AcDbLine
  6
BYLAYER
 10
16.8280004859549
 20
47.442028143156
 11
16.8280004859549
 21
48.4420281431559
  0
LINE
  5
62E
100
AcDbEntity
  8
HIDDEN
100
AcDbLine
  6
BYLAYER
 10
41.172000485955
 20
47.442028143156
 11
41.172000485955
 21
48.4420281431559
  0
ARC
  5
62F
100
AcDbEntity
  8
HIDDEN
100
AcDbCircle
  6
BYLAYER
 10
47.2500004859551
 20
87.442028143156
 40
3.53553390593274
100
AcDbArc
 50
8.13010235415506
 51
81.8698976458453
  0
ARC
  5
630
100
AcDbEntity
  8
HIDDEN
100
AcDbCircle
  6
BYLAYER
 10
10.7500004859551
 20
50.942028143156
 40
3.53553390593274
100
AcDbArc
 50
188.130102354155
 51
261.869897645845
  0
ARC
  5
631
100
AcDbEntity
  8
HIDDEN
100
AcDbCircle
  6
BYLAYER
 10
47.2500004859551
 20
50.942028143156
 40
3.53553390593274
100
AcDbArc
 50
278.130102354155
 51
351.869897645845
  0
LINE
  5
632
100
AcDbEntity
  8
HIDDEN
100
AcDbLine
  6
BYLAYER
 10
50.7500004859551
 20
85.3640281431559
 11
49.7500004859551
 21
85.3640281431559
  0
LINE
  5
633
100
AcDbEntity
  8
HIDDEN
100
AcDbLine
  6
BYLAYER
 10
50.7500004859551
 20
81.3640281431559
 11
49.7500004859551
 21
81.3640281431559
  0
LINE
  5
634
100
AcDbEntity
  8
HIDDEN
100
AcDbLine
  6
BYLAYER
 10
50.7500004859551
 20
53.020028143156
 11
49.7500004859551
 21
53.020028143156
  0
LINE
  5
635
100
AcDbEntity
  8
HIDDEN
100
AcDbLine
  6
BYLAYER
 10
50.7500004859551
 20
57.0200281431561
 11
49.7500004859551
 21
57.0200281431561
  0
LINE
  5
636
100
AcDbEntity
  8
HIDDEN
100
AcDbLine
  6
BYLAYER
 10
7.25000048595507
 20
85.3640281431559
 11
8.25000048595507
 21
85.3640281431559
  0
LINE
  5
637
100
AcDbEntity
  8
HIDDEN
100
AcDbLine
  6
BYLAYER
 10
7.25000048595507
 20
81.3640281431559
 11
8.25000048595507
 21
81.3640281431559
  0
LINE
  5
638
100
AcDbEntity
  8
HIDDEN
100
AcDbLine
  6
BYLAYER
 10
7.25000048595507
 20
53.020028143156
 11
8.25000048595507
 21
53.020028143156
  0
LINE
  5
639
100
AcDbEntity
  8
HIDDEN
100
AcDbLine
  6
BYLAYER
 10
7.25000048595507
 20
57.0200281431561
 11
8.25000048595507
 21
57.0200281431561
  0
LINE
  5
63A
100
AcDbEntity
  8
HIDDEN
100
AcDbLine
  6
BYLAYER
 10
12.828000485955
 20
90.942028143156
 11
12.828000485955
 21
89.942028143156
  0
LINE
  5
63B
100
AcDbEntity
  8
HIDDEN
100
AcDbLine
  6
BYLAYER
 10
45.1720004859552
 20
90.942028143156
 11
45.1720004859552
 21
89.942028143156
  0
LINE
  5
63C
100
AcDbEntity
  8
HIDDEN
100
AcDbLine
  6
BYLAYER
 10
16.828000485955
 20
47.4420281431561
 11
16.828000485955
 21
48.442028143156
  0
LINE
  5
63D
100
AcDbEntity
  8
HIDDEN
100
AcDbLine
  6
BYLAYER
 10
41.1720004859551
 20
47.4420281431562
 11
41.1720004859551
 21
48.4420281431562
  0
LINE
  5
63E
100
AcDbEntity
  8
HIDDEN
100
AcDbLine
  6
BYLAYER
 10
12.8280004859552
 20
47.442028143156
 11
12.8280004859552
 21
48.442028143156
  0
LINE
  5
63F
100
AcDbEntity
  8
HIDDEN
100
AcDbLine
  6
BYLAYER
 10
45.1720004859553
 20
47.4420281431562
 11
45.1720004859553
 21
48.4420281431562
  0
LINE
  5
640
100
AcDbEntity
  8
0
100
AcDbLine
  6
BYLAYER
 10
15.5000004859552
 20
89.1920281431566
 11
15.5000004859551
 21
49.1920281431554
  0
LINE
  5
641
100
AcDbEntity
  8
0
100
AcDbLine
  6
BYLAYER
 10
8.5000004859553
 20
88.1920281431565
 11
8.50000048595553
 21
48.442028143156
  0
LINE
  5
642
100
AcDbEntity
  8
0
100
AcDbLine
  6
BYLAYER
 10
8.50000048595553
 20
40.192028143156
 11
8.50000048595564
 21
1.50000022954907
  0
LINE
  5
643
100
AcDbEntity
  8
HIDDEN
100
AcDbLine
  6
BYLAYER
 10
9.50000048595518
 20
1.50000022954907
 11
15.500000485955
 21
1.50000022954907
  0
LINE
  5
644
100
AcDbEntity
  8
0
100
AcDbLine
  6
BYLAYER
 10
9.50000048595518
 20
88.1920281431565
 11
9.50000048595621
 21
50.1920281431567
  0
LINE
  5
645
100
AcDbEntity
  8
0
100
AcDbLine
  6
BYLAYER
 10
8.5000004859553
 20
80.2102110841502
 11
8.2500004859553
 21
80.2102110841502
  0
LINE
  5
646
100
AcDbEntity
  8
HIDDEN
100
AcDbLine
  6
BYLAYER
 10
8.0000004859553
 20
80.2102110841502
 11
8.0000004859553
 21
78.2102110841502
  0
LINE
  5
647
100
AcDbEntity
  8
0
100
AcDbLine
  6
BYLAYER
 10
8.2500004859553
 20
78.2102110841502
 11
8.5000004859553
 21
78.2102110841502
  0
LINE
  5
648
100
AcDbEntity
  8
0
100
AcDbLine
  6
BYLAYER
 10
8.5000004859553
 20
60.2102110841502
 11
8.25000048595507
 21
60.2102110841502
  0
LINE
  5
649
100
AcDbEntity
  8
HIDDEN
100
AcDbLine
  6
BYLAYER
 10
8.0000004859553
 20
60.2102110841502
 11
8.0000004859553
 21
58.2102110841502
  0
LINE
  5
64A
100
AcDbEntity
  8
0
100
AcDbLine
  6
BYLAYER
 10
8.25000048595507
 20
58.2102110841502
 11
8.5000004859553
 21
58.2102110841502
  0
LINE
  5
64B
100
AcDbEntity
  8
HIDDEN
100
AcDbLine
  6
BYLAYER
 10
9.50000048595575
 20
50.1920281431567
 11
9.5000004859553
 21
1.50000022954907
  0
LINE
  5
64C
100
AcDbEntity
  8
0
100
AcDbLine
  6
BYLAYER
 10
9.50000048595553
 20
61.0420281431571
 11
10.5500004859555
 21
61.0420281431571
  0
LINE
  5
64D
100
AcDbEntity
  8
HIDDEN
100
AcDbLine
  6
BYLAYER
 10
9.05000048595525
 20
60.4920281431571
 11
10.5500004859552
 21
60.4920281431571
  0
LINE
  5
64E
100
AcDbEntity
  8
0
100
AcDbLine
  6
BYLAYER
 10
9.50000048595553
 20
57.3420281431597
 11
10.5500004859555
 21
57.3420281431597
  0
LINE
  5
64F
100
AcDbEntity
  8
0
100
AcDbLine
  6
BYLAYER
 10
10.5500004859555
 20
57.3420281431597
 11
10.5500004859539
 21
61.0420281431571
  0
ARC
  5
650
100
AcDbEntity
  8
HIDDEN
100
AcDbCircle
  6
BYLAYER
 10
9.05000048595525
 20
61.0420281431571
 40
0.550000000000004
100
AcDbArc
 50
180
 51
270
  0
LINE
  5
651
100
AcDbEntity
  8
HIDDEN
100
AcDbLine
  6
BYLAYER
 10
9.05000048595525
 20
57.8920281431597
 11
10.5500004859552
 21
57.8920281431597
  0
ARC
  5
652
100
AcDbEntity
  8
HIDDEN
100
AcDbCircle
  6
BYLAYER
 10
9.05000048595525
 20
57.3420281431597
 40
0.550000000000004
100
AcDbArc
 50
90
 51
180
  0
LINE
  5
653
100
AcDbEntity
  8
HIDDEN
100
AcDbLine
  6
BYLAYER
 10
8.62573641724327
 20
60.6920281431571
 11
10.550000485955
 21
60.6920281431571
  0
LINE
  5
654
100
AcDbEntity
  8
HIDDEN
100
AcDbLine
  6
BYLAYER
 10
8.62573641724327
 20
57.6920281431597
 11
10.5500004859552
 21
57.6920281431597
  0
LINE
  5
655
100
AcDbEntity
  8
HIDDEN
100
AcDbLine
  6
BYLAYER
 10
9.50000048595553
 20
7.04202814315477
 11
10.5500004859555
 21
7.04202814315477
  0
LINE
  5
656
100
AcDbEntity
  8
HIDDEN
100
AcDbLine
  6
BYLAYER
 10
10.5500004859555
 20
7.04202814315477
 11
10.5500004859539
 21
3.34202814315734
  0
LINE
  5
657
100
AcDbEntity
  8
HIDDEN
100
AcDbLine
  6
BYLAYER
 10
9.05000048595525
 20
6.4920281431547
 11
10.5500004859552
 21
6.4920281431547
  0
LINE
  5
658
100
AcDbEntity
  8
HIDDEN
100
AcDbLine
  6
BYLAYER
 10
9.50000048595553
 20
3.34202814315722
 11
10.5500004859555
 21
3.34202814315734
  0
ARC
  5
659
100
AcDbEntity
  8
HIDDEN
100
AcDbCircle
  6
BYLAYER
 10
9.05000048595525
 20
7.04202814315477
 40
0.550000000000004
100
AcDbArc
 50
180
 51
270
  0
LINE
  5
65A
100
AcDbEntity
  8
HIDDEN
100
AcDbLine
  6
BYLAYER
 10
9.05000048595525
 20
3.89202814315735
 11
10.5500004859552
 21
3.89202814315735
  0
ARC
  5
65B
100
AcDbEntity
  8
HIDDEN
100
AcDbCircle
  6
BYLAYER
 10
9.05000048595525
 20
3.34202814315734
 40
0.550000000000004
100
AcDbArc
 50
90
 51
180
  0
LINE
  5
65C
100
AcDbEntity
  8
HIDDEN
100
AcDbLine
  6
BYLAYER
 10
8.62573641724327
 20
6.69202814315474
 11
10.550000485955
 21
6.69202814315474
  0
LINE
  5
65D
100
AcDbEntity
  8
HIDDEN
100
AcDbLine
  6
BYLAYER
 10
8.62573641724339
 20
3.69202814315736
 11
10.5500004859552
 21
3.69202814315736
  0
LINE
  5
65E
100
AcDbEntity
  8
0
100
AcDbLine
  6
BYLAYER
 10
9.50000048595518
 20
88.1920281431565
 11
15.5000004859551
 21
88.1920281431566
  0
ARC
  5
65F
100
AcDbEntity
  8
0
100
AcDbCircle
  6
BYLAYER
 10
9.50000048595518
 20
88.1920281431565
 40
1
100
AcDbArc
 50
90
 51
180
  0
ARC
  5
660
100
AcDbEntity
  8
0
100
AcDbCircle
  6
BYLAYER
 10
9.50000048595575
 20
50.1920281431567
 40
1.00000000000023
100
AcDbArc
 50
180
 51
270
  0
LINE
  5
661
100
AcDbEntity
  8
0
100
AcDbLine
  6
BYLAYER
 10
9.50000048595621
 20
50.1920281431567
 11
15.5000004859553
 21
50.192028143157
  0
ARC
  5
662
100
AcDbEntity
  8
0
100
AcDbCircle
  6
BYLAYER
 10
9.50000048595518
 20
1.50000022954907
 40
1
100
AcDbArc
 50
180
 51
240.000000000181
  0
LINE
  5
663
100
AcDbEntity
  8
HIDDEN
100
AcDbLine
  6
BYLAYER
 10
8.50000048595541
 20
74.1920281431572
 11
9.50000048595553
 21
74.1920281431572
  0
LINE
  5
664
100
AcDbEntity
  8
HIDDEN
100
AcDbLine
  6
BYLAYER
 10
8.50000048595564
 20
8.19202814315713
 11
9.50000048595541
 21
8.19202814315713
  0
LINE
  5
665
100
AcDbEntity
  8
0
100
AcDbLine
  6
BYLAYER
 10
42.5000004859552
 20
89.1920281431566
 11
42.5000004859553
 21
49.1920281431554
  0
LINE
  5
666
100
AcDbEntity
  8
0
100
AcDbLine
  6
BYLAYER
 10
49.500000485955
 20
88.1920281431566
 11
49.5000004859547
 21
48.442028143156
  0
LINE
  5
667
100
AcDbEntity
  8
0
100
AcDbLine
  6
BYLAYER
 10
49.5000004859548
 20
40.192028143156
 11
49.5000004859547
 21
1.50000022954913
  0
LINE
  5
668
100
AcDbEntity
  8
HIDDEN
100
AcDbLine
  6
BYLAYER
 10
48.5000004859552
 20
1.50000022954913
 11
42.5000004859554
 21
1.50000022954913
  0
LINE
  5
669
100
AcDbEntity
  8
0
100
AcDbLine
  6
BYLAYER
 10
48.5000004859552
 20
88.1920281431566
 11
48.500000485954
 21
50.1920281431567
  0
LINE
  5
66A
100
AcDbEntity
  8
0
100
AcDbLine
  6
BYLAYER
 10
49.500000485955
 20
80.2102110841502
 11
49.7500004859551
 21
80.2102110841502
  0
LINE
  5
66B
100
AcDbEntity
  8
HIDDEN
100
AcDbLine
  6
BYLAYER
 10
50.000000485955
 20
80.2102110841502
 11
50.000000485955
 21
78.2102110841502
  0
LINE
  5
66C
100
AcDbEntity
  8
0
100
AcDbLine
  6
BYLAYER
 10
49.7500004859551
 20
78.2102110841502
 11
49.500000485955
 21
78.2102110841502
  0
LINE
  5
66D
100
AcDbEntity
  8
0
100
AcDbLine
  6
BYLAYER
 10
49.500000485955
 20
60.2102110841502
 11
49.7500004859551
 21
60.2102110841502
  0
LINE
  5
66E
100
AcDbEntity
  8
HIDDEN
100
AcDbLine
  6
BYLAYER
 10
50.000000485955
 20
60.2102110841502
 11
50.000000485955
 21
58.2102110841502
  0
LINE
  5
66F
100
AcDbEntity
  8
0
100
AcDbLine
  6
BYLAYER
 10
49.7500004859551
 20
58.2102110841502
 11
49.500000485955
 21
58.2102110841502
  0
LINE
  5
670
100
AcDbEntity
  8
HIDDEN
100
AcDbLine
  6
BYLAYER
 10
48.5000004859545
 20
50.1920281431567
 11
48.500000485955
 21
1.50000022954913
  0
LINE
  5
671
100
AcDbEntity
  8
0
100
AcDbLine
  6
BYLAYER
 10
48.500000485955
 20
61.0420281431572
 11
47.4500004859548
 21
61.0420281431572
  0
LINE
  5
672
100
AcDbEntity
  8
HIDDEN
100
AcDbLine
  6
BYLAYER
 10
48.9500004859552
 20
60.4920281431571
 11
47.4500004859552
 21
60.4920281431571
  0
LINE
  5
673
100
AcDbEntity
  8
0
100
AcDbLine
  6
BYLAYER
 10
48.500000485955
 20
57.3420281431597
 11
47.4500004859548
 21
57.3420281431598
  0
LINE
  5
674
100
AcDbEntity
  8
0
100
AcDbLine
  6
BYLAYER
 10
47.4500004859548
 20
57.3420281431598
 11
47.4500004859566
 21
61.0420281431572
  0
ARC
  5
675
100
AcDbEntity
  8
HIDDEN
100
AcDbCircle
  6
BYLAYER
 10
48.9500004859552
 20
61.0420281431572
 40
0.550000000000004
100
AcDbArc
 50
270
 51
0
  0
LINE
  5
676
100
AcDbEntity
  8
HIDDEN
100
AcDbLine
  6
BYLAYER
 10
48.9500004859552
 20
57.8920281431598
 11
47.4500004859552
 21
57.8920281431598
  0
ARC
  5
677
100
AcDbEntity
  8
HIDDEN
100
AcDbCircle
  6
BYLAYER
 10
48.9500004859552
 20
57.3420281431598
 40
0.550000000000004
100
AcDbArc
 50
0
 51
90
  0
LINE
  5
678
100
AcDbEntity
  8
HIDDEN
100
AcDbLine
  6
BYLAYER
 10
49.3742645546671
 20
60.6920281431572
 11
47.4500004859552
 21
60.6920281431572
  0
LINE
  5
679
100
AcDbEntity
  8
HIDDEN
100
AcDbLine
  6
BYLAYER
 10
49.3742645546671
 20
57.6920281431598
 11
47.4500004859552
 21
57.6920281431598
  0
LINE
  5
67A
100
AcDbEntity
  8
HIDDEN
100
AcDbLine
  6
BYLAYER
 10
48.500000485955
 20
7.04202814315482
 11
47.4500004859548
 21
7.04202814315482
  0
LINE
  5
67B
100
AcDbEntity
  8
HIDDEN
100
AcDbLine
  6
BYLAYER
 10
47.4500004859548
 20
7.04202814315482
 11
47.4500004859566
 21
3.34202814315739
  0
LINE
  5
67C
100
AcDbEntity
  8
HIDDEN
100
AcDbLine
  6
BYLAYER
 10
48.9500004859552
 20
6.49202814315475
 11
47.4500004859552
 21
6.49202814315475
  0
LINE
  5
67D
100
AcDbEntity
  8
HIDDEN
100
AcDbLine
  6
BYLAYER
 10
48.500000485955
 20
3.34202814315728
 11
47.4500004859548
 21
3.34202814315739
  0
ARC
  5
67E
100
AcDbEntity
  8
HIDDEN
100
AcDbCircle
  6
BYLAYER
 10
48.9500004859552
 20
7.04202814315482
 40
0.550000000000004
100
AcDbArc
 50
270
 51
0
  0
LINE
  5
67F
100
AcDbEntity
  8
HIDDEN
100
AcDbLine
  6
BYLAYER
 10
48.9500004859552
 20
3.8920281431574
 11
47.4500004859552
 21
3.8920281431574
  0
ARC
  5
680
100
AcDbEntity
  8
HIDDEN
100
AcDbCircle
  6
BYLAYER
 10
48.9500004859552
 20
3.34202814315739
 40
0.550000000000004
100
AcDbArc
 50
0
 51
90
  0
LINE
  5
681
100
AcDbEntity
  8
HIDDEN
100
AcDbLine
  6
BYLAYER
 10
49.3742645546671
 20
6.6920281431548
 11
47.4500004859552
 21
6.6920281431548
  0
LINE
  5
682
100
AcDbEntity
  8
HIDDEN
100
AcDbLine
  6
BYLAYER
 10
49.3742645546669
 20
3.69202814315742
 11
47.4500004859552
 21
3.69202814315742
  0
LINE
  5
683
100
AcDbEntity
  8
0
100
AcDbLine
  6
BYLAYER
 10
48.5000004859552
 20
88.1920281431566
 11
42.5000004859554
 21
88.1920281431566
  0
ARC
  5
684
100
AcDbEntity
  8
0
100
AcDbCircle
  6
BYLAYER
 10
48.5000004859552
 20
88.1920281431566
 40
1
100
AcDbArc
 50
0
 51
90
  0
ARC
  5
685
100
AcDbEntity
  8
0
100
AcDbCircle
  6
BYLAYER
 10
48.5000004859545
 20
50.1920281431567
 40
1.00000000000023
100
AcDbArc
 50
270
 51
0
  0
LINE
  5
686
100
AcDbEntity
  8
0
100
AcDbLine
  6
BYLAYER
 10
48.500000485954
 20
50.1920281431567
 11
42.500000485955
 21
50.192028143157
  0
ARC
  5
687
100
AcDbEntity
  8
0
100
AcDbCircle
  6
BYLAYER
 10
48.5000004859552
 20
1.50000022954913
 40
1
100
AcDbArc
 50
299.999999999813
 51
0
  0
LINE
  5
688
100
AcDbEntity
  8
HIDDEN
100
AcDbLine
  6
BYLAYER
 10
49.500000485955
 20
74.1920281431572
 11
48.500000485955
 21
74.1920281431572
  0
LINE
  5
689
100
AcDbEntity
  8
HIDDEN
100
AcDbLine
  6
BYLAYER
 10
49.5000004859547
 20
8.19202814315719
 11
48.500000485955
 21
8.19202814315719
  0
LINE
  5
68A
100
AcDbEntity
  8
0
100
AcDbLine
  6
BYLAYER
 10
9.00000048595518
 20
89.1920281431566
 11
49.0000004859552
 21
89.1920281431566
  0
LINE
  5
68B
100
AcDbEntity
  8
0
100
AcDbLine
  6
BYLAYER
 10
9.00000048595518
 20
89.6920281431566
 11
49.0000004859552
 21
89.6920281431566
  0
LINE
  5
68C
100
AcDbEntity
  8
0
100
AcDbLine
  6
BYLAYER
 10
9.00000048595518
 20
89.058053546941
 11
9.00000048595518
 21
89.6920281431566
  0
LINE
  5
68D
100
AcDbEntity
  8
0
100
AcDbLine
  6
BYLAYER
 10
49.0000004859552
 20
89.6920281431566
 11
49.0000004859553
 21
89.058053546941
  0
LINE
  5
68E
100
AcDbEntity
  8
HIDDEN
100
AcDbLine
  6
BYLAYER
 10
9.00000048595518
 20
0.500000229549073
 11
49.0000004859552
 21
0.500000229549073
  0
LINE
  5
68F
100
AcDbEntity
  8
0
100
AcDbLine
  6
BYLAYER
 10
9.00000048595518
 20
2.295490731E-7
 11
49.0000004859552
 21
2.295490731E-7
  0
LINE
  5
690
100
AcDbEntity
  8
0
100
AcDbLine
  6
BYLAYER
 10
9.00000048595518
 20
48.6920281431554
 11
49.0000004859552
 21
48.6920281431554
  0
LINE
  5
691
100
AcDbEntity
  8
0
100
AcDbLine
  6
BYLAYER
 10
9.00000048595518
 20
49.1920281431554
 11
49.0000004859552
 21
49.1920281431554
  0
LINE
  5
692
100
AcDbEntity
  8
0
100
AcDbLine
  6
BYLAYER
 10
9.00000048595518
 20
49.3260027393723
 11
9.0000004859553
 21
48.442028143156
  0
LINE
  5
693
100
AcDbEntity
  8
0
100
AcDbLine
  6
BYLAYER
 10
9.00000048595575
 20
40.192028143156
 11
9.00000048595803
 21
2.295490731E-7
  0
LINE
  5
694
100
AcDbEntity
  8
0
100
AcDbLine
  6
BYLAYER
 10
49.0000004859552
 20
49.3260027393725
 11
49.0000004859551
 21
48.442028143156
  0
LINE
  5
695
100
AcDbEntity
  8
0
100
AcDbLine
  6
BYLAYER
 10
49.0000004859546
 20
40.192028143156
 11
49.0000004859523
 21
2.295490731E-7
  0
LINE
  5
696
100
AcDbEntity
  8
HIDDEN
100
AcDbLine
  6
BYLAYER
 10
15.5000004859551
 20
49.1920281431554
 11
15.500000485955
 21
0.500000229549073
  0
LINE
  5
697
100
AcDbEntity
  8
HIDDEN
100
AcDbLine
  6
BYLAYER
 10
42.5000004859553
 20
49.1920281431554
 11
42.5000004859554
 21
0.500000229549073
  0
LINE
  5
698
100
AcDbEntity
  8
HIDDEN
100
AcDbLine
  6
BYLAYER
 10
9.00000048595518
 20
49.3260027393722
 11
9.00000048595518
 21
89.058053546941
  0
LINE
  5
699
100
AcDbEntity
  8
HIDDEN
100
AcDbLine
  6
BYLAYER
 10
49.0000004859552
 20
49.3260027393724
 11
49.0000004859553
 21
89.058053546941
  0
ARC
  5
69A
100
AcDbEntity
  8
HIDDEN
100
AcDbCircle
  6
BYLAYER
 10
9.50000048595518
 20
1.50000022954907
 40
0.999999999999994
100
AcDbArc
 50
240.000000000181
 51
270
  0
ARC
  5
69B
100
AcDbEntity
  8
HIDDEN
100
AcDbCircle
  6
BYLAYER
 10
48.5000004859552
 20
1.50000022954907
 40
0.999999999999994
100
AcDbArc
 50
270
 51
299.999999999819
  0
LINE
  5
69C
100
AcDbEntity
  8
HIDDEN
100
AcDbLine
  6
BYLAYER
 10
8.2500004859553
 20
80.2102110841502
 11
8.0000004859553
 21
80.2102110841502
  0
LINE
  5
69D
100
AcDbEntity
  8
HIDDEN
100
AcDbLine
  6
BYLAYER
 10
8.2500004859553
 20
78.2102110841502
 11
8.0000004859553
 21
78.2102110841502
  0
LINE
  5
69E
100
AcDbEntity
  8
HIDDEN
100
AcDbLine
  6
BYLAYER
 10
8.25000048595507
 20
60.2102110841502
 11
8.0000004859553
 21
60.2102110841502
  0
LINE
  5
69F
100
AcDbEntity
  8
HIDDEN
100
AcDbLine
  6
BYLAYER
 10
8.25000048595507
 20
58.2102110841502
 11
8.0000004859553
 21
58.2102110841502
  0
LINE
  5
6A0
100
AcDbEntity
  8
HIDDEN
100
AcDbLine
  6
BYLAYER
 10
49.7500004859551
 20
58.2102110841502
 11
50.000000485955
 21
58.2102110841502
  0
LINE
  5
6A1
100
AcDbEntity
  8
HIDDEN
100
AcDbLine
  6
BYLAYER
 10
49.7500004859551
 20
60.2102110841502
 11
50.000000485955
 21
60.2102110841502
  0
LINE
  5
6A2
100
AcDbEntity
  8
HIDDEN
100
AcDbLine
  6
BYLAYER
 10
49.7500004859551
 20
80.2102110841502
 11
50.000000485955
 21
80.2102110841502
  0
LINE
  5
6A3
100
AcDbEntity
  8
HIDDEN
100
AcDbLine
  6
BYLAYER
 10
49.7500004859551
 20
78.2102110841502
 11
50.000000485955
 21
78.2102110841502
  0
LINE
  5
6A4
100
AcDbEntity
  8
HIDDEN
100
AcDbLine
  6
BYLAYER
 10
49.5000004859547
 20
48.442028143156
 11
49.5000004859548
 21
40.192028143156
  0
LINE
  5
6A5
100
AcDbEntity
  8
HIDDEN
100
AcDbLine
  6
BYLAYER
 10
49.0000004859546
 20
40.192028143156
 11
49.0000004859551
 21
48.442028143156
  0
LINE
  5
6A6
100
AcDbEntity
  8
HIDDEN
100
AcDbLine
  6
BYLAYER
 10
9.0000004859553
 20
48.442028143156
 11
9.00000048595575
 21
40.192028143156
  0
LINE
  5
6A7
100
AcDbEntity
  8
HIDDEN
100
AcDbLine
  6
BYLAYER
 10
8.50000048595553
 20
40.192028143156
 11
8.50000048595553
 21
48.442028143156
  0
ENDBLK
  5
6A8
100
AcDbEntity
  8
0
 67
     1
100
AcDbBlockEnd
  0
BLOCK
  5
6A9
100
AcDbEntity
  8
0
100
AcDbBlockBegin
  2
A$C3A9224F4
 70
    0
 10
0
 20
0
 30
0.0
  3
A$C3A9224F4
  1

  0
LINE
  5
6AA
100
AcDbEntity
  8
_ｨｹF
100
AcDbLine
  6
BYLAYER
 10
1.7180893792E-6
 20
16.0000038032244
 11
1.1136335161E-6
 21
12.0000038032245
  0
LINE
  5
6AB
100
AcDbEntity
  8
_ｨｹF
100
AcDbLine
  6
BYLAYER
 10
20.000000768685
 20
14.0000015806301
 11
20.0000005085409
 21
2.00000207529826
  0
LINE
  5
6AC
100
AcDbEntity
  8
_ｨｹF
100
AcDbLine
  6
BYLAYER
 10
20.0000025820524
 20
26.0000020752982
 11
20.000000768685
 21
14.0000015806301
  0
LINE
  5
6AD
100
AcDbEntity
  8
_ｨｹF
100
AcDbLine
  6
BYLAYER
 10
20.000001372504
 20
12.0000020752982
 11
1.3725041299E-6
 21
12.0000038032245
  0
LINE
  5
6AE
100
AcDbEntity
  8
_ｨｹF
100
AcDbLine
  6
BYLAYER
 10
20.0000017180893
 20
16.0000020752982
 11
1.7180893792E-6
 21
16.0000038032245
  0
LINE
  5
6AF
100
AcDbEntity
  8
_ｨｹF
100
AcDbLine
  6
BYLAYER
 10
61.4999999920733
 20
7.24999968139809
 11
54.4999999920733
 21
7.24999968139809
  0
LINE
  5
6B0
100
AcDbEntity
  8
_ｨｹF
100
AcDbLine
  6
BYLAYER
 10
61.4999999920733
 20
20.7499996813981
 11
54.4999999920733
 21
20.7499996813981
  0
LINE
  5
6B1
100
AcDbEntity
  8
_ｨｹF
100
AcDbLine
  6
BYLAYER
 10
63.9999999920733
 20
26.9999996813981
 11
63.9999999920733
 21
0.999999681398094
  0
LINE
  5
6B2
100
AcDbEntity
  8
_ｨｹF
100
AcDbLine
  6
BYLAYER
 10
61.4999999920733
 20
5.24999968139809
 11
61.4999999920733
 21
22.7499996813981
  0
LINE
  5
6B3
100
AcDbEntity
  8
_ｨｹF
100
AcDbLine
  6
BYLAYER
 10
61.4999999920733
 20
22.7499996813981
 11
63.9999999920733
 21
22.7499996813981
  0
LINE
  5
6B4
100
AcDbEntity
  8
_ｨｹF
100
AcDbLine
  6
BYLAYER
 10
61.4999999920733
 20
5.24999968139809
 11
63.9999999920733
 21
5.24999968139809
  0
LINE
  5
6B5
100
AcDbEntity
  8
_ｨｹF
100
AcDbLine
  6
BYLAYER
 10
63.0000055887885
 20
51.999998844619
 11
63.0000036842096
 21
29.9553206350601
  0
ARC
  5
6B6
100
AcDbEntity
  8
_ｨｹF
100
AcDbCircle
  6
BYLAYER
 10
61.0000036842096
 20
29.9553208078527
 40
2
100
AcDbArc
 50
269.999995049856
 51
359.999995049856
  0
LINE
  5
6B7
100
AcDbEntity
  8
_ｨｹF
100
AcDbLine
  6
BYLAYER
 10
34.5000019905527
 20
27.9553230973552
 11
27.0000019905527
 21
27.9553237453275
  0
LINE
  5
6B8
100
AcDbEntity
  8
_ｨｹF
100
AcDbLine
  6
BYLAYER
 10
61.0000035114169
 20
27.9553208078527
 11
54.5000019905524
 21
27.9553213694289
  0
LINE
  5
6B9
100
AcDbEntity
  8
_ｨｹF
100
AcDbLine
  6
BYLAYER
 10
25.0000040679241
 20
52.0000011589538
 11
25.0000021633454
 21
29.9553239181202
  0
ARC
  5
6BA
100
AcDbEntity
  8
_ｨｹF
100
AcDbCircle
  6
BYLAYER
 10
27.0000021633454
 20
29.9553237453275
 40
2
100
AcDbArc
 50
179.999995049856
 51
269.999995049856
  0
LINE
  5
6BB
100
AcDbEntity
  8
_ｨｹF
100
AcDbLine
  6
BYLAYER
 10
61.0000043918303
 20
54.9999981723535
 11
27.0000043918308
 21
55.0000011098282
  0
LINE
  5
6BC
100
AcDbEntity
  8
_ｨｹF
100
AcDbLine
  6
BYLAYER
 10
25.0000042190382
 20
53.0000014120561
 11
25.0000040679241
 21
52.0000011589538
  0
ARC
  5
6BD
100
AcDbEntity
  8
_ｨｹF
100
AcDbCircle
  6
BYLAYER
 10
27.0000042190382
 20
53.0000011098282
 40
2
100
AcDbArc
 50
89.9999950498559
 51
179.999991341809
  0
LINE
  5
6BE
100
AcDbEntity
  8
_ｨｹF
100
AcDbLine
  6
BYLAYER
 10
63.0000040679238
 20
51.9999978758939
 11
63.0000042190377
 21
52.9999978701255
  0
ARC
  5
6BF
100
AcDbEntity
  8
_ｨｹF
100
AcDbCircle
  6
BYLAYER
 10
61.0000042190377
 20
52.9999981723535
 40
2
100
AcDbArc
 50
359.999991341807
 51
89.9999950498559
  0
LINE
  5
6C0
100
AcDbEntity
  8
_ｨｹF
100
AcDbLine
  6
BYLAYER
 10
54.5000030373044
 20
46.9999982289559
 11
34.5000030373044
 21
46.9999999568822
  0
LINE
  5
6C1
100
AcDbEntity
  8
_ｨｹF
100
AcDbLine
  6
BYLAYER
 10
34.5000011152253
 20
27.0000008225516
 11
24.0000026684487
 21
27.0000017297127
  0
LINE
  5
6C2
100
AcDbEntity
  8
_ｨｹF
100
AcDbLine
  6
BYLAYER
 10
34.4999989183609
 20
1.00000082255161
 11
24.0000004221445
 21
1.00000172971284
  0
LINE
  5
6C3
100
AcDbEntity
  8
_ｨｹF
100
AcDbLine
  6
BYLAYER
 10
24.0000005085408
 20
2.00000172971278
 11
20.0000005085409
 21
2.00000207529808
  0
LINE
  5
6C4
100
AcDbEntity
  8
_ｨｹF
100
AcDbLine
  6
BYLAYER
 10
24.0000025820524
 20
26.0000017297127
 11
20.0000025820524
 21
26.000002075298
  0
LINE
  5
6C5
100
AcDbEntity
  8
_ｨｹF
100
AcDbLine
  6
BYLAYER
 10
34.4999989766776
 20
-4.31176659E-8
 11
34.5000030373044
 21
46.9999999568822
  0
LINE
  5
6C6
100
AcDbEntity
  8
_ｨｹF
100
AcDbLine
  6
BYLAYER
 10
63.9999999920733
 20
2.00000172971284
 11
68.0000003934961
 21
2.00000172971278
  0
LINE
  5
6C7
100
AcDbEntity
  8
_ｨｹF
100
AcDbLine
  6
BYLAYER
 10
63.9999999920733
 20
0.999999681398094
 11
54.5000004221442
 21
0.999999094625252
  0
LINE
  5
6C8
100
AcDbEntity
  8
_ｨｹF
100
AcDbLine
  6
BYLAYER
 10
63.9999999920733
 20
25.9999976330835
 11
68.0000003934961
 21
25.9999976330835
  0
LINE
  5
6C9
100
AcDbEntity
  8
_ｨｹF
100
AcDbLine
  6
BYLAYER
 10
63.9999999920733
 20
26.9999996813981
 11
54.5000042216716
 21
26.999999094625
  0
LINE
  5
6CA
100
AcDbEntity
  8
_ｨｹF
100
AcDbLine
  6
BYLAYER
 10
68.0000003934961
 20
25.9999976330835
 11
68.0000003934961
 21
2.00000172971278
  0
LINE
  5
6CB
100
AcDbEntity
  8
_ｨｹF
100
AcDbLine
  6
BYLAYER
 10
27.5000060825354
 20
7.24999968139809
 11
34.5000060825354
 21
7.24999968139809
  0
LINE
  5
6CC
100
AcDbEntity
  8
_ｨｹF
100
AcDbLine
  6
BYLAYER
 10
27.5000060825354
 20
20.7499996813981
 11
34.5000060825354
 21
20.7499996813981
  0
LINE
  5
6CD
100
AcDbEntity
  8
_ｨｹF
100
AcDbLine
  6
BYLAYER
 10
27.5000060825344
 20
5.24999968139809
 11
27.5000060825354
 21
22.7499996813981
  0
LINE
  5
6CE
100
AcDbEntity
  8
_ｨｹF
100
AcDbLine
  6
BYLAYER
 10
27.5000060825354
 20
22.7499996813981
 11
24.0000023012642
 21
22.7499996813981
  0
LINE
  5
6CF
100
AcDbEntity
  8
_ｨｹF
100
AcDbLine
  6
BYLAYER
 10
27.5000060825354
 20
5.24999968139809
 11
24.0000007893286
 21
5.24999968139809
  0
LINE
  5
6D0
100
AcDbEntity
  8
_ｨｹF
100
AcDbLine
  6
BYLAYER
 10
34.5000054685701
 20
18.2404644750857
 11
34.5000046651659
 21
20.7499986366349
  0
LINE
  5
6D1
100
AcDbEntity
  8
_ｨｹF
100
AcDbLine
  6
BYLAYER
 10
34.500005831516
 20
7.24999863663498
 11
34.5000062012913
 21
9.75953205091969
  0
LINE
  5
6D2
100
AcDbEntity
  8
_ｨｹF
100
AcDbLine
  6
BYLAYER
 10
34.4999989766776
 20
-4.31176659E-8
 11
54.5000004507924
 21
-4.31176659E-8
  0
LINE
  5
6D3
100
AcDbEntity
  8
_ｨｹF
100
AcDbLine
  6
BYLAYER
 10
54.5000004507924
 20
-4.31176659E-8
 11
54.5000045114189
 21
46.9999982289558
  0
LINE
  5
6D4
100
AcDbEntity
  8
_ｨｹF
100
AcDbLine
  6
BYLAYER
 10
53.5000004507924
 20
4.32786464E-8
 11
53.5000045114189
 21
46.9999983153521
  0
LINE
  5
6D5
100
AcDbEntity
  8
_ｨｹF
100
AcDbLine
  6
BYLAYER
 10
52.5000004507924
 20
1.296749588E-7
 11
52.5000045114189
 21
46.9999984017484
  0
LINE
  5
6D6
100
AcDbEntity
  8
_ｨｹF
100
AcDbLine
  6
BYLAYER
 10
51.5000004507924
 20
2.160712711E-7
 11
51.5000045114189
 21
46.9999984881447
  0
LINE
  5
6D7
100
AcDbEntity
  8
_ｨｹF
100
AcDbLine
  6
BYLAYER
 10
50.5000004507924
 20
3.024675834E-7
 11
50.5000045114189
 21
46.999998574541
  0
LINE
  5
6D8
100
AcDbEntity
  8
_ｨｹF
100
AcDbLine
  6
BYLAYER
 10
49.5000004507924
 20
3.888638958E-7
 11
49.5000045114189
 21
46.9999986609374
  0
LINE
  5
6D9
100
AcDbEntity
  8
_ｨｹF
100
AcDbLine
  6
BYLAYER
 10
48.5000004507924
 20
4.752602081E-7
 11
48.5000045114189
 21
46.9999987473337
  0
LINE
  5
6DA
100
AcDbEntity
  8
_ｨｹF
100
AcDbLine
  6
BYLAYER
 10
47.5000004507924
 20
5.616565204E-7
 11
47.5000045114189
 21
46.99999883373
  0
LINE
  5
6DB
100
AcDbEntity
  8
_ｨｹF
100
AcDbLine
  6
BYLAYER
 10
46.5000004507924
 20
6.480528327E-7
 11
46.5000045114189
 21
46.9999989201263
  0
LINE
  5
6DC
100
AcDbEntity
  8
_ｨｹF
100
AcDbLine
  6
BYLAYER
 10
45.5000004507924
 20
7.344491451E-7
 11
45.5000045114189
 21
46.9999990065226
  0
LINE
  5
6DD
100
AcDbEntity
  8
_ｨｹF
100
AcDbLine
  6
BYLAYER
 10
44.5000004507924
 20
8.208454574E-7
 11
44.5000045114189
 21
46.9999990929189
  0
LINE
  5
6DE
100
AcDbEntity
  8
_ｨｹF
100
AcDbLine
  6
BYLAYER
 10
43.5000004507924
 20
9.072417697E-7
 11
43.5000045114189
 21
46.9999991793152
  0
LINE
  5
6DF
100
AcDbEntity
  8
_ｨｹF
100
AcDbLine
  6
BYLAYER
 10
42.5000004507924
 20
9.93638082E-7
 11
42.5000045114189
 21
46.9999992657115
  0
LINE
  5
6E0
100
AcDbEntity
  8
_ｨｹF
100
AcDbLine
  6
BYLAYER
 10
41.5000004507924
 20
1.0800343944E-6
 11
41.5000045114189
 21
46.9999993521079
  0
LINE
  5
6E1
100
AcDbEntity
  8
_ｨｹF
100
AcDbLine
  6
BYLAYER
 10
40.5000004507924
 20
1.1664307067E-6
 11
40.5000045114189
 21
46.9999994385042
  0
LINE
  5
6E2
100
AcDbEntity
  8
_ｨｹF
100
AcDbLine
  6
BYLAYER
 10
39.5000004507924
 20
1.252827019E-6
 11
39.5000045114189
 21
46.9999995249005
  0
LINE
  5
6E3
100
AcDbEntity
  8
_ｨｹF
100
AcDbLine
  6
BYLAYER
 10
38.5000004507924
 20
1.3392233313E-6
 11
38.5000045114189
 21
46.9999996112968
  0
LINE
  5
6E4
100
AcDbEntity
  8
_ｨｹF
100
AcDbLine
  6
BYLAYER
 10
37.5000004507925
 20
1.4256196437E-6
 11
37.500004511419
 21
46.9999996976931
  0
LINE
  5
6E5
100
AcDbEntity
  8
_ｨｹF
100
AcDbLine
  6
BYLAYER
 10
36.5000004507925
 20
1.512015956E-6
 11
36.500004511419
 21
46.9999997840894
  0
LINE
  5
6E6
100
AcDbEntity
  8
_ｨｹF
100
AcDbLine
  6
BYLAYER
 10
35.5000004507925
 20
1.5984122683E-6
 11
35.500004511419
 21
46.9999998704857
  0
LINE
  5
6E7
100
AcDbEntity
  8
_ｨｹF
100
AcDbLine
  6
BYLAYER
 10
24.0000026684487
 20
27.0000017297127
 11
24.0000004221443
 21
1.00000172971284
  0
LINE
  5
6E8
100
AcDbEntity
  8
_ｨｹF
100
AcDbLine
  6
BYLAYER
 10
24.0000021284716
 20
20.7499999837856
 11
20.000000768685
 21
20.7499999837856
  0
LINE
  5
6E9
100
AcDbEntity
  8
_ｨｹF
100
AcDbLine
  6
BYLAYER
 10
24.0000009621211
 20
7.24999968139809
 11
20.000000768685
 21
7.24999968139809
  0
ENDBLK
  5
6EA
100
AcDbEntity
  8
0
 67
     1
100
AcDbBlockEnd
  0
BLOCK
  5
6EB
100
AcDbEntity
  8
0
100
AcDbBlockBegin
  2
A$C78D92B3D
 70
    0
 10
0
 20
0
 30
0.0
  3
A$C78D92B3D
  1

  0
CIRCLE
  5
6EC
100
AcDbEntity
  8
0
100
AcDbCircle
  6
BYLAYER
 10
4.0000009912298
 20
44.1920275162878
 40
2.25
  0
CIRCLE
  5
6ED
100
AcDbEntity
  8
0
100
AcDbCircle
  6
BYLAYER
 10
54.0000009912298
 20
44.1920275162878
 40
2.25
  0
CIRCLE
  5
6EE
100
AcDbEntity
  8
0
100
AcDbCircle
  6
BYLAYER
 10
4.0000009912298
 20
94.1920275162877
 40
2.25
  0
CIRCLE
  5
6EF
100
AcDbEntity
  8
0
100
AcDbCircle
  6
BYLAYER
 10
54.0000009912298
 20
94.1920275162878
 40
2.25
  0
LINE
  5
6F0
100
AcDbEntity
  8
0
100
AcDbLine
  6
BYLAYER
370
0
 10
3.0000009912298
 20
40.1920275162878
 11
55.0000009912298
 21
40.1920275162878
  0
ARC
  5
6F1
100
AcDbEntity
  8
0
100
AcDbCircle
  6
BYLAYER
370
0
 10
55.0000009912298
 20
43.1920275162878
 40
3
100
AcDbArc
 50
-89.9999999999999
 51
6.99722029921974E-14
  0
LINE
  5
6F2
100
AcDbEntity
  8
0
100
AcDbLine
  6
BYLAYER
370
0
 10
58.0000009912298
 20
43.1920275162878
 11
58.0000009912298
 21
95.1920275162878
  0
ARC
  5
6F3
100
AcDbEntity
  8
0
100
AcDbCircle
  6
BYLAYER
370
0
 10
55.0000009912298
 20
95.1920275162878
 40
3
100
AcDbArc
 50
-6.99722029921974E-14
 51
89.9999999999999
  0
LINE
  5
6F4
100
AcDbEntity
  8
0
100
AcDbLine
  6
BYLAYER
370
0
 10
55.0000009912298
 20
98.1920275162878
 11
3.00000099122968
 21
98.1920275162878
  0
ARC
  5
6F5
100
AcDbEntity
  8
0
100
AcDbCircle
  6
BYLAYER
370
0
 10
3.00000099122968
 20
95.1920275162878
 40
3
100
AcDbArc
 50
-270
 51
-180
  0
LINE
  5
6F6
100
AcDbEntity
  8
0
100
AcDbLine
  6
BYLAYER
370
0
 10
9.912296832E-7
 20
95.1920275162878
 11
9.912297969E-7
 21
43.1920275162878
  0
ARC
  5
6F7
100
AcDbEntity
  8
0
100
AcDbCircle
  6
BYLAYER
370
0
 10
3.0000009912298
 20
43.1920275162878
 40
3
100
AcDbArc
 50
-180
 51
-90.0000000000001
  0
LINE
  5
6F8
100
AcDbEntity
  8
0
100
AcDbLine
  6
BYLAYER
 10
8.25000099122979
 20
48.4420275162878
 11
49.7500009912298
 21
48.4420275162878
  0
LINE
  5
6F9
100
AcDbEntity
  8
0
100
AcDbLine
  6
BYLAYER
 10
49.7500009912298
 20
48.4420275162878
 11
49.7500009912298
 21
89.9420275162878
  0
LINE
  5
6FA
100
AcDbEntity
  8
0
100
AcDbLine
  6
BYLAYER
 10
49.7500009912298
 20
89.9420275162878
 11
8.25000099122979
 21
89.9420275162878
  0
LINE
  5
6FB
100
AcDbEntity
  8
0
100
AcDbLine
  6
BYLAYER
 10
8.25000099122979
 20
89.9420275162878
 11
8.25000099122979
 21
48.4420275162878
  0
LINE
  5
6FC
100
AcDbEntity
  8
HIDDEN
100
AcDbLine
  6
BYLAYER
 10
7.2500009912298
 20
47.4420275162878
 11
50.7500009912298
 21
47.4420275162878
  0
LINE
  5
6FD
100
AcDbEntity
  8
HIDDEN
100
AcDbLine
  6
BYLAYER
 10
50.7500009912298
 20
47.4420275162878
 11
50.7500009912298
 21
90.9420275162878
  0
LINE
  5
6FE
100
AcDbEntity
  8
HIDDEN
100
AcDbLine
  6
BYLAYER
 10
50.7500009912298
 20
90.9420275162878
 11
7.2500009912298
 21
90.9420275162878
  0
LINE
  5
6FF
100
AcDbEntity
  8
HIDDEN
100
AcDbLine
  6
BYLAYER
 10
7.2500009912298
 20
90.9420275162878
 11
7.2500009912298
 21
47.4420275162878
  0
ARC
  5
700
100
AcDbEntity
  8
HIDDEN
100
AcDbCircle
  6
BYLAYER
 10
10.7500009912298
 20
87.4420275162878
 40
3.53553390593274
100
AcDbArc
 50
98.1301023541551
 51
171.869897645845
  0
LINE
  5
701
100
AcDbEntity
  8
HIDDEN
100
AcDbLine
  6
BYLAYER
 10
16.8280009912297
 20
90.9420275162878
 11
16.8280009912297
 21
89.9420275162878
  0
LINE
  5
702
100
AcDbEntity
  8
HIDDEN
100
AcDbLine
  6
BYLAYER
 10
41.1720009912297
 20
90.9420275162878
 11
41.1720009912297
 21
89.9420275162878
  0
LINE
  5
703
100
AcDbEntity
  8
HIDDEN
100
AcDbLine
  6
BYLAYER
 10
16.8280009912297
 20
47.4420275162878
 11
16.8280009912297
 21
48.4420275162877
  0
LINE
  5
704
100
AcDbEntity
  8
HIDDEN
100
AcDbLine
  6
BYLAYER
 10
41.1720009912297
 20
47.4420275162878
 11
41.1720009912297
 21
48.4420275162877
  0
ARC
  5
705
100
AcDbEntity
  8
HIDDEN
100
AcDbCircle
  6
BYLAYER
 10
47.2500009912298
 20
87.4420275162878
 40
3.53553390593274
100
AcDbArc
 50
8.1301023541546
 51
81.8698976458449
  0
ARC
  5
706
100
AcDbEntity
  8
HIDDEN
100
AcDbCircle
  6
BYLAYER
 10
10.7500009912298
 20
50.9420275162878
 40
3.53553390593274
100
AcDbArc
 50
188.130102354155
 51
261.869897645845
  0
ARC
  5
707
100
AcDbEntity
  8
HIDDEN
100
AcDbCircle
  6
BYLAYER
 10
47.2500009912298
 20
50.9420275162878
 40
3.53553390593274
100
AcDbArc
 50
278.130102354155
 51
351.869897645845
  0
LINE
  5
708
100
AcDbEntity
  8
HIDDEN
100
AcDbLine
  6
BYLAYER
 10
50.7500009912298
 20
85.3640275162877
 11
49.7500009912298
 21
85.3640275162877
  0
LINE
  5
709
100
AcDbEntity
  8
HIDDEN
100
AcDbLine
  6
BYLAYER
 10
50.7500009912298
 20
81.3640275162877
 11
49.7500009912298
 21
81.3640275162877
  0
LINE
  5
70A
100
AcDbEntity
  8
HIDDEN
100
AcDbLine
  6
BYLAYER
 10
50.7500009912298
 20
53.0200275162878
 11
49.7500009912298
 21
53.0200275162878
  0
LINE
  5
70B
100
AcDbEntity
  8
HIDDEN
100
AcDbLine
  6
BYLAYER
 10
50.7500009912298
 20
57.0200275162879
 11
49.7500009912298
 21
57.0200275162879
  0
LINE
  5
70C
100
AcDbEntity
  8
HIDDEN
100
AcDbLine
  6
BYLAYER
 10
7.2500009912298
 20
85.3640275162877
 11
8.25000099122979
 21
85.3640275162877
  0
LINE
  5
70D
100
AcDbEntity
  8
HIDDEN
100
AcDbLine
  6
BYLAYER
 10
7.2500009912298
 20
81.3640275162877
 11
8.25000099122979
 21
81.3640275162877
  0
LINE
  5
70E
100
AcDbEntity
  8
HIDDEN
100
AcDbLine
  6
BYLAYER
 10
7.2500009912298
 20
53.0200275162878
 11
8.25000099122979
 21
53.0200275162878
  0
LINE
  5
70F
100
AcDbEntity
  8
HIDDEN
100
AcDbLine
  6
BYLAYER
 10
7.2500009912298
 20
57.0200275162879
 11
8.25000099122979
 21
57.0200275162879
  0
LINE
  5
710
100
AcDbEntity
  8
HIDDEN
100
AcDbLine
  6
BYLAYER
 10
12.8280009912298
 20
90.9420275162878
 11
12.8280009912298
 21
89.9420275162878
  0
LINE
  5
711
100
AcDbEntity
  8
HIDDEN
100
AcDbLine
  6
BYLAYER
 10
45.1720009912299
 20
90.9420275162878
 11
45.1720009912299
 21
89.9420275162878
  0
LINE
  5
712
100
AcDbEntity
  8
HIDDEN
100
AcDbLine
  6
BYLAYER
 10
16.8280009912298
 20
47.4420275162879
 11
16.8280009912298
 21
48.4420275162878
  0
LINE
  5
713
100
AcDbEntity
  8
HIDDEN
100
AcDbLine
  6
BYLAYER
 10
41.1720009912298
 20
47.442027516288
 11
41.1720009912298
 21
48.4420275162879
  0
LINE
  5
714
100
AcDbEntity
  8
HIDDEN
100
AcDbLine
  6
BYLAYER
 10
12.8280009912299
 20
47.4420275162878
 11
12.8280009912299
 21
48.4420275162878
  0
LINE
  5
715
100
AcDbEntity
  8
HIDDEN
100
AcDbLine
  6
BYLAYER
 10
45.17200099123
 20
47.442027516288
 11
45.17200099123
 21
48.4420275162879
  0
LINE
  5
716
100
AcDbEntity
  8
0
100
AcDbLine
  6
BYLAYER
 10
15.5000009912299
 20
89.1920275162883
 11
15.5000009912298
 21
49.1920275162871
  0
LINE
  5
717
100
AcDbEntity
  8
0
100
AcDbLine
  6
BYLAYER
 10
8.50000099123002
 20
88.1920275162882
 11
8.50000099123025
 21
48.4420275162878
  0
LINE
  5
718
100
AcDbEntity
  8
0
100
AcDbLine
  6
BYLAYER
 10
8.50000099123025
 20
40.1920275162878
 11
8.50000099123037
 21
1.49999960268087
  0
LINE
  5
719
100
AcDbEntity
  8
HIDDEN
100
AcDbLine
  6
BYLAYER
 10
9.50000099122991
 20
1.49999960268087
 11
15.5000009912297
 21
1.49999960268087
  0
LINE
  5
71A
100
AcDbEntity
  8
0
100
AcDbLine
  6
BYLAYER
 10
9.50000099122991
 20
88.1920275162882
 11
9.50000099123093
 21
50.1920275162885
  0
LINE
  5
71B
100
AcDbEntity
  8
0
100
AcDbLine
  6
BYLAYER
 10
8.50000099123002
 20
80.1920275162891
 11
8.25000099123002
 21
80.1920275162891
  0
LINE
  5
71C
100
AcDbEntity
  8
HIDDEN
100
AcDbLine
  6
BYLAYER
 10
8.00000099123002
 20
80.1920275162891
 11
8.00000099123002
 21
78.1920275162892
  0
LINE
  5
71D
100
AcDbEntity
  8
0
100
AcDbLine
  6
BYLAYER
 10
8.25000099123002
 20
78.1920275162892
 11
8.50000099123002
 21
78.1920275162892
  0
LINE
  5
71E
100
AcDbEntity
  8
0
100
AcDbLine
  6
BYLAYER
 10
8.50000099123002
 20
60.1920275162892
 11
8.25000099122979
 21
60.1920275162892
  0
LINE
  5
71F
100
AcDbEntity
  8
HIDDEN
100
AcDbLine
  6
BYLAYER
 10
8.00000099123002
 20
60.1920275162892
 11
8.00000099123002
 21
58.1920275162892
  0
LINE
  5
720
100
AcDbEntity
  8
0
100
AcDbLine
  6
BYLAYER
 10
8.25000099122979
 20
58.1920275162892
 11
8.50000099123002
 21
58.1920275162892
  0
LINE
  5
721
100
AcDbEntity
  8
HIDDEN
100
AcDbLine
  6
BYLAYER
 10
9.50000099123048
 20
50.1920275162885
 11
9.50000099123002
 21
1.49999960268087
  0
LINE
  5
722
100
AcDbEntity
  8
0
100
AcDbLine
  6
BYLAYER
 10
9.50000099123025
 20
61.0420275162888
 11
10.5500009912302
 21
61.0420275162888
  0
LINE
  5
723
100
AcDbEntity
  8
HIDDEN
100
AcDbLine
  6
BYLAYER
 10
9.05000099122998
 20
60.4920275162889
 11
10.55000099123
 21
60.4920275162889
  0
LINE
  5
724
100
AcDbEntity
  8
0
100
AcDbLine
  6
BYLAYER
 10
9.50000099123025
 20
57.3420275162915
 11
10.5500009912302
 21
57.3420275162915
  0
LINE
  5
725
100
AcDbEntity
  8
0
100
AcDbLine
  6
BYLAYER
 10
10.5500009912302
 20
57.3420275162915
 11
10.5500009912286
 21
61.0420275162888
  0
ARC
  5
726
100
AcDbEntity
  8
HIDDEN
100
AcDbCircle
  6
BYLAYER
 10
9.05000099122998
 20
61.0420275162888
 40
0.550000000000004
100
AcDbArc
 50
180
 51
270
  0
LINE
  5
727
100
AcDbEntity
  8
HIDDEN
100
AcDbLine
  6
BYLAYER
 10
9.05000099122998
 20
57.8920275162915
 11
10.55000099123
 21
57.8920275162915
  0
ARC
  5
728
100
AcDbEntity
  8
HIDDEN
100
AcDbCircle
  6
BYLAYER
 10
9.05000099122998
 20
57.3420275162915
 40
0.550000000000004
100
AcDbArc
 50
90
 51
180
  0
LINE
  5
729
100
AcDbEntity
  8
HIDDEN
100
AcDbLine
  6
BYLAYER
 10
8.625736922518
 20
60.6920275162889
 11
10.5500009912298
 21
60.6920275162889
  0
LINE
  5
72A
100
AcDbEntity
  8
HIDDEN
100
AcDbLine
  6
BYLAYER
 10
8.625736922518
 20
57.6920275162914
 11
10.55000099123
 21
57.6920275162914
  0
LINE
  5
72B
100
AcDbEntity
  8
HIDDEN
100
AcDbLine
  6
BYLAYER
 10
9.50000099123025
 20
7.04202751628657
 11
10.5500009912302
 21
7.04202751628657
  0
LINE
  5
72C
100
AcDbEntity
  8
HIDDEN
100
AcDbLine
  6
BYLAYER
 10
10.5500009912302
 20
7.04202751628657
 11
10.5500009912286
 21
3.34202751628913
  0
LINE
  5
72D
100
AcDbEntity
  8
HIDDEN
100
AcDbLine
  6
BYLAYER
 10
9.05000099122998
 20
6.4920275162865
 11
10.55000099123
 21
6.4920275162865
  0
LINE
  5
72E
100
AcDbEntity
  8
HIDDEN
100
AcDbLine
  6
BYLAYER
 10
9.50000099123025
 20
3.34202751628902
 11
10.5500009912302
 21
3.34202751628913
  0
ARC
  5
72F
100
AcDbEntity
  8
HIDDEN
100
AcDbCircle
  6
BYLAYER
 10
9.05000099122998
 20
7.04202751628657
 40
0.550000000000004
100
AcDbArc
 50
180
 51
270
  0
LINE
  5
730
100
AcDbEntity
  8
HIDDEN
100
AcDbLine
  6
BYLAYER
 10
9.05000099122998
 20
3.8920275162892
 11
10.55000099123
 21
3.8920275162892
  0
ARC
  5
731
100
AcDbEntity
  8
HIDDEN
100
AcDbCircle
  6
BYLAYER
 10
9.05000099122998
 20
3.34202751628913
 40
0.550000000000004
100
AcDbArc
 50
90
 51
180
  0
LINE
  5
732
100
AcDbEntity
  8
HIDDEN
100
AcDbLine
  6
BYLAYER
 10
8.625736922518
 20
6.69202751628654
 11
10.5500009912298
 21
6.69202751628654
  0
LINE
  5
733
100
AcDbEntity
  8
HIDDEN
100
AcDbLine
  6
BYLAYER
 10
8.62573692251811
 20
3.69202751628916
 11
10.55000099123
 21
3.69202751628916
  0
LINE
  5
734
100
AcDbEntity
  8
0
100
AcDbLine
  6
BYLAYER
 10
9.50000099122991
 20
88.1920275162882
 11
15.5000009912298
 21
88.1920275162885
  0
ARC
  5
735
100
AcDbEntity
  8
0
100
AcDbCircle
  6
BYLAYER
 10
9.50000099122991
 20
88.1920275162882
 40
1
100
AcDbArc
 50
90
 51
180
  0
ARC
  5
736
100
AcDbEntity
  8
0
100
AcDbCircle
  6
BYLAYER
 10
9.50000099123048
 20
50.1920275162885
 40
1.00000000000023
100
AcDbArc
 50
180
 51
270
  0
LINE
  5
737
100
AcDbEntity
  8
0
100
AcDbLine
  6
BYLAYER
 10
9.50000099123093
 20
50.1920275162885
 11
15.50000099123
 21
50.1920275162887
  0
ARC
  5
738
100
AcDbEntity
  8
0
100
AcDbCircle
  6
BYLAYER
 10
9.50000099122991
 20
1.49999960268087
 40
1
100
AcDbArc
 50
180
 51
240.00000000018
  0
LINE
  5
739
100
AcDbEntity
  8
HIDDEN
100
AcDbLine
  6
BYLAYER
 10
8.50000099123014
 20
74.1920275162889
 11
9.50000099123025
 21
74.1920275162889
  0
LINE
  5
73A
100
AcDbEntity
  8
HIDDEN
100
AcDbLine
  6
BYLAYER
 10
8.50000099123037
 20
8.19202751628893
 11
9.50000099123014
 21
8.19202751628893
  0
LINE
  5
73B
100
AcDbEntity
  8
0
100
AcDbLine
  6
BYLAYER
 10
42.5000009912299
 20
89.1920275162885
 11
42.50000099123
 21
49.1920275162871
  0
LINE
  5
73C
100
AcDbEntity
  8
0
100
AcDbLine
  6
BYLAYER
 10
49.5000009912297
 20
88.1920275162885
 11
49.5000009912294
 21
48.4420275162878
  0
LINE
  5
73D
100
AcDbEntity
  8
0
100
AcDbLine
  6
BYLAYER
 10
49.5000009912296
 20
40.1920275162878
 11
49.5000009912294
 21
1.49999960268099
  0
LINE
  5
73E
100
AcDbEntity
  8
HIDDEN
100
AcDbLine
  6
BYLAYER
 10
48.5000009912299
 20
1.49999960268099
 11
42.5000009912301
 21
1.49999960268099
  0
LINE
  5
73F
100
AcDbEntity
  8
0
100
AcDbLine
  6
BYLAYER
 10
48.5000009912299
 20
88.1920275162885
 11
48.5000009912288
 21
50.1920275162885
  0
LINE
  5
740
100
AcDbEntity
  8
0
100
AcDbLine
  6
BYLAYER
 10
49.5000009912297
 20
80.1920275162891
 11
49.7500009912298
 21
80.1920275162893
  0
LINE
  5
741
100
AcDbEntity
  8
HIDDEN
100
AcDbLine
  6
BYLAYER
 10
50.0000009912297
 20
80.1920275162891
 11
50.0000009912297
 21
78.1920275162892
  0
LINE
  5
742
100
AcDbEntity
  8
0
100
AcDbLine
  6
BYLAYER
 10
49.7500009912298
 20
78.1920275162893
 11
49.5000009912297
 21
78.1920275162892
  0
LINE
  5
743
100
AcDbEntity
  8
0
100
AcDbLine
  6
BYLAYER
 10
49.5000009912297
 20
60.1920275162892
 11
49.7500009912298
 21
60.1920275162892
  0
LINE
  5
744
100
AcDbEntity
  8
HIDDEN
100
AcDbLine
  6
BYLAYER
 10
50.0000009912297
 20
60.1920275162892
 11
50.0000009912297
 21
58.1920275162892
  0
LINE
  5
745
100
AcDbEntity
  8
0
100
AcDbLine
  6
BYLAYER
 10
49.7500009912298
 20
58.1920275162892
 11
49.5000009912297
 21
58.1920275162892
  0
LINE
  5
746
100
AcDbEntity
  8
HIDDEN
100
AcDbLine
  6
BYLAYER
 10
48.5000009912292
 20
50.1920275162885
 11
48.5000009912297
 21
1.49999960268099
  0
LINE
  5
747
100
AcDbEntity
  8
0
100
AcDbLine
  6
BYLAYER
 10
48.5000009912297
 20
61.0420275162891
 11
47.4500009912295
 21
61.0420275162891
  0
LINE
  5
748
100
AcDbEntity
  8
HIDDEN
100
AcDbLine
  6
BYLAYER
 10
48.95000099123
 20
60.4920275162889
 11
47.45000099123
 21
60.4920275162889
  0
LINE
  5
749
100
AcDbEntity
  8
0
100
AcDbLine
  6
BYLAYER
 10
48.5000009912297
 20
57.3420275162915
 11
47.4500009912295
 21
57.3420275162915
  0
LINE
  5
74A
100
AcDbEntity
  8
0
100
AcDbLine
  6
BYLAYER
 10
47.4500009912295
 20
57.3420275162915
 11
47.4500009912313
 21
61.0420275162891
  0
ARC
  5
74B
100
AcDbEntity
  8
HIDDEN
100
AcDbCircle
  6
BYLAYER
 10
48.95000099123
 20
61.0420275162891
 40
0.550000000000004
100
AcDbArc
 50
270
 51
0
  0
LINE
  5
74C
100
AcDbEntity
  8
HIDDEN
100
AcDbLine
  6
BYLAYER
 10
48.95000099123
 20
57.8920275162916
 11
47.45000099123
 21
57.8920275162916
  0
ARC
  5
74D
100
AcDbEntity
  8
HIDDEN
100
AcDbCircle
  6
BYLAYER
 10
48.95000099123
 20
57.3420275162915
 40
0.550000000000004
100
AcDbArc
 50
0
 51
90
  0
LINE
  5
74E
100
AcDbEntity
  8
HIDDEN
100
AcDbLine
  6
BYLAYER
 10
49.3742650599418
 20
60.6920275162889
 11
47.45000099123
 21
60.6920275162889
  0
LINE
  5
74F
100
AcDbEntity
  8
HIDDEN
100
AcDbLine
  6
BYLAYER
 10
49.3742650599418
 20
57.6920275162916
 11
47.45000099123
 21
57.6920275162916
  0
LINE
  5
750
100
AcDbEntity
  8
HIDDEN
100
AcDbLine
  6
BYLAYER
 10
48.5000009912297
 20
7.04202751628657
 11
47.4500009912295
 21
7.04202751628657
  0
LINE
  5
751
100
AcDbEntity
  8
HIDDEN
100
AcDbLine
  6
BYLAYER
 10
47.4500009912295
 20
7.04202751628657
 11
47.4500009912313
 21
3.34202751628925
  0
LINE
  5
752
100
AcDbEntity
  8
HIDDEN
100
AcDbLine
  6
BYLAYER
 10
48.95000099123
 20
6.49202751628661
 11
47.45000099123
 21
6.49202751628661
  0
LINE
  5
753
100
AcDbEntity
  8
HIDDEN
100
AcDbLine
  6
BYLAYER
 10
48.5000009912297
 20
3.34202751628902
 11
47.4500009912295
 21
3.34202751628925
  0
ARC
  5
754
100
AcDbEntity
  8
HIDDEN
100
AcDbCircle
  6
BYLAYER
 10
48.95000099123
 20
7.04202751628657
 40
0.550000000000004
100
AcDbArc
 50
270
 51
0
  0
LINE
  5
755
100
AcDbEntity
  8
HIDDEN
100
AcDbLine
  6
BYLAYER
 10
48.95000099123
 20
3.8920275162892
 11
47.45000099123
 21
3.8920275162892
  0
ARC
  5
756
100
AcDbEntity
  8
HIDDEN
100
AcDbCircle
  6
BYLAYER
 10
48.95000099123
 20
3.34202751628925
 40
0.550000000000004
100
AcDbArc
 50
0
 51
90
  0
LINE
  5
757
100
AcDbEntity
  8
HIDDEN
100
AcDbLine
  6
BYLAYER
 10
49.3742650599418
 20
6.69202751628666
 11
47.45000099123
 21
6.69202751628666
  0
LINE
  5
758
100
AcDbEntity
  8
HIDDEN
100
AcDbLine
  6
BYLAYER
 10
49.3742650599416
 20
3.69202751628916
 11
47.45000099123
 21
3.69202751628916
  0
LINE
  5
759
100
AcDbEntity
  8
0
100
AcDbLine
  6
BYLAYER
 10
48.5000009912299
 20
88.1920275162885
 11
42.5000009912301
 21
88.1920275162885
  0
ARC
  5
75A
100
AcDbEntity
  8
0
100
AcDbCircle
  6
BYLAYER
 10
48.5000009912299
 20
88.1920275162885
 40
1
100
AcDbArc
 50
0
 51
90
  0
ARC
  5
75B
100
AcDbEntity
  8
0
100
AcDbCircle
  6
BYLAYER
 10
48.5000009912292
 20
50.1920275162885
 40
1.00000000000023
100
AcDbArc
 50
270
 51
0
  0
LINE
  5
75C
100
AcDbEntity
  8
0
100
AcDbLine
  6
BYLAYER
 10
48.5000009912288
 20
50.1920275162885
 11
42.5000009912297
 21
50.1920275162887
  0
ARC
  5
75D
100
AcDbEntity
  8
0
100
AcDbCircle
  6
BYLAYER
 10
48.5000009912299
 20
1.49999960268099
 40
1
100
AcDbArc
 50
299.999999999811
 51
0
  0
LINE
  5
75E
100
AcDbEntity
  8
HIDDEN
100
AcDbLine
  6
BYLAYER
 10
49.5000009912297
 20
74.1920275162889
 11
48.5000009912297
 21
74.1920275162889
  0
LINE
  5
75F
100
AcDbEntity
  8
HIDDEN
100
AcDbLine
  6
BYLAYER
 10
49.5000009912294
 20
8.19202751628893
 11
48.5000009912297
 21
8.19202751628893
  0
LINE
  5
760
100
AcDbEntity
  8
0
100
AcDbLine
  6
BYLAYER
 10
9.00000099122991
 20
89.1920275162885
 11
49.0000009912299
 21
89.1920275162885
  0
LINE
  5
761
100
AcDbEntity
  8
0
100
AcDbLine
  6
BYLAYER
 10
9.00000099122991
 20
89.6920275162885
 11
49.0000009912299
 21
89.6920275162885
  0
LINE
  5
762
100
AcDbEntity
  8
0
100
AcDbLine
  6
BYLAYER
 10
9.00000099122991
 20
89.0580529200728
 11
9.00000099122991
 21
89.6920275162885
  0
LINE
  5
763
100
AcDbEntity
  8
0
100
AcDbLine
  6
BYLAYER
 10
49.0000009912299
 20
89.6920275162885
 11
49.00000099123
 21
89.0580529200728
  0
LINE
  5
764
100
AcDbEntity
  8
HIDDEN
100
AcDbLine
  6
BYLAYER
 10
9.00000099122991
 20
0.499999602680873
 11
49.0000009912299
 21
0.499999602680873
  0
LINE
  5
765
100
AcDbEntity
  8
0
100
AcDbLine
  6
BYLAYER
 10
9.00000099122991
 20
-3.973191269E-7
 11
49.0000009912299
 21
-3.973191269E-7
  0
LINE
  5
766
100
AcDbEntity
  8
0
100
AcDbLine
  6
BYLAYER
 10
9.00000099122991
 20
48.6920275162871
 11
49.0000009912299
 21
48.6920275162871
  0
LINE
  5
767
100
AcDbEntity
  8
0
100
AcDbLine
  6
BYLAYER
 10
9.00000099122991
 20
49.1920275162871
 11
49.0000009912299
 21
49.1920275162871
  0
LINE
  5
768
100
AcDbEntity
  8
0
100
AcDbLine
  6
BYLAYER
 10
9.00000099122991
 20
49.3260021125042
 11
9.00000099123002
 21
48.4420275162878
  0
LINE
  5
769
100
AcDbEntity
  8
0
100
AcDbLine
  6
BYLAYER
 10
9.00000099123048
 20
40.1920275162878
 11
9.00000099123275
 21
-3.973191269E-7
  0
LINE
  5
76A
100
AcDbEntity
  8
0
100
AcDbLine
  6
BYLAYER
 10
49.0000009912299
 20
49.3260021125043
 11
49.0000009912298
 21
48.4420275162878
  0
LINE
  5
76B
100
AcDbEntity
  8
0
100
AcDbLine
  6
BYLAYER
 10
49.0000009912293
 20
40.1920275162878
 11
49.0000009912271
 21
-3.973191269E-7
  0
LINE
  5
76C
100
AcDbEntity
  8
HIDDEN
100
AcDbLine
  6
BYLAYER
 10
15.5000009912298
 20
49.1920275162871
 11
15.5000009912297
 21
0.499999602680873
  0
LINE
  5
76D
100
AcDbEntity
  8
HIDDEN
100
AcDbLine
  6
BYLAYER
 10
42.50000099123
 20
49.1920275162871
 11
42.5000009912301
 21
0.499999602680873
  0
LINE
  5
76E
100
AcDbEntity
  8
HIDDEN
100
AcDbLine
  6
BYLAYER
 10
9.00000099122991
 20
49.3260021125041
 11
9.00000099122991
 21
89.0580529200728
  0
LINE
  5
76F
100
AcDbEntity
  8
HIDDEN
100
AcDbLine
  6
BYLAYER
 10
49.0000009912299
 20
49.3260021125042
 11
49.00000099123
 21
89.0580529200728
  0
ARC
  5
770
100
AcDbEntity
  8
HIDDEN
100
AcDbCircle
  6
BYLAYER
 10
9.50000099122991
 20
1.49999960268087
 40
0.999999999999994
100
AcDbArc
 50
240.00000000018
 51
270
  0
ARC
  5
771
100
AcDbEntity
  8
HIDDEN
100
AcDbCircle
  6
BYLAYER
 10
48.5000009912299
 20
1.49999960268087
 40
0.999999999999994
100
AcDbArc
 50
270
 51
299.99999999982
  0
LINE
  5
772
100
AcDbEntity
  8
HIDDEN
100
AcDbLine
  6
BYLAYER
 10
8.25000099123002
 20
80.1920275162891
 11
8.00000099123002
 21
80.1920275162891
  0
LINE
  5
773
100
AcDbEntity
  8
HIDDEN
100
AcDbLine
  6
BYLAYER
 10
8.25000099123002
 20
78.1920275162892
 11
8.00000099123002
 21
78.1920275162892
  0
LINE
  5
774
100
AcDbEntity
  8
HIDDEN
100
AcDbLine
  6
BYLAYER
 10
8.25000099122979
 20
60.1920275162892
 11
8.00000099123002
 21
60.1920275162892
  0
LINE
  5
775
100
AcDbEntity
  8
HIDDEN
100
AcDbLine
  6
BYLAYER
 10
8.25000099122979
 20
58.1920275162892
 11
8.00000099123002
 21
58.1920275162892
  0
LINE
  5
776
100
AcDbEntity
  8
HIDDEN
100
AcDbLine
  6
BYLAYER
 10
49.7500009912298
 20
58.1920275162892
 11
50.0000009912297
 21
58.1920275162892
  0
LINE
  5
777
100
AcDbEntity
  8
HIDDEN
100
AcDbLine
  6
BYLAYER
 10
49.7500009912298
 20
60.1920275162892
 11
50.0000009912297
 21
60.1920275162892
  0
LINE
  5
778
100
AcDbEntity
  8
HIDDEN
100
AcDbLine
  6
BYLAYER
 10
49.7500009912298
 20
80.1920275162893
 11
50.0000009912297
 21
80.1920275162891
  0
LINE
  5
779
100
AcDbEntity
  8
HIDDEN
100
AcDbLine
  6
BYLAYER
 10
49.7500009912298
 20
78.1920275162893
 11
50.0000009912297
 21
78.1920275162893
  0
LINE
  5
77A
100
AcDbEntity
  8
HIDDEN
100
AcDbLine
  6
BYLAYER
 10
49.5000009912294
 20
48.4420275162878
 11
49.5000009912296
 21
40.1920275162878
  0
LINE
  5
77B
100
AcDbEntity
  8
HIDDEN
100
AcDbLine
  6
BYLAYER
 10
49.0000009912293
 20
40.1920275162878
 11
49.0000009912298
 21
48.4420275162878
  0
LINE
  5
77C
100
AcDbEntity
  8
HIDDEN
100
AcDbLine
  6
BYLAYER
 10
9.00000099123002
 20
48.4420275162878
 11
9.00000099123048
 21
40.1920275162878
  0
LINE
  5
77D
100
AcDbEntity
  8
HIDDEN
100
AcDbLine
  6
BYLAYER
 10
8.50000099123025
 20
40.1920275162878
 11
8.50000099123025
 21
48.4420275162878
  0
ENDBLK
  5
77E
100
AcDbEntity
  8
0
 67
     1
100
AcDbBlockEnd
  0
ENDSEC
  0
SECTION
  2
ENTITIES
  0
LINE
  5
77F
100
AcDbEntity
  8
DIM
100
AcDbLine
  6
BYLAYER
 62
0
370
  -2
 10
144.746597513186
 20
36.1458423294791
 11
144.746597513186
 21
55.4520887686735
  0
LINE
  5
780
100
AcDbEntity
  8
DIM
100
AcDbLine
  6
BYLAYER
 62
0
370
  -2
 10
51.9223241533994
 20
-18.9368735859875
 11
51.9223241533994
 21
55.4520887686735
  0
LINE
  5
781
100
AcDbEntity
  8
DIM
100
AcDbLine
  6
BYLAYER
 62
0
370
  -2
 10
139.496597513186
 20
53.7020887686735
 11
106.209460833292
 21
53.7020887686735
  0
LINE
  5
782
100
AcDbEntity
  8
DIM
100
AcDbLine
  6
BYLAYER
 62
0
370
  -2
 10
57.1723241533994
 20
53.7020887686735
 11
90.4594608332925
 21
53.7020887686735
  0
SOLID
  5
783
100
AcDbEntity
  8
DIM
100
AcDbTrace
 10
139.496597513186
 20
54.5770887686735
 30
0.0
 11
139.496597513186
 21
52.8270887686735
 31
0.0
 12
144.746597513186
 22
53.7020887686735
 32
0.0
 13
144.746597513186
 23
53.7020887686735
 33
0.0
  0
SOLID
  5
784
100
AcDbEntity
  8
DIM
100
AcDbTrace
 10
51.9223241533994
 20
53.7020887686735
 30
0.0
 11
57.1723241533994
 21
52.8270887686735
 31
0.0
 12
57.1723241533994
 22
54.5770887686735
 32
0.0
 13
57.1723241533994
 23
54.5770887686735
 33
0.0
  0
TEXT
  5
785
100
AcDbEntity
  8
DIM
 62
0
100
AcDbText
  6
BYLAYER
 62
0
 10
95.7094608332925
 20
51.0770887686735
 40
5.25
  1
93
  7
Font_0
 72
1
 11
98.3344608332925
 21
53.7020887686735
100
AcDbText
 73
2
  0
LINE
  5
786
100
AcDbEntity
  8
DIM
100
AcDbLine
  6
BYLAYER
 62
0
370
  -2
 10
144.746597513186
 20
36.1458423294791
 11
144.746597513186
 21
45.9438464680263
  0
LINE
  5
787
100
AcDbEntity
  8
DIM
100
AcDbLine
  6
BYLAYER
 62
0
370
  -2
 10
96.7965975131856
 20
-20.8541576705197
 11
96.7965975131856
 21
45.9438464680263
  0
LINE
  5
788
100
AcDbEntity
  8
DIM
100
AcDbLine
  6
BYLAYER
 62
0
370
  -2
 10
139.496597513186
 20
44.1938464680263
 11
128.646597513186
 21
44.1938464680263
  0
LINE
  5
789
100
AcDbEntity
  8
DIM
100
AcDbLine
  6
BYLAYER
 62
0
370
  -2
 10
102.046597513186
 20
44.1938464680263
 11
112.896597513186
 21
44.1938464680263
  0
SOLID
  5
78A
100
AcDbEntity
  8
DIM
100
AcDbTrace
 10
139.496597513186
 20
45.0688464680263
 30
0.0
 11
139.496597513186
 21
43.3188464680263
 31
0.0
 12
144.746597513186
 22
44.1938464680263
 32
0.0
 13
144.746597513186
 23
44.1938464680263
 33
0.0
  0
SOLID
  5
78B
100
AcDbEntity
  8
DIM
100
AcDbTrace
 10
96.7965975131856
 20
44.1938464680263
 30
0.0
 11
102.046597513186
 21
43.3188464680263
 31
0.0
 12
102.046597513186
 22
45.0688464680263
 32
0.0
 13
102.046597513186
 23
45.0688464680263
 33
0.0
  0
TEXT
  5
78C
100
AcDbEntity
  8
DIM
 62
0
100
AcDbText
  6
BYLAYER
 62
0
 10
118.146597513186
 20
41.5688464680263
 40
5.25
  1
48
  7
Font_0
 72
1
 11
120.771597513186
 21
44.1938464680263
100
AcDbText
 73
2
  0
LINE
  5
78D
100
AcDbEntity
  8
DIM
100
AcDbLine
  6
BYLAYER
 62
0
370
  -2
 10
77.3447842483999
 20
44.1938464680263
 11
90.4697842484
 21
44.1938464680263
  0
LINE
  5
78E
100
AcDbEntity
  8
DIM
100
AcDbLine
  6
BYLAYER
 62
0
370
  -2
 10
90.4697842484
 20
44.1938464680263
 11
93.9442163654633
 21
7.51106143524332
  0
TEXT
  5
78F
100
AcDbEntity
  8
DIM
 62
0
100
AcDbText
  6
BYLAYER
 62
0
 10
62.0322842483999
 20
41.5688464680263
 40
5.25
  1
φ50
  7
Font_0
 72
1
 11
67.2822842483999
 21
44.1938464680263
100
AcDbText
 73
2
  0
SOLID
  5
790
100
AcDbEntity
  8
DIM
100
AcDbTrace
 10
94.8153177445556
 20
7.59356832794603
 30
0.0
 11
93.0731149863709
 21
7.42855454254061
 31
0.0
 12
94.4392577216795
 22
2.2844531606894
 32
0.0
 13
94.4392577216795
 23
2.2844531606894
 33
0.0
  0
LINE
  5
791
100
AcDbEntity
  8
DIM
100
AcDbLine
  6
BYLAYER
 62
0
370
  -2
 10
96.4815975131856
 20
-22.6041576705197
 11
97.1115975131856
 21
-22.6041576705197
  0
LINE
  5
792
100
AcDbEntity
  8
DIM
100
AcDbLine
  6
BYLAYER
 62
0
370
  -2
 10
96.7965975131856
 20
-22.9191576705197
 11
96.7965975131856
 21
-22.2891576705197
  0
LINE
  5
793
100
AcDbEntity
  8
DIM
100
AcDbLine
  6
BYLAYER
 62
0
370
  -2
 10
95.037179584311
 20
25.8958423294802
 11
35.572739065542
 21
25.8958423294802
  0
LINE
  5
794
100
AcDbEntity
  8
DIM
100
AcDbLine
  6
BYLAYER
 62
0
370
  -2
 10
92.6189525744337
 20
-63.8132320988363
 11
35.572739065542
 21
-63.8132320988363
  0
LINE
  5
795
100
AcDbEntity
  8
DIM
100
AcDbLine
  6
BYLAYER
 62
0
370
  -2
 10
37.322739065542
 20
20.6458423294802
 11
37.322739065542
 21
-11.5211948846781
  0
LINE
  5
796
100
AcDbEntity
  8
DIM
100
AcDbLine
  6
BYLAYER
 62
0
370
  -2
 10
37.322739065542
 20
-58.5632320988363
 11
37.322739065542
 21
-26.3961948846781
  0
SOLID
  5
797
100
AcDbEntity
  8
DIM
100
AcDbTrace
 10
36.447739065542
 20
20.6458423294802
 30
0.0
 11
38.197739065542
 21
20.6458423294802
 31
0.0
 12
37.322739065542
 22
25.8958423294802
 32
0.0
 13
37.322739065542
 23
25.8958423294802
 33
0.0
  0
SOLID
  5
798
100
AcDbEntity
  8
DIM
100
AcDbTrace
 10
37.322739065542
 20
-63.8132320988363
 30
0.0
 11
38.197739065542
 21
-58.5632320988363
 31
0.0
 12
36.447739065542
 22
-58.5632320988363
 32
0.0
 13
36.447739065542
 23
-58.5632320988363
 33
0.0
  0
TEXT
  5
799
100
AcDbEntity
  8
DIM
 62
0
100
AcDbText
  6
BYLAYER
 62
0
 10
39.947739065542
 20
-21.5836948846781
 40
5.25
  1
90
  7
Font_0
 50
90
 72
1
 11
37.322739065542
 21
-18.9586948846781
100
AcDbText
 73
2
  0
LINE
  5
79A
100
AcDbEntity
  8
DIM
100
AcDbLine
  6
BYLAYER
 62
0
370
  -2
 10
92.6189525744337
 20
-63.8132320988363
 11
44.1907553594849
 21
-63.8132320988363
  0
LINE
  5
79B
100
AcDbEntity
  8
DIM
100
AcDbLine
  6
BYLAYER
 62
0
370
  -2
 10
95.0465975131856
 20
-22.6041576705198
 11
44.1907553594849
 21
-22.6041576705197
  0
LINE
  5
79C
100
AcDbEntity
  8
DIM
100
AcDbLine
  6
BYLAYER
 62
0
370
  -2
 10
45.9407553594849
 20
-58.5632320988363
 11
45.9407553594849
 21
-50.139666434978
  0
LINE
  5
79D
100
AcDbEntity
  8
DIM
100
AcDbLine
  6
BYLAYER
 62
0
370
  -2
 10
45.9407553594849
 20
-27.8541576705197
 11
45.9407553594849
 21
-36.139666434978
  0
SOLID
  5
79E
100
AcDbEntity
  8
DIM
100
AcDbTrace
 10
45.9407553594849
 20
-63.8132320988363
 30
0.0
 11
46.8157553594849
 21
-58.5632320988363
 31
0.0
 12
45.0657553594849
 22
-58.5632320988363
 32
0.0
 13
45.0657553594849
 23
-58.5632320988363
 33
0.0
  0
SOLID
  5
79F
100
AcDbEntity
  8
DIM
100
AcDbTrace
 10
45.0657553594849
 20
-27.8541576705197
 30
0.0
 11
46.8157553594849
 21
-27.8541576705197
 31
0.0
 12
45.9407553594849
 22
-22.6041576705197
 32
0.0
 13
45.9407553594849
 23
-22.6041576705197
 33
0.0
  0
TEXT
  5
7A0
100
AcDbEntity
  8
DIM
 62
0
100
AcDbText
  6
BYLAYER
 62
0
 10
48.5657553594849
 20
-45.764666434978
 40
5.25
  1
41
  7
Font_0
 50
90
 72
1
 11
45.9407553594849
 21
-43.139666434978
100
AcDbText
 73
2
  0
LINE
  5
7A1
100
AcDbEntity
  8
DIM
100
AcDbLine
  6
BYLAYER
 62
0
370
  -2
 10
141.996597513186
 20
34.3958423294791
 11
26.8653669451717
 21
34.3958423294792
  0
LINE
  5
7A2
100
AcDbEntity
  8
DIM
100
AcDbLine
  6
BYLAYER
 62
0
370
  -2
 10
92.6189525744337
 20
-63.8132320988363
 11
26.8653669451716
 21
-63.8132320988363
  0
LINE
  5
7A3
100
AcDbEntity
  8
DIM
100
AcDbLine
  6
BYLAYER
 62
0
370
  -2
 10
28.6153669451717
 20
29.1458423294792
 11
28.6153669451717
 21
-6.83369488467857
  0
LINE
  5
7A4
100
AcDbEntity
  8
DIM
100
AcDbLine
  6
BYLAYER
 62
0
370
  -2
 10
28.6153669451717
 20
-58.5632320988363
 11
28.6153669451717
 21
-22.5836948846786
  0
SOLID
  5
7A5
100
AcDbEntity
  8
DIM
100
AcDbTrace
 10
27.7403669451717
 20
29.1458423294792
 30
0.0
 11
29.4903669451717
 21
29.1458423294792
 31
0.0
 12
28.6153669451717
 22
34.3958423294792
 32
0.0
 13
28.6153669451717
 23
34.3958423294792
 33
0.0
  0
SOLID
  5
7A6
100
AcDbEntity
  8
DIM
100
AcDbTrace
 10
28.6153669451717
 20
-63.8132320988363
 30
0.0
 11
29.4903669451716
 21
-58.5632320988363
 31
0.0
 12
27.7403669451716
 22
-58.5632320988363
 32
0.0
 13
27.7403669451716
 23
-58.5632320988363
 33
0.0
  0
TEXT
  5
7A7
100
AcDbEntity
  8
DIM
 62
0
100
AcDbText
  6
BYLAYER
 62
0
 10
31.2403669451717
 20
-17.3336948846786
 40
5.25
  1
98
  7
Font_0
 50
90
 72
1
 11
28.6153669451717
 21
-14.7086948846786
100
AcDbText
 73
2
  0
LINE
  5
7A8
100
AcDbEntity
  8
DIM
100
AcDbLine
  6
BYLAYER
 62
0
370
  -2
 10
173.3612723336
 20
32.1458423294791
 11
173.3612723336
 21
54.5733172550172
  0
LINE
  5
7A9
100
AcDbEntity
  8
DIM
100
AcDbLine
  6
BYLAYER
 62
0
370
  -2
 10
223.3612723336
 20
32.1458423294791
 11
223.3612723336
 21
54.5733172550172
  0
LINE
  5
7AA
100
AcDbEntity
  8
DIM
100
AcDbLine
  6
BYLAYER
 62
0
370
  -2
 10
178.6112723336
 20
52.8233172550172
 11
190.9237723336
 21
52.8233172550172
  0
LINE
  5
7AB
100
AcDbEntity
  8
DIM
100
AcDbLine
  6
BYLAYER
 62
0
370
  -2
 10
218.1112723336
 20
52.8233172550172
 11
205.7987723336
 21
52.8233172550172
  0
SOLID
  5
7AC
100
AcDbEntity
  8
DIM
100
AcDbTrace
 10
173.3612723336
 20
52.8233172550172
 30
0.0
 11
178.6112723336
 21
51.9483172550172
 31
0.0
 12
178.6112723336
 22
53.6983172550172
 32
0.0
 13
178.6112723336
 23
53.6983172550172
 33
0.0
  0
SOLID
  5
7AD
100
AcDbEntity
  8
DIM
100
AcDbTrace
 10
218.1112723336
 20
53.6983172550172
 30
0.0
 11
218.1112723336
 21
51.9483172550172
 31
0.0
 12
223.3612723336
 22
52.8233172550172
 32
0.0
 13
223.3612723336
 23
52.8233172550172
 33
0.0
  0
TEXT
  5
7AE
100
AcDbEntity
  8
DIM
 62
0
100
AcDbText
  6
BYLAYER
 62
0
 10
195.7362723336
 20
50.1983172550172
 40
5.25
  1
50
  7
Font_0
 72
1
 11
198.3612723336
 21
52.8233172550172
100
AcDbText
 73
2
  0
LINE
  5
7AF
100
AcDbEntity
  8
DIM
100
AcDbLine
  6
BYLAYER
 62
0
370
  -2
 10
227.3612723336
 20
33.1458423294791
 11
227.3612723336
 21
64.8654236763906
  0
LINE
  5
7B0
100
AcDbEntity
  8
DIM
100
AcDbLine
  6
BYLAYER
 62
0
370
  -2
 10
169.3612723336
 20
33.1458423294791
 11
169.3612723336
 21
64.8654236763906
  0
LINE
  5
7B1
100
AcDbEntity
  8
DIM
100
AcDbLine
  6
BYLAYER
 62
0
370
  -2
 10
222.1112723336
 20
63.1154236763906
 11
206.2362723336
 21
63.1154236763906
  0
LINE
  5
7B2
100
AcDbEntity
  8
DIM
100
AcDbLine
  6
BYLAYER
 62
0
370
  -2
 10
174.6112723336
 20
63.1154236763906
 11
190.4862723336
 21
63.1154236763906
  0
SOLID
  5
7B3
100
AcDbEntity
  8
DIM
100
AcDbTrace
 10
222.1112723336
 20
63.9904236763906
 30
0.0
 11
222.1112723336
 21
62.2404236763906
 31
0.0
 12
227.3612723336
 22
63.1154236763906
 32
0.0
 13
227.3612723336
 23
63.1154236763906
 33
0.0
  0
SOLID
  5
7B4
100
AcDbEntity
  8
DIM
100
AcDbTrace
 10
169.3612723336
 20
63.1154236763906
 30
0.0
 11
174.6112723336
 21
62.2404236763906
 31
0.0
 12
174.6112723336
 22
63.9904236763906
 32
0.0
 13
174.6112723336
 23
63.9904236763906
 33
0.0
  0
TEXT
  5
7B5
100
AcDbEntity
  8
DIM
 62
0
100
AcDbText
  6
BYLAYER
 62
0
 10
195.7362723336
 20
60.4904236763906
 40
5.25
  1
58
  7
Font_0
 72
1
 11
198.3612723336
 21
63.1154236763906
100
AcDbText
 73
2
  0
LINE
  5
7B6
100
AcDbEntity
  8
DIM
100
AcDbLine
  6
BYLAYER
 62
0
370
  -2
 10
234.692417537728
 20
53.7020887686723
 11
229.442417537727
 21
53.7020887686723
  0
LINE
  5
7B7
100
AcDbEntity
  8
DIM
100
AcDbLine
  6
BYLAYER
 62
0
370
  -2
 10
229.442417537727
 20
53.7020887686723
 11
225.254802389102
 21
37.652876429503
  0
TEXT
  5
7B8
100
AcDbEntity
  8
DIM
 62
0
100
AcDbText
  6
BYLAYER
 62
0
 10
242.129917537728
 20
51.0770887686723
 40
5.25
  1
4-φ4.5
  7
Font_0
 72
1
 11
251.317417537728
 21
53.7020887686723
100
AcDbText
 73
2
  0
SOLID
  5
7B9
100
AcDbEntity
  8
DIM
100
AcDbTrace
 10
223.92933135025
 20
32.5729525594863
 30
0.0
 11
226.101456367438
 21
37.4319645896944
 31
0.0
 12
224.408148410766
 22
37.8737882693116
 32
0.0
 13
224.408148410766
 23
37.8737882693116
 33
0.0
  0
LINE
  5
7BA
100
AcDbEntity
  8
DIM
100
AcDbLine
  6
BYLAYER
 62
0
370
  -2
 10
223.0462723336
 20
30.3958423294791
 11
223.6762723336
 21
30.3958423294791
  0
LINE
  5
7BB
100
AcDbEntity
  8
DIM
100
AcDbLine
  6
BYLAYER
 62
0
370
  -2
 10
223.3612723336
 20
30.0808423294791
 11
223.3612723336
 21
30.7108423294791
  0
LINE
  5
7BC
100
AcDbEntity
  8
DIM
100
AcDbLine
  6
BYLAYER
 62
0
370
  -2
 10
266.861271958411
 20
-8.85415971883435
 11
266.861271958411
 21
74.5677842585509
  0
LINE
  5
7BD
100
AcDbEntity
  8
DIM
100
AcDbLine
  6
BYLAYER
 62
0
370
  -2
 10
169.3612723336
 20
33.1458423294791
 11
169.3612723336
 21
74.5677842585509
  0
LINE
  5
7BE
100
AcDbEntity
  8
DIM
100
AcDbLine
  6
BYLAYER
 62
0
370
  -2
 10
261.611271958411
 20
72.8177842585509
 11
229.486272146005
 21
72.8177842585509
  0
LINE
  5
7BF
100
AcDbEntity
  8
DIM
100
AcDbLine
  6
BYLAYER
 62
0
370
  -2
 10
174.6112723336
 20
72.8177842585509
 11
206.736272146005
 21
72.8177842585509
  0
SOLID
  5
7C0
100
AcDbEntity
  8
DIM
100
AcDbTrace
 10
261.611271958411
 20
73.6927842585509
 30
0.0
 11
261.611271958411
 21
71.9427842585509
 31
0.0
 12
266.861271958411
 22
72.8177842585509
 32
0.0
 13
266.861271958411
 23
72.8177842585509
 33
0.0
  0
SOLID
  5
7C1
100
AcDbEntity
  8
DIM
100
AcDbTrace
 10
169.3612723336
 20
72.8177842585509
 30
0.0
 11
174.6112723336
 21
71.9427842585509
 31
0.0
 12
174.6112723336
 22
73.6927842585509
 32
0.0
 13
174.6112723336
 23
73.6927842585509
 33
0.0
  0
TEXT
  5
7C2
100
AcDbEntity
  8
DIM
 62
0
100
AcDbText
  6
BYLAYER
 62
0
 10
212.861272146005
 20
70.1927842585509
 40
5.25
  1
97.5
  7
Font_0
 72
1
 11
218.111272146005
 21
72.8177842585509
100
AcDbText
 73
2
  0
LINE
  5
7C3
100
AcDbEntity
  8
DIM
100
AcDbLine
  6
BYLAYER
 62
0
370
  -2
 10
217.8612723336
 20
26.1458423294798
 11
217.8612723336
 21
44.2933788197647
  0
LINE
  5
7C4
100
AcDbEntity
  8
DIM
100
AcDbLine
  6
BYLAYER
 62
0
370
  -2
 10
178.8612723336
 20
26.1458423294796
 11
178.8612723336
 21
44.2933788197647
  0
LINE
  5
7C5
100
AcDbEntity
  8
DIM
100
AcDbLine
  6
BYLAYER
 62
0
370
  -2
 10
212.6112723336
 20
42.5433788197647
 11
206.2362723336
 21
42.5433788197647
  0
LINE
  5
7C6
100
AcDbEntity
  8
DIM
100
AcDbLine
  6
BYLAYER
 62
0
370
  -2
 10
184.1112723336
 20
42.5433788197647
 11
190.4862723336
 21
42.5433788197647
  0
SOLID
  5
7C7
100
AcDbEntity
  8
DIM
100
AcDbTrace
 10
212.6112723336
 20
43.4183788197647
 30
0.0
 11
212.6112723336
 21
41.6683788197647
 31
0.0
 12
217.8612723336
 22
42.5433788197647
 32
0.0
 13
217.8612723336
 23
42.5433788197647
 33
0.0
  0
SOLID
  5
7C8
100
AcDbEntity
  8
DIM
100
AcDbTrace
 10
178.8612723336
 20
42.5433788197647
 30
0.0
 11
184.1112723336
 21
41.6683788197647
 31
0.0
 12
184.1112723336
 22
43.4183788197647
 32
0.0
 13
184.1112723336
 23
43.4183788197647
 33
0.0
  0
TEXT
  5
7C9
100
AcDbEntity
  8
DIM
 62
0
100
AcDbText
  6
BYLAYER
 62
0
 10
195.7362723336
 20
39.9183788197647
 40
5.25
  1
39
  7
Font_0
 72
1
 11
198.3612723336
 21
42.5433788197647
100
AcDbText
 73
2
  0
ARC
  5
7CA
100
AcDbEntity
  8
0
100
AcDbCircle
  6
BYLAYER
 10
120.084458473086
 20
-32.1172832921837
 40
5.5
100
AcDbArc
 50
75.6884690036848
 51
90.043291498876
  0
ARC
  5
7CB
100
AcDbEntity
  8
0
100
AcDbCircle
  6
BYLAYER
 10
120.080302786731
 20
-32.1172832921837
 40
6.3
100
AcDbArc
 50
76.3635684313892
 51
90
  0
ARC
  5
7CC
100
AcDbEntity
  8
0
100
AcDbCircle
  6
BYLAYER
 10
87.2834718915217
 20
-45.89201863042
 40
5.5
100
AcDbArc
 50
345.688469003684
 51
0.0432914988751859
  0
ARC
  5
7CD
100
AcDbEntity
  8
0
100
AcDbCircle
  6
BYLAYER
 10
87.2834718915217
 20
-45.8878629440648
 40
6.3
100
AcDbArc
 50
346.363568431389
 51
0
  0
ARC
  5
7CE
100
AcDbEntity
  8
0
100
AcDbCircle
  6
BYLAYER
 10
72.3646472903657
 20
-28.5961386026369
 40
5.5
100
AcDbArc
 50
291.688469003684
 51
306.043291498876
  0
ARC
  5
7CF
100
AcDbEntity
  8
0
100
AcDbCircle
  6
BYLAYER
 10
72.3680093112503
 20
-28.5936959514842
 40
6.3
100
AcDbArc
 50
292.363568431388
 51
305.999999999999
  0
ARC
  5
7D0
100
AcDbEntity
  8
0
100
AcDbCircle
  6
BYLAYER
 10
75.4144986371215
 20
-35.8493959852156
 40
6.3
100
AcDbArc
 50
310.363568431388
 51
324.000000000001
  0
ARC
  5
7D1
100
AcDbEntity
  8
0
100
AcDbCircle
  6
BYLAYER
 10
80.5527326011177
 20
-41.8125121002905
 40
5.5
100
AcDbArc
 50
327.688469003685
 51
342.043291498876
  0
ARC
  5
7D2
100
AcDbEntity
  8
0
100
AcDbCircle
  6
BYLAYER
 10
80.5540167788248
 20
-41.8085598077028
 40
6.3
100
AcDbArc
 50
328.363568431389
 51
341.999999999999
  0
LINE
  5
7D3
100
AcDbEntity
  8
0
100
AcDbLine
  6
BYLAYER
 10
85.7848261249468
 20
-43.5081527927443
 11
86.5456728314842
 21
-43.7553668722649
  0
LINE
  5
7D4
100
AcDbEntity
  8
0
100
AcDbLine
  6
BYLAYER
 10
79.8640908353502
 20
-39.0822139509759
 11
80.5113057016836
 21
-39.5524430746582
  0
ARC
  5
7D5
100
AcDbEntity
  8
0
100
AcDbCircle
  6
BYLAYER
 10
75.4120559859688
 20
-35.8527580061002
 40
5.5
100
AcDbArc
 50
309.688469003684
 51
324.043291498875
  0
LINE
  5
7D6
100
AcDbEntity
  8
0
100
AcDbLine
  6
BYLAYER
 10
75.6008272750912
 20
-33.0432881511074
 11
76.0710564006929
 21
-33.6905030160463
  0
LINE
  5
7D7
100
AcDbEntity
  8
0
100
AcDbLine
  6
BYLAYER
 10
113.274653793642
 20
-39.5366643483552
 11
113.744882917324
 21
-38.8894494820217
  0
ARC
  5
7D8
100
AcDbEntity
  8
0
100
AcDbCircle
  6
BYLAYER
 10
110.045197848766
 20
-43.9886991977366
 40
5.5
100
AcDbArc
 50
39.6884690036854
 51
54.0432914988761
  0
ARC
  5
7D9
100
AcDbEntity
  8
0
100
AcDbCircle
  6
BYLAYER
 10
94.9441380219108
 20
-47.6879947811385
 40
6.3
100
AcDbArc
 50
4.36356843138913
 51
18.0000000000006
  0
ARC
  5
7DA
100
AcDbEntity
  8
0
100
AcDbCircle
  6
BYLAYER
 10
94.9454221996178
 20
-47.6919470737263
 40
5.5
100
AcDbArc
 50
3.68846900368484
 51
18.0432914988763
  0
LINE
  5
7DB
100
AcDbEntity
  8
0
100
AcDbLine
  6
BYLAYER
 10
92.7834703215469
 20
-45.8878629452511
 11
93.5834718915216
 21
-45.8878629440648
  0
LINE
  5
7DC
100
AcDbEntity
  8
0
100
AcDbLine
  6
BYLAYER
 10
100.174947368766
 20
-45.9884017983534
 11
100.93579407457
 21
-45.7411877165764
  0
ARC
  5
7DD
100
AcDbEntity
  8
0
100
AcDbCircle
  6
BYLAYER
 10
102.788578445303
 20
-47.0361078933397
 40
5.5
100
AcDbArc
 50
21.6884690036852
 51
36.0432914988754
  0
ARC
  5
7DE
100
AcDbEntity
  8
0
100
AcDbCircle
  6
BYLAYER
 10
102.78613579415
 20
-47.032745872455
 40
6.3
100
AcDbArc
 50
22.3635684313895
 51
35.9999999999994
  0
LINE
  5
7DF
100
AcDbEntity
  8
0
100
AcDbLine
  6
BYLAYER
 10
107.235727993773
 20
-43.7999279086142
 11
107.882942858712
 21
-43.3296987830125
  0
ARC
  5
7E0
100
AcDbEntity
  8
0
100
AcDbCircle
  6
BYLAYER
 10
110.041835827881
 20
-43.9862565465839
 40
6.3
100
AcDbArc
 50
40.363568431389
 51
54.0000000000008
  0
ARC
  5
7E1
100
AcDbEntity
  8
0
100
AcDbCircle
  6
BYLAYER
 10
116.004951942956
 20
-38.8480225825877
 40
5.5
100
AcDbArc
 50
57.6884690036849
 51
72.0432914988762
  0
ARC
  5
7E2
100
AcDbEntity
  8
0
100
AcDbCircle
  6
BYLAYER
 10
116.000999650369
 20
-38.8467384048806
 40
6.3
100
AcDbArc
 50
58.3635684313894
 51
71.9999999999999
  0
LINE
  5
7E3
100
AcDbEntity
  8
0
100
AcDbLine
  6
BYLAYER
 10
117.70059263541
 20
-33.6159290587586
 11
117.947806714931
 21
-32.8550823522212
  0
ARC
  5
7E4
100
AcDbEntity
  8
0
100
AcDbCircle
  6
BYLAYER
 10
98.6490570044605
 20
2.47967944009902
 40
6.3
100
AcDbArc
 50
184.363568431388
 51
198.000000000001
  0
ARC
  5
7E5
100
AcDbEntity
  8
0
100
AcDbCircle
  6
BYLAYER
 10
83.5479971776052
 20
-1.21961614330286
 40
5.5
100
AcDbArc
 50
219.688469003684
 51
234.043291498876
  0
ARC
  5
7E6
100
AcDbEntity
  8
0
100
AcDbCircle
  6
BYLAYER
 10
83.5513591984898
 20
-1.22205879445559
 40
6.3
100
AcDbArc
 50
220.363568431388
 51
234.000000000001
  0
ARC
  5
7E7
100
AcDbEntity
  8
0
100
AcDbCircle
  6
BYLAYER
 10
71.7088081099791
 20
-20.752982356952
 40
5.5
100
AcDbArc
 50
273.688469003684
 51
288.043291498876
  0
ARC
  5
7E8
100
AcDbEntity
  8
0
100
AcDbCircle
  6
BYLAYER
 10
71.7127604025668
 20
-20.7516981792449
 40
6.3
100
AcDbArc
 50
274.363568431388
 51
288
  0
ARC
  5
7E9
100
AcDbEntity
  8
0
100
AcDbCircle
  6
BYLAYER
 10
73.5087365532854
 20
-13.0910320488558
 40
5.5
100
AcDbArc
 50
255.688469003684
 51
270.043291498876
  0
ARC
  5
7EA
100
AcDbEntity
  8
0
100
AcDbCircle
  6
BYLAYER
 10
73.5128922396405
 20
-13.0910320488558
 40
6.3
100
AcDbArc
 50
256.363568431388
 51
270
  0
LINE
  5
7EB
100
AcDbEntity
  8
0
100
AcDbLine
  6
BYLAYER
 10
73.4123533853519
 20
-25.9825075261001
 11
73.659567467129
 21
-26.7433542319043
  0
LINE
  5
7EC
100
AcDbEntity
  8
0
100
AcDbLine
  6
BYLAYER
 10
73.5128922384543
 20
-18.591030478881
 11
73.5128922396405
 21
-19.3910320488558
  0
ARC
  5
7ED
100
AcDbEntity
  8
0
100
AcDbCircle
  6
BYLAYER
 10
77.5882430834148
 20
-6.36029275845183
 40
5.5
100
AcDbArc
 50
237.688469003684
 51
252.043291498876
  0
ARC
  5
7EE
100
AcDbEntity
  8
0
100
AcDbCircle
  6
BYLAYER
 10
77.5921953760026
 20
-6.36157693615888
 40
6.3
100
AcDbArc
 50
238.363568431388
 51
252
  0
LINE
  5
7EF
100
AcDbEntity
  8
0
100
AcDbLine
  6
BYLAYER
 10
75.892602390961
 20
-11.5923862822809
 11
75.6453883114405
 21
-12.3532329888183
  0
LINE
  5
7F0
100
AcDbEntity
  8
0
100
AcDbLine
  6
BYLAYER
 10
80.3185412327295
 20
-5.67165099268431
 11
79.8483121090472
 21
-6.31886585901776
  0
ARC
  5
7F1
100
AcDbEntity
  8
0
100
AcDbCircle
  6
BYLAYER
 10
90.8046165810685
 20
1.82779255230019
 40
5.5
100
AcDbArc
 50
201.688469003684
 51
216.043291498875
  0
ARC
  5
7F2
100
AcDbEntity
  8
0
100
AcDbCircle
  6
BYLAYER
 10
90.8070592322212
 20
1.82443053141557
 40
6.3
100
AcDbArc
 50
202.363568431389
 51
215.999999999999
  0
LINE
  5
7F3
100
AcDbEntity
  8
0
100
AcDbLine
  6
BYLAYER
 10
86.357467032598
 20
-1.40838743242534
 11
85.7102521676591
 21
-1.87861655802703
  0
ARC
  5
7F4
100
AcDbEntity
  8
0
100
AcDbCircle
  6
BYLAYER
 10
118.181139040403
 20
-9.35555733493928
 40
5.5
100
AcDbArc
 50
129.688469003685
 51
144.043291498875
  0
ARC
  5
7F5
100
AcDbEntity
  8
0
100
AcDbCircle
  6
BYLAYER
 10
118.17869638925
 20
-9.3589193558239
 40
6.3
100
AcDbArc
 50
130.363568431389
 51
144.000000000001
  0
LINE
  5
7F6
100
AcDbEntity
  8
0
100
AcDbLine
  6
BYLAYER
 10
113.729104191021
 20
-6.12610139006361
 11
113.081889324688
 21
-5.65587226638135
  0
ARC
  5
7F7
100
AcDbEntity
  8
0
100
AcDbCircle
  6
BYLAYER
 10
121.884386916392
 20
-24.4553329840876
 40
5.5
100
AcDbArc
 50
93.6884690036852
 51
108.043291498876
  0
ARC
  5
7F8
100
AcDbEntity
  8
0
100
AcDbCircle
  6
BYLAYER
 10
121.880434623804
 20
-24.4566171617946
 40
6.3
100
AcDbArc
 50
94.3635684313892
 51
108
  0
LINE
  5
7F9
100
AcDbEntity
  8
0
100
AcDbLine
  6
BYLAYER
 10
120.080302787917
 20
-26.6172848621584
 11
120.080302786731
 21
-25.8172832921837
  0
LINE
  5
7FA
100
AcDbEntity
  8
0
100
AcDbLine
  6
BYLAYER
 10
120.180841641019
 20
-19.2258078149394
 11
119.933627559242
 21
-18.4649611091352
  0
ARC
  5
7FB
100
AcDbEntity
  8
0
100
AcDbCircle
  6
BYLAYER
 10
121.228547736006
 20
-16.6121767384026
 40
5.5
100
AcDbArc
 50
111.688469003685
 51
126.043291498876
  0
ARC
  5
7FC
100
AcDbEntity
  8
0
100
AcDbCircle
  6
BYLAYER
 10
121.225185715121
 20
-16.6146193895554
 40
6.3
100
AcDbArc
 50
112.363568431389
 51
125.999999999999
  0
LINE
  5
7FD
100
AcDbEntity
  8
0
100
AcDbLine
  6
BYLAYER
 10
117.99236775128
 20
-12.1650271899321
 11
117.522138625678
 21
-11.5178123249932
  0
ARC
  5
7FE
100
AcDbEntity
  8
0
100
AcDbCircle
  6
BYLAYER
 10
113.040462425254
 20
-3.39580324074902
 40
5.5
100
AcDbArc
 50
147.688469003685
 51
162.043291498876
  0
ARC
  5
7FF
100
AcDbEntity
  8
0
100
AcDbCircle
  6
BYLAYER
 10
113.039178247546
 20
-3.39975553333679
 40
6.3
100
AcDbArc
 50
148.363568431389
 51
161.999999999999
  0
ARC
  5
800
100
AcDbEntity
  8
0
100
AcDbCircle
  6
BYLAYER
 10
106.30972313485
 20
0.683703289380503
 40
5.5
100
AcDbArc
 50
165.688469003684
 51
180.043291498875
  0
ARC
  5
801
100
AcDbEntity
  8
0
100
AcDbCircle
  6
BYLAYER
 10
106.30972313485
 20
0.679547603025327
 40
6.3
100
AcDbArc
 50
166.363568431388
 51
180
  0
ARC
  5
802
100
AcDbEntity
  8
0
100
AcDbCircle
  6
BYLAYER
 10
98.6477728267535
 20
2.48363173268679
 40
5.5
100
AcDbArc
 50
183.688469003684
 51
198.043291498876
  0
LINE
  5
803
100
AcDbEntity
  8
0
100
AcDbLine
  6
BYLAYER
 10
93.4182476576053
 20
0.7800864573139
 11
92.6574009518011
 21
0.532872375536868
  0
LINE
  5
804
100
AcDbEntity
  8
0
100
AcDbLine
  6
BYLAYER
 10
100.809724704824
 20
0.679547604211592
 11
100.00972313485
 21
0.679547603025327
  0
LINE
  5
805
100
AcDbEntity
  8
0
100
AcDbLine
  6
BYLAYER
 10
107.808368901424
 20
-1.70016254829522
 11
107.047522194887
 21
-1.45294846877462
  0
CIRCLE
  5
806
100
AcDbEntity
  8
0
100
AcDbCircle
  6
BYLAYER
 10
96.7965975131856
 20
-22.6041576705198
 40
2
  0
CIRCLE
  5
807
100
AcDbEntity
  8
0
100
AcDbCircle
  6
BYLAYER
 10
96.7965975131856
 20
-22.6041576705198
 40
8
  0
LINE
  5
808
100
AcDbEntity
  8
0
100
AcDbLine
  6
BYLAYER
 10
143.746597513186
 20
-23.6041576705209
 11
144.746597513186
 21
-23.6041576705209
  0
LINE
  5
809
100
AcDbEntity
  8
0
100
AcDbLine
  6
BYLAYER
 10
144.746597513186
 20
-23.6041576705209
 11
144.746597513186
 21
34.3958423294791
  0
LINE
  5
80A
100
AcDbEntity
  8
0
100
AcDbLine
  6
BYLAYER
 10
144.746597513186
 20
34.3958423294791
 11
143.746597513186
 21
34.3958423294791
  0
LINE
  5
80B
100
AcDbEntity
  8
0
100
AcDbLine
  6
BYLAYER
 10
143.746597513186
 20
34.3958423294791
 11
143.746597513186
 21
-23.6041576705209
  0
LINE
  5
80C
100
AcDbEntity
  8
0
100
AcDbLine
  6
BYLAYER
 10
136.996597513186
 20
17.5678423294791
 11
136.996597513186
 21
-6.77615767052083
  0
LINE
  5
80D
100
AcDbEntity
  8
0
100
AcDbLine
  6
BYLAYER
 10
140.996597513186
 20
21.5678423294791
 11
136.996597513186
 21
17.5678423294791
  0
LINE
  5
80E
100
AcDbEntity
  8
0
100
AcDbLine
  6
BYLAYER
 10
136.996597513186
 20
-6.77615767052083
 11
140.996597513186
 21
-10.7761576705208
  0
LINE
  5
80F
100
AcDbEntity
  8
0
100
AcDbLine
  6
BYLAYER
 10
140.996597513186
 20
21.5678423294791
 11
140.996597513185
 21
27.1458423294791
  0
LINE
  5
810
100
AcDbEntity
  8
0
100
AcDbLine
  6
BYLAYER
 10
136.996597513185
 20
26.1458423294791
 11
140.996597513185
 21
26.1458423294791
  0
LINE
  5
811
100
AcDbEntity
  8
0
100
AcDbLine
  6
BYLAYER
 10
136.996597513186
 20
27.1458423294791
 11
143.746597513186
 21
27.1458423294791
  0
LINE
  5
812
100
AcDbEntity
  8
0
100
AcDbLine
  6
BYLAYER
 10
136.996597513185
 20
26.1458423294791
 11
136.996597513186
 21
27.1458423294791
  0
LINE
  5
813
100
AcDbEntity
  8
0
100
AcDbLine
  6
BYLAYER
 10
136.996597513185
 20
-15.3541576705209
 11
140.996597513185
 21
-15.3541576705209
  0
LINE
  5
814
100
AcDbEntity
  8
0
100
AcDbLine
  6
BYLAYER
 10
136.996597513186
 20
-16.3541576705209
 11
143.746597513186
 21
-16.3541576705209
  0
LINE
  5
815
100
AcDbEntity
  8
0
100
AcDbLine
  6
BYLAYER
 10
136.996597513185
 20
-15.3541576705209
 11
136.996597513186
 21
-16.3541576705209
  0
LINE
  5
816
100
AcDbEntity
  8
0
100
AcDbLine
  6
BYLAYER
 10
140.996597513186
 20
-10.7761576705208
 11
140.996597513185
 21
-16.3541576705209
  0
CIRCLE
  5
817
100
AcDbEntity
  8
0
100
AcDbCircle
  6
BYLAYER
 10
135.996597513186
 20
-4.6041576705195
 40
1
  0
CIRCLE
  5
818
100
AcDbEntity
  8
0
100
AcDbCircle
  6
BYLAYER
 10
135.996597513186
 20
15.3958423294805
 40
1
  0
CIRCLE
  5
819
100
AcDbEntity
  8
0
100
AcDbCircle
  6
BYLAYER
 10
127.973512049425
 20
-4.60415767051972
 40
1.3
  0
CIRCLE
  5
81A
100
AcDbEntity
  8
0
100
AcDbCircle
  6
BYLAYER
 10
65.6196829769458
 20
-4.6041576705199
 40
1.3
  0
CIRCLE
  5
81B
100
AcDbEntity
  8
0
100
AcDbCircle
  6
BYLAYER
 10
96.7965975131856
 20
-58.6041576705195
 40
1.3
  0
CIRCLE
  5
81C
100
AcDbEntity
  8
0
100
AcDbCircle
  6
BYLAYER
 10
96.7965975131856
 20
-22.6041576705197
 40
25
  0
ARC
  5
81D
100
AcDbEntity
  8
0
100
AcDbCircle
  6
BYLAYER
 10
96.7965975131856
 20
-22.6041576705197
 40
36
100
AcDbArc
 50
161.358784390518
 51
258.641215609482
  0
ARC
  5
81E
100
AcDbEntity
  8
0
100
AcDbCircle
  6
BYLAYER
 10
96.7965975131856
 20
-22.6041576705197
 40
36
100
AcDbArc
 50
281.358784390518
 51
18.6412156094817
  0
ARC
  5
81F
100
AcDbEntity
  8
0
100
AcDbCircle
  6
BYLAYER
 10
96.7965975131856
 20
-58.6041576705197
 40
5
100
AcDbArc
 50
196.231194229358
 51
343.768805770641
  0
ARC
  5
820
100
AcDbEntity
  8
0
100
AcDbCircle
  6
BYLAYER
 10
89.1154643221281
 20
-60.8402687816309
 40
3
100
AcDbArc
 50
16.2311942293585
 51
78.6412156094818
  0
CIRCLE
  5
821
100
AcDbEntity
  8
0
100
AcDbCircle
  6
BYLAYER
 10
96.7965975131856
 20
-58.6041576705197
 40
1.75
  0
ARC
  5
822
100
AcDbEntity
  8
0
100
AcDbCircle
  6
BYLAYER
 10
104.477730704243
 20
-60.8402687816309
 40
3
100
AcDbArc
 50
101.358784390518
 51
163.768805770641
  0
ARC
  5
823
100
AcDbEntity
  8
0
100
AcDbCircle
  6
BYLAYER
 10
96.7965975131856
 20
-22.6041576705197
 40
36
100
AcDbArc
 50
41.3587843905184
 51
138.641215609481
  0
CIRCLE
  5
824
100
AcDbEntity
  8
0
100
AcDbCircle
  6
BYLAYER
 10
65.6196829769458
 20
-4.60415767051972
 40
1.75
  0
ARC
  5
825
100
AcDbEntity
  8
0
100
AcDbCircle
  6
BYLAYER
 10
65.6196829769458
 20
-4.60415767051972
 40
5
100
AcDbArc
 50
76.2311942293594
 51
223.76880577064
  0
ARC
  5
826
100
AcDbEntity
  8
0
100
AcDbCircle
  6
BYLAYER
 10
59.8425873535101
 20
-10.1381585882718
 40
3
100
AcDbArc
 50
341.358784390517
 51
43.7688057706402
  0
ARC
  5
827
100
AcDbEntity
  8
0
100
AcDbCircle
  6
BYLAYER
 10
67.5237205445677
 20
3.16595435834347
 40
3
100
AcDbArc
 50
256.231194229359
 51
318.641215609481
  0
ARC
  5
828
100
AcDbEntity
  8
0
100
AcDbCircle
  6
BYLAYER
 10
127.973512049425
 20
-4.60415767051972
 40
5
100
AcDbArc
 50
316.23119422936
 51
103.768805770641
  0
CIRCLE
  5
829
100
AcDbEntity
  8
0
100
AcDbCircle
  6
BYLAYER
 10
127.973512049425
 20
-4.60415767051972
 40
1.75
  0
ARC
  5
82A
100
AcDbEntity
  8
0
100
AcDbCircle
  6
BYLAYER
 10
126.069474481803
 20
3.16595435834347
 40
3
100
AcDbArc
 50
221.358784390518
 51
283.768805770641
  0
ARC
  5
82B
100
AcDbEntity
  8
0
100
AcDbCircle
  6
BYLAYER
 10
133.750607672861
 20
-10.1381585882719
 40
3
100
AcDbArc
 50
136.23119422936
 51
198.641215609482
  0
LINE
  5
82C
100
AcDbEntity
  8
0
100
AcDbLine
  6
BYLAYER
 10
213.3612723336
 20
4.4362183838
 11
213.3612723336
 21
-13.6041576705199
  0
LINE
  5
82D
100
AcDbEntity
  8
0
100
AcDbLine
  6
BYLAYER
 10
183.3612723336
 20
9.39584232948025
 11
183.3612723336
 21
-13.6041576705199
  0
LINE
  5
82E
100
AcDbEntity
  8
0
100
AcDbLine
  6
BYLAYER
 10
207.4112723336
 20
8.10546627516048
 11
209.6612723336
 21
7.35546627516048
  0
ARC
  5
82F
100
AcDbEntity
  8
0
100
AcDbCircle
  6
BYLAYER
 10
210.3612723336
 20
4.35546627516048
 40
3
100
AcDbArc
 50
0
 51
90
  0
LINE
  5
830
100
AcDbEntity
  8
0
100
AcDbLine
  6
BYLAYER
 10
209.6612723336
 20
7.35546627516048
 11
210.3612723336
 21
7.35546627516048
  0
LINE
  5
831
100
AcDbEntity
  8
0
100
AcDbLine
  6
BYLAYER
 10
209.6612723336
 20
7.35546627516048
 11
210.3612723336
 21
7.35546627516048
  0
ARC
  5
832
100
AcDbEntity
  8
0
100
AcDbCircle
  6
BYLAYER
 10
210.3612723336
 20
4.35546627516048
 40
3
100
AcDbArc
 50
0
 51
0
  0
LINE
  5
833
100
AcDbEntity
  8
0
100
AcDbLine
  6
BYLAYER
 10
188.9112723336
 20
8.10546627516048
 11
207.4112723336
 21
8.10546627516048
  0
LINE
  5
834
100
AcDbEntity
  8
0
100
AcDbLine
  6
BYLAYER
 10
186.6612723336
 20
7.35546627516048
 11
188.9112723336
 21
8.10546627516048
  0
LINE
  5
835
100
AcDbEntity
  8
0
100
AcDbLine
  6
BYLAYER
 10
184.1612723336
 20
9.39584232948025
 11
184.1612723336
 21
-13.6041576705199
  0
LINE
  5
836
100
AcDbEntity
  8
0
100
AcDbLine
  6
BYLAYER
 10
184.1612723336
 20
7.35546627516048
 11
186.6612723336
 21
7.35546627516048
  0
LINE
  5
837
100
AcDbEntity
  8
0
100
AcDbLine
  6
BYLAYER
 10
183.3612723336
 20
9.39584232948025
 11
184.1612723336
 21
9.39584232948025
  0
LINE
  5
838
100
AcDbEntity
  8
0
100
AcDbLine
  6
BYLAYER
 10
186.6612723336
 20
7.35546627516048
 11
186.6612723336
 21
-14.6041576705215
  0
LINE
  5
839
100
AcDbEntity
  8
0
100
AcDbLine
  6
BYLAYER
 10
209.6612723336
 20
7.35546627516048
 11
209.6612723336
 21
-14.6041576705215
  0
LINE
  5
83A
100
AcDbEntity
  8
0
100
AcDbLine
  6
BYLAYER
 10
188.9112723336
 20
7.36581973864156
 11
207.4112723336
 21
7.36581973864156
  0
LINE
  5
83B
100
AcDbEntity
  8
0
100
AcDbLine
  6
BYLAYER
 10
188.9112723336
 20
6.91493051027328
 11
207.4112723336
 21
6.91493051027328
  0
LINE
  5
83C
100
AcDbEntity
  8
0
100
AcDbLine
  6
BYLAYER
 10
188.9112723336
 20
6.10956727588071
 11
207.4112723336
 21
6.10956727588072
  0
LINE
  5
83D
100
AcDbEntity
  8
0
100
AcDbLine
  6
BYLAYER
 10
188.9112723336
 20
2.80856130713426
 11
207.4112723336
 21
2.80856130713426
  0
LINE
  5
83E
100
AcDbEntity
  8
0
100
AcDbLine
  6
BYLAYER
 10
188.9112723336
 20
2.04261535508066
 11
207.4112723336
 21
2.04261535508067
  0
LINE
  5
83F
100
AcDbEntity
  8
0
100
AcDbLine
  6
BYLAYER
 10
186.6612723336
 20
6.61581973864156
 11
188.9112723336
 21
7.36581973864156
  0
LINE
  5
840
100
AcDbEntity
  8
0
100
AcDbLine
  6
BYLAYER
 10
186.6612723336
 20
6.16493051027329
 11
188.9112723336
 21
6.91493051027329
  0
LINE
  5
841
100
AcDbEntity
  8
0
100
AcDbLine
  6
BYLAYER
 10
186.6612723336
 20
5.35956727588071
 11
188.9112723336
 21
6.10956727588071
  0
LINE
  5
842
100
AcDbEntity
  8
0
100
AcDbLine
  6
BYLAYER
 10
186.6612723336
 20
2.05856130713426
 11
188.9112723336
 21
2.80856130713426
  0
LINE
  5
843
100
AcDbEntity
  8
0
100
AcDbLine
  6
BYLAYER
 10
186.6612723336
 20
1.29261535508067
 11
188.9112723336
 21
2.04261535508067
  0
LINE
  5
844
100
AcDbEntity
  8
0
100
AcDbLine
  6
BYLAYER
 10
209.6612723336
 20
1.29261535508067
 11
207.4112723336
 21
2.04261535508067
  0
LINE
  5
845
100
AcDbEntity
  8
0
100
AcDbLine
  6
BYLAYER
 10
209.6612723336
 20
2.05856130713426
 11
207.4112723336
 21
2.80856130713426
  0
LINE
  5
846
100
AcDbEntity
  8
0
100
AcDbLine
  6
BYLAYER
 10
209.6612723336
 20
5.35956727588071
 11
207.4112723336
 21
6.10956727588071
  0
LINE
  5
847
100
AcDbEntity
  8
0
100
AcDbLine
  6
BYLAYER
 10
209.6612723336
 20
6.16493051027329
 11
207.4112723336
 21
6.91493051027329
  0
LINE
  5
848
100
AcDbEntity
  8
0
100
AcDbLine
  6
BYLAYER
 10
209.6612723336
 20
6.61581973864156
 11
207.4112723336
 21
7.36581973864156
  0
CIRCLE
  5
849
100
AcDbEntity
  8
0
100
AcDbCircle
  6
BYLAYER
 10
173.3612723336
 20
-19.6041576705209
 40
2.25
  0
CIRCLE
  5
84A
100
AcDbEntity
  8
0
100
AcDbCircle
  6
BYLAYER
 10
223.3612723336
 20
-19.6041576705209
 40
2.25
  0
CIRCLE
  5
84B
100
AcDbEntity
  8
0
100
AcDbCircle
  6
BYLAYER
 10
173.3612723336
 20
30.3958423294791
 40
2.25
  0
CIRCLE
  5
84C
100
AcDbEntity
  8
0
100
AcDbCircle
  6
BYLAYER
 10
223.3612723336
 20
30.3958423294791
 40
2.25
  0
LINE
  5
84D
100
AcDbEntity
  8
0
100
AcDbLine
  6
BYLAYER
370
0
 10
172.3612723336
 20
-23.6041576705209
 11
224.3612723336
 21
-23.6041576705209
  0
ARC
  5
84E
100
AcDbEntity
  8
0
100
AcDbCircle
  6
BYLAYER
370
0
 10
224.3612723336
 20
-20.6041576705209
 40
3
100
AcDbArc
 50
-90
 51
6.36110936292703E-15
  0
LINE
  5
84F
100
AcDbEntity
  8
0
100
AcDbLine
  6
BYLAYER
370
0
 10
227.3612723336
 20
-20.6041576705209
 11
227.3612723336
 21
31.3958423294791
  0
ARC
  5
850
100
AcDbEntity
  8
0
100
AcDbCircle
  6
BYLAYER
370
0
 10
224.3612723336
 20
31.3958423294791
 40
3
100
AcDbArc
 50
6.36110936292703E-14
 51
90.0000000000001
  0
LINE
  5
851
100
AcDbEntity
  8
0
100
AcDbLine
  6
BYLAYER
370
0
 10
224.3612723336
 20
34.3958423294791
 11
172.3612723336
 21
34.3958423294791
  0
ARC
  5
852
100
AcDbEntity
  8
0
100
AcDbCircle
  6
BYLAYER
370
0
 10
172.3612723336
 20
31.3958423294791
 40
3
100
AcDbArc
 50
-270
 51
-180
  0
LINE
  5
853
100
AcDbEntity
  8
0
100
AcDbLine
  6
BYLAYER
370
0
 10
169.3612723336
 20
31.3958423294791
 11
169.3612723336
 21
-20.6041576705209
  0
ARC
  5
854
100
AcDbEntity
  8
0
100
AcDbCircle
  6
BYLAYER
370
0
 10
172.3612723336
 20
-20.6041576705209
 40
3
100
AcDbArc
 50
-180
 51
-90
  0
LINE
  5
855
100
AcDbEntity
  8
0
100
AcDbLine
  6
BYLAYER
 10
177.6112723336
 20
-15.3541576705209
 11
219.1112723336
 21
-15.3541576705209
  0
LINE
  5
856
100
AcDbEntity
  8
0
100
AcDbLine
  6
BYLAYER
 10
219.1112723336
 20
-15.3541576705209
 11
219.1112723336
 21
26.1458423294791
  0
LINE
  5
857
100
AcDbEntity
  8
0
100
AcDbLine
  6
BYLAYER
 10
219.1112723336
 20
26.1458423294791
 11
177.6112723336
 21
26.1458423294791
  0
LINE
  5
858
100
AcDbEntity
  8
0
100
AcDbLine
  6
BYLAYER
 10
177.6112723336
 20
26.1458423294791
 11
177.6112723336
 21
-15.3541576705209
  0
LINE
  5
859
100
AcDbEntity
  8
0
100
AcDbLine
  6
BYLAYER
 10
184.8612723336
 20
25.3958423294797
 11
184.8612723336
 21
7.35546627516048
  0
LINE
  5
85A
100
AcDbEntity
  8
0
100
AcDbLine
  6
BYLAYER
 10
177.8612723336
 20
24.3958423294796
 11
177.8612723336
 21
-15.3541576705209
  0
LINE
  5
85B
100
AcDbEntity
  8
0
100
AcDbLine
  6
BYLAYER
 10
177.8612723336
 20
-23.6041576705209
 11
177.8612723336
 21
-62.2961855841278
  0
LINE
  5
85C
100
AcDbEntity
  8
0
100
AcDbLine
  6
BYLAYER
 10
178.8612723336
 20
24.3958423294796
 11
178.861272333601
 21
-13.60415767052
  0
LINE
  5
85D
100
AcDbEntity
  8
0
100
AcDbLine
  6
BYLAYER
 10
177.8612723336
 20
16.3958423294805
 11
177.6112723336
 21
16.3958423294805
  0
LINE
  5
85E
100
AcDbEntity
  8
0
100
AcDbLine
  6
BYLAYER
 10
177.6112723336
 20
14.3958423294805
 11
177.8612723336
 21
14.3958423294805
  0
LINE
  5
85F
100
AcDbEntity
  8
0
100
AcDbLine
  6
BYLAYER
 10
177.8612723336
 20
-3.6041576705195
 11
177.6112723336
 21
-3.6041576705195
  0
LINE
  5
860
100
AcDbEntity
  8
0
100
AcDbLine
  6
BYLAYER
 10
177.6112723336
 20
-5.6041576705195
 11
177.8612723336
 21
-5.6041576705195
  0
LINE
  5
861
100
AcDbEntity
  8
0
100
AcDbLine
  6
BYLAYER
 10
178.8612723336
 20
24.3958423294796
 11
184.8612723336
 21
24.3958423294798
  0
ARC
  5
862
100
AcDbEntity
  8
0
100
AcDbCircle
  6
BYLAYER
 10
178.8612723336
 20
24.3958423294796
 40
1
100
AcDbArc
 50
90
 51
180
  0
ARC
  5
863
100
AcDbEntity
  8
0
100
AcDbCircle
  6
BYLAYER
 10
178.8612723336
 20
-13.6041576705201
 40
1.00000000000023
100
AcDbArc
 50
180
 51
270
  0
LINE
  5
864
100
AcDbEntity
  8
0
100
AcDbLine
  6
BYLAYER
 10
178.861272333601
 20
-13.60415767052
 11
184.8612723336
 21
-13.6041576705199
  0
ARC
  5
865
100
AcDbEntity
  8
0
100
AcDbCircle
  6
BYLAYER
 10
178.8612723336
 20
-62.2961855841278
 40
1
100
AcDbArc
 50
180
 51
240.000000000181
  0
LINE
  5
866
100
AcDbEntity
  8
0
100
AcDbLine
  6
BYLAYER
 10
211.8612723336
 20
25.3958423294798
 11
211.8612723336
 21
6.95354248651383
  0
LINE
  5
867
100
AcDbEntity
  8
0
100
AcDbLine
  6
BYLAYER
 10
218.8612723336
 20
24.3958423294798
 11
218.861272333599
 21
-15.3541576705209
  0
LINE
  5
868
100
AcDbEntity
  8
0
100
AcDbLine
  6
BYLAYER
 10
218.861272333599
 20
-23.6041576705209
 11
218.861272333599
 21
-62.2961855841277
  0
LINE
  5
869
100
AcDbEntity
  8
0
100
AcDbLine
  6
BYLAYER
 10
217.8612723336
 20
24.3958423294798
 11
217.861272333599
 21
-13.6041576705201
  0
LINE
  5
86A
100
AcDbEntity
  8
0
100
AcDbLine
  6
BYLAYER
 10
218.8612723336
 20
16.3958423294806
 11
219.1112723336
 21
16.3958423294806
  0
LINE
  5
86B
100
AcDbEntity
  8
0
100
AcDbLine
  6
BYLAYER
 10
219.1112723336
 20
14.3958423294806
 11
218.8612723336
 21
14.3958423294806
  0
LINE
  5
86C
100
AcDbEntity
  8
0
100
AcDbLine
  6
BYLAYER
 10
218.8612723336
 20
-3.60415767051944
 11
219.1112723336
 21
-3.60415767051944
  0
LINE
  5
86D
100
AcDbEntity
  8
0
100
AcDbLine
  6
BYLAYER
 10
219.1112723336
 20
-5.60415767051944
 11
218.8612723336
 21
-5.60415767051944
  0
LINE
  5
86E
100
AcDbEntity
  8
0
100
AcDbLine
  6
BYLAYER
 10
217.8612723336
 20
-2.75415767051965
 11
216.8112723336
 21
-2.75415767051965
  0
LINE
  5
86F
100
AcDbEntity
  8
0
100
AcDbLine
  6
BYLAYER
 10
217.8612723336
 20
-6.45415767051719
 11
216.8112723336
 21
-6.45415767051708
  0
LINE
  5
870
100
AcDbEntity
  8
0
100
AcDbLine
  6
BYLAYER
 10
216.8112723336
 20
-6.45415767051708
 11
216.811272333601
 21
-2.75415767051965
  0
LINE
  5
871
100
AcDbEntity
  8
0
100
AcDbLine
  6
BYLAYER
 10
217.8612723336
 20
24.3958423294798
 11
211.8612723336
 21
24.3958423294798
  0
ARC
  5
872
100
AcDbEntity
  8
0
100
AcDbCircle
  6
BYLAYER
 10
217.8612723336
 20
24.3958423294798
 40
1
100
AcDbArc
 50
0
 51
90
  0
ARC
  5
873
100
AcDbEntity
  8
0
100
AcDbCircle
  6
BYLAYER
 10
217.861272333599
 20
-13.6041576705201
 40
1.00000000000023
100
AcDbArc
 50
270
 51
0
  0
LINE
  5
874
100
AcDbEntity
  8
0
100
AcDbLine
  6
BYLAYER
 10
217.861272333599
 20
-13.6041576705201
 11
211.8612723336
 21
-13.6041576705199
  0
ARC
  5
875
100
AcDbEntity
  8
0
100
AcDbCircle
  6
BYLAYER
 10
217.8612723336
 20
-62.2961855841277
 40
1
100
AcDbArc
 50
299.999999999812
 51
0
  0
LINE
  5
876
100
AcDbEntity
  8
0
100
AcDbLine
  6
BYLAYER
 10
178.3612723336
 20
25.3958423294798
 11
218.3612723336
 21
25.3958423294798
  0
LINE
  5
877
100
AcDbEntity
  8
0
100
AcDbLine
  6
BYLAYER
 10
178.3612723336
 20
25.8958423294798
 11
218.3612723336
 21
25.8958423294798
  0
LINE
  5
878
100
AcDbEntity
  8
0
100
AcDbLine
  6
BYLAYER
 10
178.3612723336
 20
25.2618677332641
 11
178.3612723336
 21
25.8958423294798
  0
LINE
  5
879
100
AcDbEntity
  8
0
100
AcDbLine
  6
BYLAYER
 10
218.3612723336
 20
25.8958423294798
 11
218.3612723336
 21
25.2618677332642
  0
LINE
  5
87A
100
AcDbEntity
  8
0
100
AcDbLine
  6
BYLAYER
 10
178.3612723336
 20
-63.7961855841278
 11
218.3612723336
 21
-63.7961855841278
  0
LINE
  5
87B
100
AcDbEntity
  8
0
100
AcDbLine
  6
BYLAYER
 10
178.3612723336
 20
-15.1041576705215
 11
218.3612723336
 21
-15.1041576705215
  0
LINE
  5
87C
100
AcDbEntity
  8
0
100
AcDbLine
  6
BYLAYER
 10
178.3612723336
 20
-14.6041576705215
 11
218.3612723336
 21
-14.6041576705215
  0
LINE
  5
87D
100
AcDbEntity
  8
0
100
AcDbLine
  6
BYLAYER
 10
178.3612723336
 20
-14.4701830743045
 11
178.3612723336
 21
-15.3541576705209
  0
LINE
  5
87E
100
AcDbEntity
  8
0
100
AcDbLine
  6
BYLAYER
 10
178.3612723336
 20
-23.6041576705209
 11
178.361272333603
 21
-63.7961855841278
  0
LINE
  5
87F
100
AcDbEntity
  8
0
100
AcDbLine
  6
BYLAYER
 10
218.3612723336
 20
-14.4701830743044
 11
218.3612723336
 21
-15.3541576705209
  0
LINE
  5
880
100
AcDbEntity
  8
0
100
AcDbLine
  6
BYLAYER
 10
218.361272333599
 20
-23.6041576705209
 11
218.361272333597
 21
-63.7961855841278
  0
LINE
  5
881
100
AcDbEntity
  8
0
100
AcDbLine
  6
BYLAYER
 10
218.861272311921
 20
-23.6041576705209
 11
218.861272073455
 21
-34.6041552766196
  0
LINE
  5
882
100
AcDbEntity
  8
0
100
AcDbLine
  6
BYLAYER
 10
260.361271556988
 20
-29.3541576705197
 11
253.361271556988
 21
-29.3541576705197
  0
LINE
  5
883
100
AcDbEntity
  8
0
100
AcDbLine
  6
BYLAYER
 10
260.361271556988
 20
-15.8541576705197
 11
253.361271556988
 21
-15.8541576705197
  0
LINE
  5
884
100
AcDbEntity
  8
0
100
AcDbLine
  6
BYLAYER
 10
262.861271556988
 20
-9.60415767051973
 11
262.861271556988
 21
-35.6041576705197
  0
LINE
  5
885
100
AcDbEntity
  8
0
100
AcDbLine
  6
BYLAYER
 10
260.361271556988
 20
-31.3541576705197
 11
260.361271556988
 21
-13.8541576705197
  0
LINE
  5
886
100
AcDbEntity
  8
0
100
AcDbLine
  6
BYLAYER
 10
260.361271556988
 20
-13.8541576705197
 11
262.861271556988
 21
-13.8541576705197
  0
LINE
  5
887
100
AcDbEntity
  8
0
100
AcDbLine
  6
BYLAYER
 10
260.361271556988
 20
-31.3541576705197
 11
262.861271556988
 21
-31.3541576705197
  0
LINE
  5
888
100
AcDbEntity
  8
0
100
AcDbLine
  6
BYLAYER
 10
261.861277153703
 20
15.3958414927012
 11
261.861275249124
 21
-6.64883671685777
  0
ARC
  5
889
100
AcDbEntity
  8
0
100
AcDbCircle
  6
BYLAYER
 10
259.861275249124
 20
-6.64883654406515
 40
2
100
AcDbArc
 50
269.999995049856
 51
359.999995049856
  0
LINE
  5
88A
100
AcDbEntity
  8
0
100
AcDbLine
  6
BYLAYER
 10
233.361273555467
 20
-8.64883425456264
 11
227.3612723336
 21
-8.64883373618466
  0
LINE
  5
88B
100
AcDbEntity
  8
0
100
AcDbLine
  6
BYLAYER
 10
259.861275076331
 20
-8.64883654406515
 11
253.361273555467
 21
-8.64883598248895
  0
LINE
  5
88C
100
AcDbEntity
  8
0
100
AcDbLine
  6
BYLAYER
 10
259.861275956745
 20
18.3958408204356
 11
227.3612723336
 21
18.3958436283162
  0
LINE
  5
88D
100
AcDbEntity
  8
0
100
AcDbLine
  6
BYLAYER
 10
261.861275632838
 20
15.3958405239761
 11
261.861275783952
 21
16.3958405182077
  0
ARC
  5
88E
100
AcDbEntity
  8
0
100
AcDbCircle
  6
BYLAYER
 10
259.861275783952
 20
16.3958408204356
 40
2
100
AcDbArc
 50
359.999991341807
 51
89.9999950498559
  0
LINE
  5
88F
100
AcDbEntity
  8
0
100
AcDbLine
  6
BYLAYER
 10
253.361274602219
 20
10.3958408770381
 11
233.361274602219
 21
10.3958426049644
  0
LINE
  5
890
100
AcDbEntity
  8
0
100
AcDbLine
  6
BYLAYER
 10
233.36127268014
 20
-9.60415652936626
 11
227.3612723336
 21
-9.60415601098835
  0
LINE
  5
891
100
AcDbEntity
  8
0
100
AcDbLine
  6
BYLAYER
 10
233.361270483275
 20
-35.6041565293662
 11
222.861271987059
 21
-35.604155622205
  0
LINE
  5
892
100
AcDbEntity
  8
0
100
AcDbLine
  6
BYLAYER
 10
222.861272073455
 20
-34.604155622205
 11
218.861272073455
 21
-34.6041552766197
  0
LINE
  5
893
100
AcDbEntity
  8
0
100
AcDbLine
  6
BYLAYER
 10
233.361270541592
 20
-36.6041573950355
 11
233.361274602219
 21
10.3958426049644
  0
LINE
  5
894
100
AcDbEntity
  8
0
100
AcDbLine
  6
BYLAYER
 10
262.861271556988
 20
-34.604155622205
 11
266.861271958411
 21
-34.604155622205
  0
LINE
  5
895
100
AcDbEntity
  8
0
100
AcDbLine
  6
BYLAYER
 10
262.861271556988
 20
-35.6041576705197
 11
253.361271987059
 21
-35.6041582572926
  0
LINE
  5
896
100
AcDbEntity
  8
0
100
AcDbLine
  6
BYLAYER
 10
262.861271556988
 20
-10.6041597188344
 11
266.861271958411
 21
-10.6041597188344
  0
LINE
  5
897
100
AcDbEntity
  8
0
100
AcDbLine
  6
BYLAYER
 10
262.861271556988
 20
-9.60415767051973
 11
253.361275786586
 21
-9.60415825729285
  0
LINE
  5
898
100
AcDbEntity
  8
0
100
AcDbLine
  6
BYLAYER
 10
266.861271958411
 20
-10.6041597188344
 11
266.861271958411
 21
-34.604155622205
  0
LINE
  5
899
100
AcDbEntity
  8
0
100
AcDbLine
  6
BYLAYER
 10
226.36127764745
 20
-29.3541576705197
 11
233.36127764745
 21
-29.3541576705197
  0
LINE
  5
89A
100
AcDbEntity
  8
0
100
AcDbLine
  6
BYLAYER
 10
227.3612723336
 20
-15.8541576705197
 11
233.36127764745
 21
-15.8541576705197
  0
LINE
  5
89B
100
AcDbEntity
  8
0
100
AcDbLine
  6
BYLAYER
 10
226.361277647449
 20
-31.3541576705197
 11
226.361277647449
 21
-22.8402208951577
  0
LINE
  5
89C
100
AcDbEntity
  8
0
100
AcDbLine
  6
BYLAYER
 10
226.36127764745
 20
-31.3541576705197
 11
222.861272354243
 21
-31.3541576705197
  0
LINE
  5
89D
100
AcDbEntity
  8
0
100
AcDbLine
  6
BYLAYER
 10
233.361277033485
 20
-18.3636928768321
 11
233.36127623008
 21
-15.8541587152829
  0
LINE
  5
89E
100
AcDbEntity
  8
0
100
AcDbLine
  6
BYLAYER
 10
233.36127739643
 20
-29.3541587152828
 11
233.361277766206
 21
-26.8446253009981
  0
LINE
  5
89F
100
AcDbEntity
  8
0
100
AcDbLine
  6
BYLAYER
 10
233.361270541592
 20
-36.6041573950355
 11
253.361272015707
 21
-36.6041573950355
  0
LINE
  5
8A0
100
AcDbEntity
  8
0
100
AcDbLine
  6
BYLAYER
 10
253.361272015707
 20
-36.6041573950355
 11
253.361276076333
 21
10.395840877038
  0
LINE
  5
8A1
100
AcDbEntity
  8
0
100
AcDbLine
  6
BYLAYER
 10
252.361272015707
 20
-36.6041573086392
 11
252.361276076333
 21
10.3958409634343
  0
LINE
  5
8A2
100
AcDbEntity
  8
0
100
AcDbLine
  6
BYLAYER
 10
251.361272015707
 20
-36.6041572222429
 11
251.361276076333
 21
10.3958410498306
  0
LINE
  5
8A3
100
AcDbEntity
  8
0
100
AcDbLine
  6
BYLAYER
 10
250.361272015707
 20
-36.6041571358465
 11
250.361276076333
 21
10.3958411362269
  0
LINE
  5
8A4
100
AcDbEntity
  8
0
100
AcDbLine
  6
BYLAYER
 10
249.361272015707
 20
-36.6041570494502
 11
249.361276076333
 21
10.3958412226232
  0
LINE
  5
8A5
100
AcDbEntity
  8
0
100
AcDbLine
  6
BYLAYER
 10
248.361272015707
 20
-36.6041569630539
 11
248.361276076333
 21
10.3958413090195
  0
LINE
  5
8A6
100
AcDbEntity
  8
0
100
AcDbLine
  6
BYLAYER
 10
247.361272015707
 20
-36.6041568766576
 11
247.361276076333
 21
10.3958413954158
  0
LINE
  5
8A7
100
AcDbEntity
  8
0
100
AcDbLine
  6
BYLAYER
 10
246.361272015707
 20
-36.6041567902613
 11
246.361276076333
 21
10.3958414818122
  0
LINE
  5
8A8
100
AcDbEntity
  8
0
100
AcDbLine
  6
BYLAYER
 10
245.361272015707
 20
-36.604156703865
 11
245.361276076333
 21
10.3958415682085
  0
LINE
  5
8A9
100
AcDbEntity
  8
0
100
AcDbLine
  6
BYLAYER
 10
244.361272015707
 20
-36.6041566174687
 11
244.361276076333
 21
10.3958416546048
  0
LINE
  5
8AA
100
AcDbEntity
  8
0
100
AcDbLine
  6
BYLAYER
 10
243.361272015707
 20
-36.6041565310724
 11
243.361276076333
 21
10.3958417410011
  0
LINE
  5
8AB
100
AcDbEntity
  8
0
100
AcDbLine
  6
BYLAYER
 10
242.361272015707
 20
-36.6041564446761
 11
242.361276076333
 21
10.3958418273974
  0
LINE
  5
8AC
100
AcDbEntity
  8
0
100
AcDbLine
  6
BYLAYER
 10
241.361272015707
 20
-36.6041563582797
 11
241.361276076333
 21
10.3958419137937
  0
LINE
  5
8AD
100
AcDbEntity
  8
0
100
AcDbLine
  6
BYLAYER
 10
240.361272015707
 20
-36.6041562718834
 11
240.361276076333
 21
10.39584200019
  0
LINE
  5
8AE
100
AcDbEntity
  8
0
100
AcDbLine
  6
BYLAYER
 10
239.361272015707
 20
-36.6041561854871
 11
239.361276076333
 21
10.3958420865864
  0
LINE
  5
8AF
100
AcDbEntity
  8
0
100
AcDbLine
  6
BYLAYER
 10
238.361272015707
 20
-36.6041560990908
 11
238.361276076333
 21
10.3958421729827
  0
LINE
  5
8B0
100
AcDbEntity
  8
0
100
AcDbLine
  6
BYLAYER
 10
237.361272015707
 20
-36.6041560126945
 11
237.361276076333
 21
10.395842259379
  0
LINE
  5
8B1
100
AcDbEntity
  8
0
100
AcDbLine
  6
BYLAYER
 10
236.361272015707
 20
-36.6041559262982
 11
236.361276076334
 21
10.3958423457753
  0
LINE
  5
8B2
100
AcDbEntity
  8
0
100
AcDbLine
  6
BYLAYER
 10
235.361272015707
 20
-36.6041558399019
 11
235.361276076334
 21
10.3958424321716
  0
LINE
  5
8B3
100
AcDbEntity
  8
0
100
AcDbLine
  6
BYLAYER
 10
234.361272015707
 20
-36.6041557535055
 11
234.361276076334
 21
10.3958425185679
  0
LINE
  5
8B4
100
AcDbEntity
  8
0
100
AcDbLine
  6
BYLAYER
 10
222.861273023814
 20
-23.6041576705209
 11
222.861271987059
 21
-35.604155622205
  0
LINE
  5
8B5
100
AcDbEntity
  8
0
100
AcDbLine
  6
BYLAYER
 10
222.861272527036
 20
-29.3541576705197
 11
218.861272333599
 21
-29.3541576705197
  0
ARC
  5
8B6
100
AcDbEntity
  8
0
100
AcDbCircle
  6
BYLAYER
370
0
 10
180.8612723336
 20
6.19584232948028
 40
3
100
AcDbArc
 50
-131.810314895776
 51
-89.9999999999999
  0
LINE
  5
8B7
100
AcDbEntity
  8
0
100
AcDbLine
  6
BYLAYER
370
0
 10
180.8612723336
 20
3.19584232948029
 11
182.0612723336
 21
3.19584232948029
  0
LWPOLYLINE
  5
8B8
100
AcDbEntity
  8
0
100
AcDbPolyline
  6
BYLAYER
370
0
 90
     2
 10
182.0612723336
  20
-13.60415767052
 10
182.0612723336
  20
3.19584232948029
  0
LINE
  5
8B9
100
AcDbEntity
  8
0
100
AcDbLine
  6
BYLAYER
 10
177.8612723336
 20
-58.481199611589
 11
177.0612723336
 21
-58.481199611589
  0
LINE
  5
8BA
100
AcDbEntity
  8
0
100
AcDbLine
  6
BYLAYER
 10
177.0612723336
 20
-23.6041576705209
 11
177.0612723336
 21
-58.481199611589
  0
LINE
  5
8BB
100
AcDbEntity
  8
0
100
AcDbLine
  6
BYLAYER
 10
210.3612723336
 20
7.35546627516048
 11
210.3612723336
 21
-14.6041576705215
  0
LINE
  5
8BC
100
AcDbEntity
  8
0
100
AcDbLine
  6
BYLAYER
 10
184.8612723336
 20
-13.6041576705199
 11
184.8612723336
 21
-14.6041576705215
  0
LINE
  5
8BD
100
AcDbEntity
  8
0
100
AcDbLine
  6
BYLAYER
 10
211.8612723336
 20
-13.6041576705199
 11
211.8612723336
 21
-14.6041576705215
  0
LINE
  5
8BE
100
AcDbEntity
  8
0
100
AcDbLine
  6
BYLAYER
 10
178.8612723336
 20
-2.75415767051965
 11
179.9112723336
 21
-2.75415767051965
  0
LINE
  5
8BF
100
AcDbEntity
  8
0
100
AcDbLine
  6
BYLAYER
 10
178.8612723336
 20
-6.45415767051719
 11
179.9112723336
 21
-6.45415767051708
  0
LINE
  5
8C0
100
AcDbEntity
  8
0
100
AcDbLine
  6
BYLAYER
 10
179.9112723336
 20
-6.45415767051708
 11
179.911272333598
 21
-2.75415767051965
  0
LINE
  5
8C1
100
AcDbEntity
  8
DIM
100
AcDbLine
  6
BYLAYER
 62
0
370
  -2
 10
218.8612723336
 20
-64.0461855841277
 11
218.8612723336
 21
-72.8227129863237
  0
LINE
  5
8C2
100
AcDbEntity
  8
DIM
100
AcDbLine
  6
BYLAYER
 62
0
370
  -2
 10
177.8612723336
 20
-64.0461855841278
 11
177.8612723336
 21
-72.8227129863237
  0
LINE
  5
8C3
100
AcDbEntity
  8
DIM
100
AcDbLine
  6
BYLAYER
 62
0
370
  -2
 10
213.6112723336
 20
-71.0727129863237
 11
205.3612723336
 21
-71.0727129863237
  0
LINE
  5
8C4
100
AcDbEntity
  8
DIM
100
AcDbLine
  6
BYLAYER
 62
0
370
  -2
 10
183.1112723336
 20
-71.0727129863237
 11
191.3612723336
 21
-71.0727129863237
  0
SOLID
  5
8C5
100
AcDbEntity
  8
DIM
100
AcDbTrace
 10
213.6112723336
 20
-70.1977129863237
 30
0.0
 11
213.6112723336
 21
-71.9477129863237
 31
0.0
 12
218.8612723336
 22
-71.0727129863237
 32
0.0
 13
218.8612723336
 23
-71.0727129863237
 33
0.0
  0
SOLID
  5
8C6
100
AcDbEntity
  8
DIM
100
AcDbTrace
 10
177.8612723336
 20
-71.0727129863237
 30
0.0
 11
183.1112723336
 21
-71.9477129863237
 31
0.0
 12
183.1112723336
 22
-70.1977129863237
 32
0.0
 13
183.1112723336
 23
-70.1977129863237
 33
0.0
  0
TEXT
  5
8C7
100
AcDbEntity
  8
DIM
 62
0
100
AcDbText
  6
BYLAYER
 62
0
 10
195.7362723336
 20
-73.6977129863237
 40
5.25
  1
41
  7
Font_0
 72
1
 11
198.3612723336
 21
-71.0727129863237
100
AcDbText
 73
2
  0
ARC
  5
8C8
100
AcDbEntity
  8
0
100
AcDbCircle
  6
BYLAYER
 10
96.7973241534003
 20
-18.9791576705196
 40
44.875
100
AcDbArc
 50
90
 51
3.35347802832101
  0
LINE
  5
8C9
100
AcDbEntity
  8
0
100
AcDbLine
  6
BYLAYER
 10
96.7973241534003
 20
25.8958423294804
 11
140.996597513185
 21
25.8958423294804
  0
ENDSEC
  0
SECTION
  2
OBJECTS
  0
DICTIONARY
  5
8CA
100
AcDbDictionary
  3
ACAD_GROUP
350
8CB
  3
ACAD_MLINESTYLE
350
8CC
  0
DICTIONARY
  5
8CB
102
{ACAD_REACTORS
330
8CA
102
}
100
AcDbDictionary
  0
DICTIONARY
  5
8CC
102
{ACAD_REACTORS
330
8CA
102
}
100
AcDbDictionary
  3
STANDARD
350
8CD
  0
MLINESTYLE
  5
8CD
102
{ACAD_REACTORS
330
8CC
102
}
100
AcDbMlineStyle
  2
Standard
 70
     0
  3

 62
     0
 51
90.0
 52
90.0
 71
     2
 49
0.5
 62
   256
  6
ByLayer
 49
-0.5
 62
   256
  6
ByLayer
  0
ENDSEC
  0
EOF
