999
Outputted By AR_CAD Ver.1.6.0
  0
SECTION
  2
HEADER
  9
$ACADVER
  1
AC1014
  9
$DWGCODEPAGE
  3
ANSI_932
  9
$EXTMIN
 10
0
 20
0
  9
$EXTMAX
 10
891
 20
630
  9
$INSBASE
 10
0.0
 20
0.0
 30
0.0
  9
$HANDLING
 70
     1
  9
$HANDSEED
  5
7BE
  9
$LTSCALE
 40
1
  0
ENDSEC
  0
SECTION
  2
TABLES
  0
TABLE
  2
VPORT
  5
1
100
AcDbSymbolTable
 70
     1
  0
VPORT
  5
30
100
AcDbSymbolTableRecord
100
AcDbViewportTableRecord
  2
*ACTIVE
 70
     0
 10
0.0
 20
0.0
 11
1.0
 21
1.0
 12
210.0
 22
148.5
 13
0.0
 23
0.0
 14
10.0
 24
10.0
 15
10.0
 25
10.0
 16
0.0
 26
0.0
 36
1.0
 17
0.0
 27
0.0
 37
0.0
 40
302.94
 41
1.333333
 42
50.0
 43
0.0
 44
0.0
 50
0.0
 51
0.0
 71
     0
 72
   100
 73
     1
 74
     1
 75
     0
 76
     0
 77
     0
 78
     0
  0
ENDTAB
  0
TABLE
  2
LTYPE
  5
2
100
AcDbSymbolTable
 70
     28
  0
LTYPE
  5
31
100
AcDbSymbolTableRecord
100
AcDbLinetypeTableRecord
  2
BYBLOCK
 70
    64
 3

 72
    65
 73
    0
 40
    0
  0
LTYPE
  5
32
100
AcDbSymbolTableRecord
100
AcDbLinetypeTableRecord
  2
BYLAYER
 70
    64
 3

 72
    65
 73
    0
 40
    0
  0
LTYPE
  5
33
100
AcDbSymbolTableRecord
100
AcDbLinetypeTableRecord
  2
CONTINUOUS
 70
    64
 3
CONTINUOUS
 72
    65
 73
    0
 40
    0
  0
LTYPE
  5
34
100
AcDbSymbolTableRecord
100
AcDbLinetypeTableRecord
  2
DASHED
 70
    64
 3

 72
    65
 73
    2
 40
    3.5
 49
    2.91666666666667
 74
    0
 49
    -0.583333333333333
 74
    0
  0
LTYPE
  5
35
100
AcDbSymbolTableRecord
100
AcDbLinetypeTableRecord
  2
DOT
 70
    64
 3

 72
    65
 73
    2
 40
    0.5
 49
    0.25
 74
    0
 49
    -0.25
 74
    0
  0
LTYPE
  5
36
100
AcDbSymbolTableRecord
100
AcDbLinetypeTableRecord
  2
DASHDOT
 70
    64
 3

 72
    65
 73
    4
 40
    3.5
 49
    1.84210526315789
 74
    0
 49
    -0.552631578947368
 74
    0
 49
    0.552631578947368
 74
    0
 49
    -0.552631578947368
 74
    0
  0
LTYPE
  5
37
100
AcDbSymbolTableRecord
100
AcDbLinetypeTableRecord
  2
DIVIDE
 70
    64
 3

 72
    65
 73
    6
 40
    3.5
 49
    1.4
 74
    0
 49
    -0.42
 74
    0
 49
    0.42
 74
    0
 49
    -0.42
 74
    0
 49
    0.42
 74
    0
 49
    -0.42
 74
    0
  0
LTYPE
  5
38
100
AcDbSymbolTableRecord
100
AcDbLinetypeTableRecord
  2
HIDDEN
 70
    64
 3

 72
    65
 73
    2
 40
    9.525
 49
    6.35
 74
    0
 49
    -3.175
 74
    0
  0
LTYPE
  5
39
100
AcDbSymbolTableRecord
100
AcDbLinetypeTableRecord
  2
CENTERX2
 70
    64
 3

 72
    65
 73
    4
 40
    4
 49
    2.5
 74
    0
 49
    -0.5
 74
    0
 49
    0.5
 74
    0
 49
    -0.5
 74
    0
  0
LTYPE
  5
3A
100
AcDbSymbolTableRecord
100
AcDbLinetypeTableRecord
  2
CENTER
 70
    64
 3

 72
    65
 73
    4
 40
    50.8
 49
    31.75
 74
    0
 49
    -6.35
 74
    0
 49
    6.35
 74
    0
 49
    -6.35
 74
    0
  0
LTYPE
  5
3B
100
AcDbSymbolTableRecord
100
AcDbLinetypeTableRecord
  2
BORDER
 70
    64
 3

 72
    65
 73
    6
 40
    44.45
 49
    12.7
 74
    0
 49
    -6.35
 74
    0
 49
    12.7
 74
    0
 49
    -6.35
 74
    0
 49
    0
 74
    0
 49
    -6.35
 74
    0
  0
LTYPE
  5
3C
100
AcDbSymbolTableRecord
100
AcDbLinetypeTableRecord
  2
AM_ISO02W050
 70
    64
 3

 72
    65
 73
    2
 40
    7.5
 49
    6
 74
    0
 49
    -1.5
 74
    0
  0
LTYPE
  5
3D
100
AcDbSymbolTableRecord
100
AcDbLinetypeTableRecord
  2
AM_ISO08W050
 70
    64
 3

 72
    65
 73
    4
 40
    18
 49
    12
 74
    0
 49
    -1.5
 74
    0
 49
    3
 74
    0
 49
    -1.5
 74
    0
  0
LTYPE
  5
3E
100
AcDbSymbolTableRecord
100
AcDbLinetypeTableRecord
  2
AM_ISO09W050
 70
    64
 3

 72
    65
 73
    6
 40
    22.5
 49
    12
 74
    0
 49
    -1.5
 74
    0
 49
    3
 74
    0
 49
    -1.5
 74
    0
 49
    3
 74
    0
 49
    -1.5
 74
    0
  0
LTYPE
  5
3F
100
AcDbSymbolTableRecord
100
AcDbLinetypeTableRecord
  2
Amconstr
 70
    64
 3

 72
    65
 73
    1
 40
    9999
 49
    9999
 74
    0
  0
LTYPE
  5
40
100
AcDbSymbolTableRecord
100
AcDbLinetypeTableRecord
  2
AM_ISO08W050x2
 70
    64
 3

 72
    65
 73
    4
 40
    9
 49
    6
 74
    0
 49
    -0.75
 74
    0
 49
    1.5
 74
    0
 49
    -0.75
 74
    0
  0
LTYPE
  5
41
100
AcDbSymbolTableRecord
100
AcDbLinetypeTableRecord
  2
AM_ISO02W050x2
 70
    64
 3

 72
    65
 73
    2
 40
    3.75
 49
    3
 74
    0
 49
    -0.75
 74
    0
  0
LTYPE
  5
42
100
AcDbSymbolTableRecord
100
AcDbLinetypeTableRecord
  2
Amzigzag
 70
    64
 3

 72
    65
 73
    2
 40
    4
 49
    2
 74
    0
 49
    -2
 74
    0
  0
LTYPE
  5
43
100
AcDbSymbolTableRecord
100
AcDbLinetypeTableRecord
  2
PHANTOM2
 70
    64
 3

 72
    65
 73
    6
 40
    1.25
 49
    0.625
 74
    0
 49
    -0.125
 74
    0
 49
    0.125
 74
    0
 49
    -0.125
 74
    0
 49
    0.125
 74
    0
 49
    -0.125
 74
    0
  0
LTYPE
  5
44
100
AcDbSymbolTableRecord
100
AcDbLinetypeTableRecord
  2
CENTER2
 70
    64
 3

 72
    65
 73
    4
 40
    1.125
 49
    0.75
 74
    0
 49
    -0.125
 74
    0
 49
    0.125
 74
    0
 49
    -0.125
 74
    0
  0
LTYPE
  5
45
100
AcDbSymbolTableRecord
100
AcDbLinetypeTableRecord
  2
HIDDEN2
 70
    64
 3

 72
    65
 73
    2
 40
    0.188
 49
    0.125668449197861
 74
    0
 49
    -0.062331550802139
 74
    0
  0
LTYPE
  5
46
100
AcDbSymbolTableRecord
100
AcDbLinetypeTableRecord
  2
Amzigzag2
 70
    64
 3

 72
    65
 73
    2
 40
    4
 49
    2
 74
    0
 49
    -2
 74
    0
  0
LTYPE
  5
47
100
AcDbSymbolTableRecord
100
AcDbLinetypeTableRecord
  2
ACANSTGB
 70
    64
 3

 72
    65
 73
    6
 40
    0.354
 49
    0.157892045454545
 74
    0
 49
    -0.0392215909090909
 74
    0
 49
    0.0392215909090909
 74
    0
 49
    -0.0392215909090909
 74
    0
 49
    0.0392215909090909
 74
    0
 49
    -0.0392215909090909
 74
    0
  0
LTYPE
  5
48
100
AcDbSymbolTableRecord
100
AcDbLinetypeTableRecord
  2
ACANSTGL
 70
    64
 3

 72
    65
 73
    2
 40
    0.118
 49
    0.079
 74
    0
 49
    -0.039
 74
    0
  0
LTYPE
  5
49
100
AcDbSymbolTableRecord
100
AcDbLinetypeTableRecord
  2
BORDERX2
 70
    64
 3

 72
    65
 73
    6
 40
    3.5
 49
    1
 74
    0
 49
    -0.5
 74
    0
 49
    1
 74
    0
 49
    -0.5
 74
    0
 49
    0
 74
    0
 49
    -0.5
 74
    0
  0
LTYPE
  5
4A
100
AcDbSymbolTableRecord
100
AcDbLinetypeTableRecord
  2
BORDER2
 70
    64
 3

 72
    65
 73
    6
 40
    0.875
 49
    0.25
 74
    0
 49
    -0.125
 74
    0
 49
    0.25
 74
    0
 49
    -0.125
 74
    0
 49
    0
 74
    0
 49
    -0.125
 74
    0
  0
LTYPE
  5
4B
100
AcDbSymbolTableRecord
100
AcDbLinetypeTableRecord
  2
ACISOWELD
 70
    64
 3

 72
    65
 73
    2
 40
    2
 49
    1.33333333333333
 74
    0
 49
    -0.666666666666667
 74
    0
  0
LTYPE
  5
4C
100
AcDbSymbolTableRecord
100
AcDbLinetypeTableRecord
  2
ACISOTGB
 70
    64
 3

 72
    65
 73
    6
 40
    9
 49
    4
 74
    0
 49
    -1
 74
    0
 49
    1
 74
    0
 49
    -1
 74
    0
 49
    1
 74
    0
 49
    -1
 74
    0
  0
LTYPE
  5
4D
100
AcDbSymbolTableRecord
100
AcDbLinetypeTableRecord
  2
ACISOTGL
 70
    64
 3

 72
    65
 73
    2
 40
    3
 49
    2
 74
    0
 49
    -1
 74
    0
  0
ENDTAB
  0
TABLE
  2
LAYER
  5
3
100
AcDbSymbolTable
 70
   257
  0
LAYER
  5
4E
100
AcDbSymbolTableRecord
100
AcDbLayerTableRecord
  2
0
 70
    0
 62
7
  6
CONTINUOUS
  0
LAYER
  5
4F
100
AcDbSymbolTableRecord
100
AcDbLayerTableRecord
  2
DEFPOINTS
 70
    0
 62
7
  6
CONTINUOUS
  0
LAYER
  5
50
100
AcDbSymbolTableRecord
100
AcDbLayerTableRecord
  2
ASHADE
 70
    4
 62
7
  6
CONTINUOUS
  0
LAYER
  5
51
100
AcDbSymbolTableRecord
100
AcDbLayerTableRecord
  2
CEN
 70
    0
 62
3
  6
AM_ISO08W050
  0
LAYER
  5
52
100
AcDbSymbolTableRecord
100
AcDbLayerTableRecord
  2
DIM
 70
    0
 62
1
  6
CONTINUOUS
  0
LAYER
  5
53
100
AcDbSymbolTableRecord
100
AcDbLayerTableRecord
  2
HIDDEN
 70
    0
 62
3
  6
CONTINUOUS
  0
LAYER
  5
54
100
AcDbSymbolTableRecord
100
AcDbLayerTableRecord
  2
HATCH
 70
    0
 62
5
  6
CONTINUOUS
  0
LAYER
  5
55
100
AcDbSymbolTableRecord
100
AcDbLayerTableRecord
  2
TEXT
 70
    0
 62
7
  6
CONTINUOUS
  0
LAYER
  5
56
100
AcDbSymbolTableRecord
100
AcDbLayerTableRecord
  2
M
 70
    0
 62
6
  6
CONTINUOUS
  0
LAYER
  5
57
100
AcDbSymbolTableRecord
100
AcDbLayerTableRecord
  2
BREAK
 70
    0
 62
3
  6
AM_ISO09W050
  0
LAYER
  5
58
100
AcDbSymbolTableRecord
100
AcDbLayerTableRecord
  2
01
 70
    0
 62
3
  6
CONTINUOUS
  0
LAYER
  5
59
100
AcDbSymbolTableRecord
100
AcDbLayerTableRecord
  2
7475A
 70
    0
 62
1
  6
CONTINUOUS
  0
LAYER
  5
5A
100
AcDbSymbolTableRecord
100
AcDbLayerTableRecord
  2
BASE
 70
    0
 62
7
  6
CONTINUOUS
  0
LAYER
  5
5B
100
AcDbSymbolTableRecord
100
AcDbLayerTableRecord
  2
AME
 70
    0
 62
7
  6
CONTINUOUS
  0
LAYER
  5
5C
100
AcDbSymbolTableRecord
100
AcDbLayerTableRecord
  2
4
 70
    0
 62
4
  6
CONTINUOUS
  0
LAYER
  5
5D
100
AcDbSymbolTableRecord
100
AcDbLayerTableRecord
  2
AM_CL
 70
    0
 62
1
  6
Amzigzag
  0
LAYER
  5
5E
100
AcDbSymbolTableRecord
100
AcDbLayerTableRecord
  2
画層16
 70
    0
 62
7
  6
CONTINUOUS
  0
LAYER
  5
5F
100
AcDbSymbolTableRecord
100
AcDbLayerTableRecord
  2
画層17
 70
    0
 62
70
  6
CONTINUOUS
  0
LAYER
  5
60
100
AcDbSymbolTableRecord
100
AcDbLayerTableRecord
  2
画層18
 70
    0
 62
211
  6
CONTINUOUS
  0
LAYER
  5
61
100
AcDbSymbolTableRecord
100
AcDbLayerTableRecord
  2
画層19
 70
    0
 62
137
  6
CONTINUOUS
  0
LAYER
  5
62
100
AcDbSymbolTableRecord
100
AcDbLayerTableRecord
  2
画層20
 70
    0
 62
4
  6
CONTINUOUS
  0
LAYER
  5
63
100
AcDbSymbolTableRecord
100
AcDbLayerTableRecord
  2
画層21
 70
    0
 62
131
  6
CONTINUOUS
  0
LAYER
  5
64
100
AcDbSymbolTableRecord
100
AcDbLayerTableRecord
  2
画層22
 70
    0
 62
4
  6
CONTINUOUS
  0
LAYER
  5
65
100
AcDbSymbolTableRecord
100
AcDbLayerTableRecord
  2
画層23
 70
    0
 62
4
  6
CONTINUOUS
  0
LAYER
  5
66
100
AcDbSymbolTableRecord
100
AcDbLayerTableRecord
  2
画層24
 70
    0
 62
7
  6
CONTINUOUS
  0
LAYER
  5
67
100
AcDbSymbolTableRecord
100
AcDbLayerTableRecord
  2
画層25
 70
    0
 62
7
  6
CONTINUOUS
  0
LAYER
  5
68
100
AcDbSymbolTableRecord
100
AcDbLayerTableRecord
  2
画層26
 70
    0
 62
7
  6
CONTINUOUS
  0
LAYER
  5
69
100
AcDbSymbolTableRecord
100
AcDbLayerTableRecord
  2
画層27
 70
    0
 62
7
  6
CONTINUOUS
  0
LAYER
  5
6A
100
AcDbSymbolTableRecord
100
AcDbLayerTableRecord
  2
画層28
 70
    0
 62
7
  6
CONTINUOUS
  0
LAYER
  5
6B
100
AcDbSymbolTableRecord
100
AcDbLayerTableRecord
  2
画層29
 70
    0
 62
7
  6
CONTINUOUS
  0
LAYER
  5
6C
100
AcDbSymbolTableRecord
100
AcDbLayerTableRecord
  2
画層30
 70
    0
 62
7
  6
CONTINUOUS
  0
LAYER
  5
6D
100
AcDbSymbolTableRecord
100
AcDbLayerTableRecord
  2
画層31
 70
    0
 62
7
  6
CONTINUOUS
  0
LAYER
  5
6E
100
AcDbSymbolTableRecord
100
AcDbLayerTableRecord
  2
画層32
 70
    0
 62
7
  6
CONTINUOUS
  0
LAYER
  5
6F
100
AcDbSymbolTableRecord
100
AcDbLayerTableRecord
  2
画層33
 70
    0
 62
7
  6
CONTINUOUS
  0
LAYER
  5
70
100
AcDbSymbolTableRecord
100
AcDbLayerTableRecord
  2
画層34
 70
    0
 62
7
  6
CONTINUOUS
  0
LAYER
  5
71
100
AcDbSymbolTableRecord
100
AcDbLayerTableRecord
  2
画層35
 70
    0
 62
7
  6
CONTINUOUS
  0
LAYER
  5
72
100
AcDbSymbolTableRecord
100
AcDbLayerTableRecord
  2
画層36
 70
    0
 62
7
  6
CONTINUOUS
  0
LAYER
  5
73
100
AcDbSymbolTableRecord
100
AcDbLayerTableRecord
  2
画層37
 70
    0
 62
7
  6
CONTINUOUS
  0
LAYER
  5
74
100
AcDbSymbolTableRecord
100
AcDbLayerTableRecord
  2
画層38
 70
    0
 62
7
  6
CONTINUOUS
  0
LAYER
  5
75
100
AcDbSymbolTableRecord
100
AcDbLayerTableRecord
  2
画層39
 70
    0
 62
7
  6
CONTINUOUS
  0
LAYER
  5
76
100
AcDbSymbolTableRecord
100
AcDbLayerTableRecord
  2
画層40
 70
    0
 62
7
  6
CONTINUOUS
  0
LAYER
  5
77
100
AcDbSymbolTableRecord
100
AcDbLayerTableRecord
  2
画層41
 70
    0
 62
7
  6
CONTINUOUS
  0
LAYER
  5
78
100
AcDbSymbolTableRecord
100
AcDbLayerTableRecord
  2
画層42
 70
    0
 62
7
  6
CONTINUOUS
  0
LAYER
  5
79
100
AcDbSymbolTableRecord
100
AcDbLayerTableRecord
  2
画層43
 70
    0
 62
7
  6
CONTINUOUS
  0
LAYER
  5
7A
100
AcDbSymbolTableRecord
100
AcDbLayerTableRecord
  2
画層44
 70
    0
 62
7
  6
CONTINUOUS
  0
LAYER
  5
7B
100
AcDbSymbolTableRecord
100
AcDbLayerTableRecord
  2
画層45
 70
    0
 62
7
  6
CONTINUOUS
  0
LAYER
  5
7C
100
AcDbSymbolTableRecord
100
AcDbLayerTableRecord
  2
画層46
 70
    0
 62
7
  6
CONTINUOUS
  0
LAYER
  5
7D
100
AcDbSymbolTableRecord
100
AcDbLayerTableRecord
  2
画層47
 70
    0
 62
7
  6
CONTINUOUS
  0
LAYER
  5
7E
100
AcDbSymbolTableRecord
100
AcDbLayerTableRecord
  2
画層48
 70
    0
 62
7
  6
CONTINUOUS
  0
LAYER
  5
7F
100
AcDbSymbolTableRecord
100
AcDbLayerTableRecord
  2
画層49
 70
    0
 62
7
  6
CONTINUOUS
  0
LAYER
  5
80
100
AcDbSymbolTableRecord
100
AcDbLayerTableRecord
  2
画層50
 70
    0
 62
7
  6
CONTINUOUS
  0
LAYER
  5
81
100
AcDbSymbolTableRecord
100
AcDbLayerTableRecord
  2
画層51
 70
    0
 62
7
  6
CONTINUOUS
  0
LAYER
  5
82
100
AcDbSymbolTableRecord
100
AcDbLayerTableRecord
  2
画層52
 70
    0
 62
7
  6
CONTINUOUS
  0
LAYER
  5
83
100
AcDbSymbolTableRecord
100
AcDbLayerTableRecord
  2
画層53
 70
    0
 62
7
  6
CONTINUOUS
  0
LAYER
  5
84
100
AcDbSymbolTableRecord
100
AcDbLayerTableRecord
  2
画層54
 70
    0
 62
7
  6
CONTINUOUS
  0
LAYER
  5
85
100
AcDbSymbolTableRecord
100
AcDbLayerTableRecord
  2
画層55
 70
    0
 62
7
  6
CONTINUOUS
  0
LAYER
  5
86
100
AcDbSymbolTableRecord
100
AcDbLayerTableRecord
  2
画層56
 70
    0
 62
7
  6
CONTINUOUS
  0
LAYER
  5
87
100
AcDbSymbolTableRecord
100
AcDbLayerTableRecord
  2
画層57
 70
    0
 62
7
  6
CONTINUOUS
  0
LAYER
  5
88
100
AcDbSymbolTableRecord
100
AcDbLayerTableRecord
  2
画層58
 70
    0
 62
7
  6
CONTINUOUS
  0
LAYER
  5
89
100
AcDbSymbolTableRecord
100
AcDbLayerTableRecord
  2
画層59
 70
    0
 62
7
  6
CONTINUOUS
  0
LAYER
  5
8A
100
AcDbSymbolTableRecord
100
AcDbLayerTableRecord
  2
画層60
 70
    0
 62
7
  6
CONTINUOUS
  0
LAYER
  5
8B
100
AcDbSymbolTableRecord
100
AcDbLayerTableRecord
  2
画層61
 70
    0
 62
7
  6
CONTINUOUS
  0
LAYER
  5
8C
100
AcDbSymbolTableRecord
100
AcDbLayerTableRecord
  2
画層62
 70
    0
 62
7
  6
CONTINUOUS
  0
LAYER
  5
8D
100
AcDbSymbolTableRecord
100
AcDbLayerTableRecord
  2
画層63
 70
    0
 62
7
  6
CONTINUOUS
  0
LAYER
  5
8E
100
AcDbSymbolTableRecord
100
AcDbLayerTableRecord
  2
画層64
 70
    0
 62
7
  6
CONTINUOUS
  0
LAYER
  5
8F
100
AcDbSymbolTableRecord
100
AcDbLayerTableRecord
  2
画層65
 70
    0
 62
7
  6
CONTINUOUS
  0
LAYER
  5
90
100
AcDbSymbolTableRecord
100
AcDbLayerTableRecord
  2
画層66
 70
    0
 62
7
  6
CONTINUOUS
  0
LAYER
  5
91
100
AcDbSymbolTableRecord
100
AcDbLayerTableRecord
  2
画層67
 70
    0
 62
7
  6
CONTINUOUS
  0
LAYER
  5
92
100
AcDbSymbolTableRecord
100
AcDbLayerTableRecord
  2
画層68
 70
    0
 62
7
  6
CONTINUOUS
  0
LAYER
  5
93
100
AcDbSymbolTableRecord
100
AcDbLayerTableRecord
  2
画層69
 70
    0
 62
7
  6
CONTINUOUS
  0
LAYER
  5
94
100
AcDbSymbolTableRecord
100
AcDbLayerTableRecord
  2
画層70
 70
    0
 62
7
  6
CONTINUOUS
  0
LAYER
  5
95
100
AcDbSymbolTableRecord
100
AcDbLayerTableRecord
  2
画層71
 70
    0
 62
7
  6
CONTINUOUS
  0
LAYER
  5
96
100
AcDbSymbolTableRecord
100
AcDbLayerTableRecord
  2
画層72
 70
    0
 62
7
  6
CONTINUOUS
  0
LAYER
  5
97
100
AcDbSymbolTableRecord
100
AcDbLayerTableRecord
  2
画層73
 70
    0
 62
7
  6
CONTINUOUS
  0
LAYER
  5
98
100
AcDbSymbolTableRecord
100
AcDbLayerTableRecord
  2
画層74
 70
    0
 62
7
  6
CONTINUOUS
  0
LAYER
  5
99
100
AcDbSymbolTableRecord
100
AcDbLayerTableRecord
  2
画層75
 70
    0
 62
7
  6
CONTINUOUS
  0
LAYER
  5
9A
100
AcDbSymbolTableRecord
100
AcDbLayerTableRecord
  2
画層76
 70
    0
 62
7
  6
CONTINUOUS
  0
LAYER
  5
9B
100
AcDbSymbolTableRecord
100
AcDbLayerTableRecord
  2
画層77
 70
    0
 62
7
  6
CONTINUOUS
  0
LAYER
  5
9C
100
AcDbSymbolTableRecord
100
AcDbLayerTableRecord
  2
画層78
 70
    0
 62
7
  6
CONTINUOUS
  0
LAYER
  5
9D
100
AcDbSymbolTableRecord
100
AcDbLayerTableRecord
  2
画層79
 70
    0
 62
7
  6
CONTINUOUS
  0
LAYER
  5
9E
100
AcDbSymbolTableRecord
100
AcDbLayerTableRecord
  2
画層80
 70
    0
 62
7
  6
CONTINUOUS
  0
LAYER
  5
9F
100
AcDbSymbolTableRecord
100
AcDbLayerTableRecord
  2
画層81
 70
    0
 62
7
  6
CONTINUOUS
  0
LAYER
  5
A0
100
AcDbSymbolTableRecord
100
AcDbLayerTableRecord
  2
画層82
 70
    0
 62
7
  6
CONTINUOUS
  0
LAYER
  5
A1
100
AcDbSymbolTableRecord
100
AcDbLayerTableRecord
  2
画層83
 70
    0
 62
7
  6
CONTINUOUS
  0
LAYER
  5
A2
100
AcDbSymbolTableRecord
100
AcDbLayerTableRecord
  2
画層84
 70
    0
 62
7
  6
CONTINUOUS
  0
LAYER
  5
A3
100
AcDbSymbolTableRecord
100
AcDbLayerTableRecord
  2
画層85
 70
    0
 62
7
  6
CONTINUOUS
  0
LAYER
  5
A4
100
AcDbSymbolTableRecord
100
AcDbLayerTableRecord
  2
画層86
 70
    0
 62
7
  6
CONTINUOUS
  0
LAYER
  5
A5
100
AcDbSymbolTableRecord
100
AcDbLayerTableRecord
  2
画層87
 70
    0
 62
7
  6
CONTINUOUS
  0
LAYER
  5
A6
100
AcDbSymbolTableRecord
100
AcDbLayerTableRecord
  2
画層88
 70
    0
 62
7
  6
CONTINUOUS
  0
LAYER
  5
A7
100
AcDbSymbolTableRecord
100
AcDbLayerTableRecord
  2
画層89
 70
    0
 62
7
  6
CONTINUOUS
  0
LAYER
  5
A8
100
AcDbSymbolTableRecord
100
AcDbLayerTableRecord
  2
画層90
 70
    0
 62
7
  6
CONTINUOUS
  0
LAYER
  5
A9
100
AcDbSymbolTableRecord
100
AcDbLayerTableRecord
  2
画層91
 70
    0
 62
7
  6
CONTINUOUS
  0
LAYER
  5
AA
100
AcDbSymbolTableRecord
100
AcDbLayerTableRecord
  2
画層92
 70
    0
 62
7
  6
CONTINUOUS
  0
LAYER
  5
AB
100
AcDbSymbolTableRecord
100
AcDbLayerTableRecord
  2
画層93
 70
    0
 62
7
  6
CONTINUOUS
  0
LAYER
  5
AC
100
AcDbSymbolTableRecord
100
AcDbLayerTableRecord
  2
画層94
 70
    0
 62
7
  6
CONTINUOUS
  0
LAYER
  5
AD
100
AcDbSymbolTableRecord
100
AcDbLayerTableRecord
  2
画層95
 70
    0
 62
7
  6
CONTINUOUS
  0
LAYER
  5
AE
100
AcDbSymbolTableRecord
100
AcDbLayerTableRecord
  2
画層96
 70
    0
 62
7
  6
CONTINUOUS
  0
LAYER
  5
AF
100
AcDbSymbolTableRecord
100
AcDbLayerTableRecord
  2
画層97
 70
    0
 62
7
  6
CONTINUOUS
  0
LAYER
  5
B0
100
AcDbSymbolTableRecord
100
AcDbLayerTableRecord
  2
画層98
 70
    0
 62
7
  6
CONTINUOUS
  0
LAYER
  5
B1
100
AcDbSymbolTableRecord
100
AcDbLayerTableRecord
  2
画層99
 70
    0
 62
7
  6
CONTINUOUS
  0
LAYER
  5
B2
100
AcDbSymbolTableRecord
100
AcDbLayerTableRecord
  2
画層100
 70
    0
 62
7
  6
CONTINUOUS
  0
LAYER
  5
B3
100
AcDbSymbolTableRecord
100
AcDbLayerTableRecord
  2
画層101
 70
    0
 62
7
  6
CONTINUOUS
  0
LAYER
  5
B4
100
AcDbSymbolTableRecord
100
AcDbLayerTableRecord
  2
画層102
 70
    0
 62
7
  6
CONTINUOUS
  0
LAYER
  5
B5
100
AcDbSymbolTableRecord
100
AcDbLayerTableRecord
  2
画層103
 70
    0
 62
7
  6
CONTINUOUS
  0
LAYER
  5
B6
100
AcDbSymbolTableRecord
100
AcDbLayerTableRecord
  2
画層104
 70
    0
 62
7
  6
CONTINUOUS
  0
LAYER
  5
B7
100
AcDbSymbolTableRecord
100
AcDbLayerTableRecord
  2
画層105
 70
    0
 62
7
  6
CONTINUOUS
  0
LAYER
  5
B8
100
AcDbSymbolTableRecord
100
AcDbLayerTableRecord
  2
画層106
 70
    0
 62
7
  6
CONTINUOUS
  0
LAYER
  5
B9
100
AcDbSymbolTableRecord
100
AcDbLayerTableRecord
  2
画層107
 70
    0
 62
7
  6
CONTINUOUS
  0
LAYER
  5
BA
100
AcDbSymbolTableRecord
100
AcDbLayerTableRecord
  2
画層108
 70
    0
 62
7
  6
CONTINUOUS
  0
LAYER
  5
BB
100
AcDbSymbolTableRecord
100
AcDbLayerTableRecord
  2
画層109
 70
    0
 62
7
  6
CONTINUOUS
  0
LAYER
  5
BC
100
AcDbSymbolTableRecord
100
AcDbLayerTableRecord
  2
画層110
 70
    0
 62
7
  6
CONTINUOUS
  0
LAYER
  5
BD
100
AcDbSymbolTableRecord
100
AcDbLayerTableRecord
  2
画層111
 70
    0
 62
7
  6
CONTINUOUS
  0
LAYER
  5
BE
100
AcDbSymbolTableRecord
100
AcDbLayerTableRecord
  2
画層112
 70
    0
 62
7
  6
CONTINUOUS
  0
LAYER
  5
BF
100
AcDbSymbolTableRecord
100
AcDbLayerTableRecord
  2
画層113
 70
    0
 62
7
  6
CONTINUOUS
  0
LAYER
  5
C0
100
AcDbSymbolTableRecord
100
AcDbLayerTableRecord
  2
画層114
 70
    0
 62
7
  6
CONTINUOUS
  0
LAYER
  5
C1
100
AcDbSymbolTableRecord
100
AcDbLayerTableRecord
  2
画層115
 70
    0
 62
7
  6
CONTINUOUS
  0
LAYER
  5
C2
100
AcDbSymbolTableRecord
100
AcDbLayerTableRecord
  2
画層116
 70
    0
 62
7
  6
CONTINUOUS
  0
LAYER
  5
C3
100
AcDbSymbolTableRecord
100
AcDbLayerTableRecord
  2
画層117
 70
    0
 62
7
  6
CONTINUOUS
  0
LAYER
  5
C4
100
AcDbSymbolTableRecord
100
AcDbLayerTableRecord
  2
画層118
 70
    0
 62
7
  6
CONTINUOUS
  0
LAYER
  5
C5
100
AcDbSymbolTableRecord
100
AcDbLayerTableRecord
  2
画層119
 70
    0
 62
7
  6
CONTINUOUS
  0
LAYER
  5
C6
100
AcDbSymbolTableRecord
100
AcDbLayerTableRecord
  2
画層120
 70
    0
 62
7
  6
CONTINUOUS
  0
LAYER
  5
C7
100
AcDbSymbolTableRecord
100
AcDbLayerTableRecord
  2
画層121
 70
    0
 62
7
  6
CONTINUOUS
  0
LAYER
  5
C8
100
AcDbSymbolTableRecord
100
AcDbLayerTableRecord
  2
画層122
 70
    0
 62
7
  6
CONTINUOUS
  0
LAYER
  5
C9
100
AcDbSymbolTableRecord
100
AcDbLayerTableRecord
  2
画層123
 70
    0
 62
7
  6
CONTINUOUS
  0
LAYER
  5
CA
100
AcDbSymbolTableRecord
100
AcDbLayerTableRecord
  2
画層124
 70
    0
 62
7
  6
CONTINUOUS
  0
LAYER
  5
CB
100
AcDbSymbolTableRecord
100
AcDbLayerTableRecord
  2
画層125
 70
    0
 62
7
  6
CONTINUOUS
  0
LAYER
  5
CC
100
AcDbSymbolTableRecord
100
AcDbLayerTableRecord
  2
画層126
 70
    0
 62
7
  6
CONTINUOUS
  0
LAYER
  5
CD
100
AcDbSymbolTableRecord
100
AcDbLayerTableRecord
  2
画層127
 70
    0
 62
7
  6
CONTINUOUS
  0
LAYER
  5
CE
100
AcDbSymbolTableRecord
100
AcDbLayerTableRecord
  2
画層128
 70
    0
 62
7
  6
CONTINUOUS
  0
LAYER
  5
CF
100
AcDbSymbolTableRecord
100
AcDbLayerTableRecord
  2
画層129
 70
    0
 62
7
  6
CONTINUOUS
  0
LAYER
  5
D0
100
AcDbSymbolTableRecord
100
AcDbLayerTableRecord
  2
画層130
 70
    0
 62
7
  6
CONTINUOUS
  0
LAYER
  5
D1
100
AcDbSymbolTableRecord
100
AcDbLayerTableRecord
  2
画層131
 70
    0
 62
7
  6
CONTINUOUS
  0
LAYER
  5
D2
100
AcDbSymbolTableRecord
100
AcDbLayerTableRecord
  2
画層132
 70
    0
 62
7
  6
CONTINUOUS
  0
LAYER
  5
D3
100
AcDbSymbolTableRecord
100
AcDbLayerTableRecord
  2
画層133
 70
    0
 62
7
  6
CONTINUOUS
  0
LAYER
  5
D4
100
AcDbSymbolTableRecord
100
AcDbLayerTableRecord
  2
画層134
 70
    0
 62
7
  6
CONTINUOUS
  0
LAYER
  5
D5
100
AcDbSymbolTableRecord
100
AcDbLayerTableRecord
  2
画層135
 70
    0
 62
7
  6
CONTINUOUS
  0
LAYER
  5
D6
100
AcDbSymbolTableRecord
100
AcDbLayerTableRecord
  2
画層136
 70
    0
 62
7
  6
CONTINUOUS
  0
LAYER
  5
D7
100
AcDbSymbolTableRecord
100
AcDbLayerTableRecord
  2
画層137
 70
    0
 62
7
  6
CONTINUOUS
  0
LAYER
  5
D8
100
AcDbSymbolTableRecord
100
AcDbLayerTableRecord
  2
画層138
 70
    0
 62
7
  6
CONTINUOUS
  0
LAYER
  5
D9
100
AcDbSymbolTableRecord
100
AcDbLayerTableRecord
  2
画層139
 70
    0
 62
7
  6
CONTINUOUS
  0
LAYER
  5
DA
100
AcDbSymbolTableRecord
100
AcDbLayerTableRecord
  2
画層140
 70
    0
 62
7
  6
CONTINUOUS
  0
LAYER
  5
DB
100
AcDbSymbolTableRecord
100
AcDbLayerTableRecord
  2
画層141
 70
    0
 62
7
  6
CONTINUOUS
  0
LAYER
  5
DC
100
AcDbSymbolTableRecord
100
AcDbLayerTableRecord
  2
画層142
 70
    0
 62
7
  6
CONTINUOUS
  0
LAYER
  5
DD
100
AcDbSymbolTableRecord
100
AcDbLayerTableRecord
  2
画層143
 70
    0
 62
7
  6
CONTINUOUS
  0
LAYER
  5
DE
100
AcDbSymbolTableRecord
100
AcDbLayerTableRecord
  2
画層144
 70
    0
 62
7
  6
CONTINUOUS
  0
LAYER
  5
DF
100
AcDbSymbolTableRecord
100
AcDbLayerTableRecord
  2
画層145
 70
    0
 62
7
  6
CONTINUOUS
  0
LAYER
  5
E0
100
AcDbSymbolTableRecord
100
AcDbLayerTableRecord
  2
画層146
 70
    0
 62
7
  6
CONTINUOUS
  0
LAYER
  5
E1
100
AcDbSymbolTableRecord
100
AcDbLayerTableRecord
  2
画層147
 70
    0
 62
7
  6
CONTINUOUS
  0
LAYER
  5
E2
100
AcDbSymbolTableRecord
100
AcDbLayerTableRecord
  2
画層148
 70
    0
 62
7
  6
CONTINUOUS
  0
LAYER
  5
E3
100
AcDbSymbolTableRecord
100
AcDbLayerTableRecord
  2
画層149
 70
    0
 62
7
  6
CONTINUOUS
  0
LAYER
  5
E4
100
AcDbSymbolTableRecord
100
AcDbLayerTableRecord
  2
画層150
 70
    0
 62
7
  6
CONTINUOUS
  0
LAYER
  5
E5
100
AcDbSymbolTableRecord
100
AcDbLayerTableRecord
  2
画層151
 70
    0
 62
7
  6
CONTINUOUS
  0
LAYER
  5
E6
100
AcDbSymbolTableRecord
100
AcDbLayerTableRecord
  2
画層152
 70
    0
 62
7
  6
CONTINUOUS
  0
LAYER
  5
E7
100
AcDbSymbolTableRecord
100
AcDbLayerTableRecord
  2
画層153
 70
    0
 62
7
  6
CONTINUOUS
  0
LAYER
  5
E8
100
AcDbSymbolTableRecord
100
AcDbLayerTableRecord
  2
画層154
 70
    0
 62
7
  6
CONTINUOUS
  0
LAYER
  5
E9
100
AcDbSymbolTableRecord
100
AcDbLayerTableRecord
  2
画層155
 70
    0
 62
7
  6
CONTINUOUS
  0
LAYER
  5
EA
100
AcDbSymbolTableRecord
100
AcDbLayerTableRecord
  2
画層156
 70
    0
 62
7
  6
CONTINUOUS
  0
LAYER
  5
EB
100
AcDbSymbolTableRecord
100
AcDbLayerTableRecord
  2
画層157
 70
    0
 62
7
  6
CONTINUOUS
  0
LAYER
  5
EC
100
AcDbSymbolTableRecord
100
AcDbLayerTableRecord
  2
画層158
 70
    0
 62
7
  6
CONTINUOUS
  0
LAYER
  5
ED
100
AcDbSymbolTableRecord
100
AcDbLayerTableRecord
  2
画層159
 70
    0
 62
7
  6
CONTINUOUS
  0
LAYER
  5
EE
100
AcDbSymbolTableRecord
100
AcDbLayerTableRecord
  2
画層160
 70
    0
 62
7
  6
CONTINUOUS
  0
LAYER
  5
EF
100
AcDbSymbolTableRecord
100
AcDbLayerTableRecord
  2
画層161
 70
    0
 62
7
  6
CONTINUOUS
  0
LAYER
  5
F0
100
AcDbSymbolTableRecord
100
AcDbLayerTableRecord
  2
画層162
 70
    0
 62
7
  6
CONTINUOUS
  0
LAYER
  5
F1
100
AcDbSymbolTableRecord
100
AcDbLayerTableRecord
  2
画層163
 70
    0
 62
7
  6
CONTINUOUS
  0
LAYER
  5
F2
100
AcDbSymbolTableRecord
100
AcDbLayerTableRecord
  2
画層164
 70
    0
 62
7
  6
CONTINUOUS
  0
LAYER
  5
F3
100
AcDbSymbolTableRecord
100
AcDbLayerTableRecord
  2
画層165
 70
    0
 62
7
  6
CONTINUOUS
  0
LAYER
  5
F4
100
AcDbSymbolTableRecord
100
AcDbLayerTableRecord
  2
画層166
 70
    0
 62
7
  6
CONTINUOUS
  0
LAYER
  5
F5
100
AcDbSymbolTableRecord
100
AcDbLayerTableRecord
  2
画層167
 70
    0
 62
7
  6
CONTINUOUS
  0
LAYER
  5
F6
100
AcDbSymbolTableRecord
100
AcDbLayerTableRecord
  2
画層168
 70
    0
 62
7
  6
CONTINUOUS
  0
LAYER
  5
F7
100
AcDbSymbolTableRecord
100
AcDbLayerTableRecord
  2
画層169
 70
    0
 62
7
  6
CONTINUOUS
  0
LAYER
  5
F8
100
AcDbSymbolTableRecord
100
AcDbLayerTableRecord
  2
画層170
 70
    0
 62
7
  6
CONTINUOUS
  0
LAYER
  5
F9
100
AcDbSymbolTableRecord
100
AcDbLayerTableRecord
  2
画層171
 70
    0
 62
7
  6
CONTINUOUS
  0
LAYER
  5
FA
100
AcDbSymbolTableRecord
100
AcDbLayerTableRecord
  2
画層172
 70
    0
 62
7
  6
CONTINUOUS
  0
LAYER
  5
FB
100
AcDbSymbolTableRecord
100
AcDbLayerTableRecord
  2
画層173
 70
    0
 62
7
  6
CONTINUOUS
  0
LAYER
  5
FC
100
AcDbSymbolTableRecord
100
AcDbLayerTableRecord
  2
画層174
 70
    0
 62
7
  6
CONTINUOUS
  0
LAYER
  5
FD
100
AcDbSymbolTableRecord
100
AcDbLayerTableRecord
  2
画層175
 70
    0
 62
7
  6
CONTINUOUS
  0
LAYER
  5
FE
100
AcDbSymbolTableRecord
100
AcDbLayerTableRecord
  2
画層176
 70
    0
 62
7
  6
CONTINUOUS
  0
LAYER
  5
FF
100
AcDbSymbolTableRecord
100
AcDbLayerTableRecord
  2
画層177
 70
    0
 62
7
  6
CONTINUOUS
  0
LAYER
  5
100
100
AcDbSymbolTableRecord
100
AcDbLayerTableRecord
  2
画層178
 70
    0
 62
7
  6
CONTINUOUS
  0
LAYER
  5
101
100
AcDbSymbolTableRecord
100
AcDbLayerTableRecord
  2
画層179
 70
    0
 62
7
  6
CONTINUOUS
  0
LAYER
  5
102
100
AcDbSymbolTableRecord
100
AcDbLayerTableRecord
  2
画層180
 70
    0
 62
7
  6
CONTINUOUS
  0
LAYER
  5
103
100
AcDbSymbolTableRecord
100
AcDbLayerTableRecord
  2
画層181
 70
    0
 62
7
  6
CONTINUOUS
  0
LAYER
  5
104
100
AcDbSymbolTableRecord
100
AcDbLayerTableRecord
  2
画層182
 70
    0
 62
7
  6
CONTINUOUS
  0
LAYER
  5
105
100
AcDbSymbolTableRecord
100
AcDbLayerTableRecord
  2
画層183
 70
    0
 62
7
  6
CONTINUOUS
  0
LAYER
  5
106
100
AcDbSymbolTableRecord
100
AcDbLayerTableRecord
  2
画層184
 70
    0
 62
7
  6
CONTINUOUS
  0
LAYER
  5
107
100
AcDbSymbolTableRecord
100
AcDbLayerTableRecord
  2
画層185
 70
    0
 62
7
  6
CONTINUOUS
  0
LAYER
  5
108
100
AcDbSymbolTableRecord
100
AcDbLayerTableRecord
  2
画層186
 70
    0
 62
7
  6
CONTINUOUS
  0
LAYER
  5
109
100
AcDbSymbolTableRecord
100
AcDbLayerTableRecord
  2
画層187
 70
    0
 62
7
  6
CONTINUOUS
  0
LAYER
  5
10A
100
AcDbSymbolTableRecord
100
AcDbLayerTableRecord
  2
画層188
 70
    0
 62
7
  6
CONTINUOUS
  0
LAYER
  5
10B
100
AcDbSymbolTableRecord
100
AcDbLayerTableRecord
  2
画層189
 70
    0
 62
7
  6
CONTINUOUS
  0
LAYER
  5
10C
100
AcDbSymbolTableRecord
100
AcDbLayerTableRecord
  2
画層190
 70
    0
 62
7
  6
CONTINUOUS
  0
LAYER
  5
10D
100
AcDbSymbolTableRecord
100
AcDbLayerTableRecord
  2
画層191
 70
    0
 62
7
  6
CONTINUOUS
  0
LAYER
  5
10E
100
AcDbSymbolTableRecord
100
AcDbLayerTableRecord
  2
画層192
 70
    0
 62
7
  6
CONTINUOUS
  0
LAYER
  5
10F
100
AcDbSymbolTableRecord
100
AcDbLayerTableRecord
  2
画層193
 70
    0
 62
7
  6
CONTINUOUS
  0
LAYER
  5
110
100
AcDbSymbolTableRecord
100
AcDbLayerTableRecord
  2
画層194
 70
    0
 62
7
  6
CONTINUOUS
  0
LAYER
  5
111
100
AcDbSymbolTableRecord
100
AcDbLayerTableRecord
  2
画層195
 70
    0
 62
7
  6
CONTINUOUS
  0
LAYER
  5
112
100
AcDbSymbolTableRecord
100
AcDbLayerTableRecord
  2
画層196
 70
    0
 62
7
  6
CONTINUOUS
  0
LAYER
  5
113
100
AcDbSymbolTableRecord
100
AcDbLayerTableRecord
  2
画層197
 70
    0
 62
7
  6
CONTINUOUS
  0
LAYER
  5
114
100
AcDbSymbolTableRecord
100
AcDbLayerTableRecord
  2
画層198
 70
    0
 62
7
  6
CONTINUOUS
  0
LAYER
  5
115
100
AcDbSymbolTableRecord
100
AcDbLayerTableRecord
  2
画層199
 70
    0
 62
7
  6
CONTINUOUS
  0
LAYER
  5
116
100
AcDbSymbolTableRecord
100
AcDbLayerTableRecord
  2
画層200
 70
    0
 62
7
  6
CONTINUOUS
  0
LAYER
  5
117
100
AcDbSymbolTableRecord
100
AcDbLayerTableRecord
  2
画層201
 70
    0
 62
7
  6
CONTINUOUS
  0
LAYER
  5
118
100
AcDbSymbolTableRecord
100
AcDbLayerTableRecord
  2
画層202
 70
    0
 62
7
  6
CONTINUOUS
  0
LAYER
  5
119
100
AcDbSymbolTableRecord
100
AcDbLayerTableRecord
  2
画層203
 70
    0
 62
7
  6
CONTINUOUS
  0
LAYER
  5
11A
100
AcDbSymbolTableRecord
100
AcDbLayerTableRecord
  2
画層204
 70
    0
 62
7
  6
CONTINUOUS
  0
LAYER
  5
11B
100
AcDbSymbolTableRecord
100
AcDbLayerTableRecord
  2
画層205
 70
    0
 62
7
  6
CONTINUOUS
  0
LAYER
  5
11C
100
AcDbSymbolTableRecord
100
AcDbLayerTableRecord
  2
画層206
 70
    0
 62
7
  6
CONTINUOUS
  0
LAYER
  5
11D
100
AcDbSymbolTableRecord
100
AcDbLayerTableRecord
  2
画層207
 70
    0
 62
7
  6
CONTINUOUS
  0
LAYER
  5
11E
100
AcDbSymbolTableRecord
100
AcDbLayerTableRecord
  2
画層208
 70
    0
 62
7
  6
CONTINUOUS
  0
LAYER
  5
11F
100
AcDbSymbolTableRecord
100
AcDbLayerTableRecord
  2
画層209
 70
    0
 62
7
  6
CONTINUOUS
  0
LAYER
  5
120
100
AcDbSymbolTableRecord
100
AcDbLayerTableRecord
  2
画層210
 70
    0
 62
7
  6
CONTINUOUS
  0
LAYER
  5
121
100
AcDbSymbolTableRecord
100
AcDbLayerTableRecord
  2
画層211
 70
    0
 62
7
  6
CONTINUOUS
  0
LAYER
  5
122
100
AcDbSymbolTableRecord
100
AcDbLayerTableRecord
  2
画層212
 70
    0
 62
7
  6
CONTINUOUS
  0
LAYER
  5
123
100
AcDbSymbolTableRecord
100
AcDbLayerTableRecord
  2
画層213
 70
    0
 62
7
  6
CONTINUOUS
  0
LAYER
  5
124
100
AcDbSymbolTableRecord
100
AcDbLayerTableRecord
  2
画層214
 70
    0
 62
7
  6
CONTINUOUS
  0
LAYER
  5
125
100
AcDbSymbolTableRecord
100
AcDbLayerTableRecord
  2
画層215
 70
    0
 62
7
  6
CONTINUOUS
  0
LAYER
  5
126
100
AcDbSymbolTableRecord
100
AcDbLayerTableRecord
  2
画層216
 70
    0
 62
7
  6
CONTINUOUS
  0
LAYER
  5
127
100
AcDbSymbolTableRecord
100
AcDbLayerTableRecord
  2
画層217
 70
    0
 62
7
  6
CONTINUOUS
  0
LAYER
  5
128
100
AcDbSymbolTableRecord
100
AcDbLayerTableRecord
  2
画層218
 70
    0
 62
7
  6
CONTINUOUS
  0
LAYER
  5
129
100
AcDbSymbolTableRecord
100
AcDbLayerTableRecord
  2
画層219
 70
    0
 62
7
  6
CONTINUOUS
  0
LAYER
  5
12A
100
AcDbSymbolTableRecord
100
AcDbLayerTableRecord
  2
画層220
 70
    0
 62
7
  6
CONTINUOUS
  0
LAYER
  5
12B
100
AcDbSymbolTableRecord
100
AcDbLayerTableRecord
  2
画層221
 70
    0
 62
7
  6
CONTINUOUS
  0
LAYER
  5
12C
100
AcDbSymbolTableRecord
100
AcDbLayerTableRecord
  2
画層222
 70
    0
 62
7
  6
CONTINUOUS
  0
LAYER
  5
12D
100
AcDbSymbolTableRecord
100
AcDbLayerTableRecord
  2
画層223
 70
    0
 62
7
  6
CONTINUOUS
  0
LAYER
  5
12E
100
AcDbSymbolTableRecord
100
AcDbLayerTableRecord
  2
画層224
 70
    0
 62
7
  6
CONTINUOUS
  0
LAYER
  5
12F
100
AcDbSymbolTableRecord
100
AcDbLayerTableRecord
  2
画層225
 70
    0
 62
7
  6
CONTINUOUS
  0
LAYER
  5
130
100
AcDbSymbolTableRecord
100
AcDbLayerTableRecord
  2
画層226
 70
    0
 62
7
  6
CONTINUOUS
  0
LAYER
  5
131
100
AcDbSymbolTableRecord
100
AcDbLayerTableRecord
  2
画層227
 70
    0
 62
7
  6
CONTINUOUS
  0
LAYER
  5
132
100
AcDbSymbolTableRecord
100
AcDbLayerTableRecord
  2
画層228
 70
    0
 62
7
  6
CONTINUOUS
  0
LAYER
  5
133
100
AcDbSymbolTableRecord
100
AcDbLayerTableRecord
  2
画層229
 70
    0
 62
7
  6
CONTINUOUS
  0
LAYER
  5
134
100
AcDbSymbolTableRecord
100
AcDbLayerTableRecord
  2
画層230
 70
    0
 62
7
  6
CONTINUOUS
  0
LAYER
  5
135
100
AcDbSymbolTableRecord
100
AcDbLayerTableRecord
  2
画層231
 70
    0
 62
7
  6
CONTINUOUS
  0
LAYER
  5
136
100
AcDbSymbolTableRecord
100
AcDbLayerTableRecord
  2
画層232
 70
    0
 62
7
  6
CONTINUOUS
  0
LAYER
  5
137
100
AcDbSymbolTableRecord
100
AcDbLayerTableRecord
  2
画層233
 70
    0
 62
7
  6
CONTINUOUS
  0
LAYER
  5
138
100
AcDbSymbolTableRecord
100
AcDbLayerTableRecord
  2
画層234
 70
    0
 62
7
  6
CONTINUOUS
  0
LAYER
  5
139
100
AcDbSymbolTableRecord
100
AcDbLayerTableRecord
  2
画層235
 70
    0
 62
7
  6
CONTINUOUS
  0
LAYER
  5
13A
100
AcDbSymbolTableRecord
100
AcDbLayerTableRecord
  2
画層236
 70
    0
 62
7
  6
CONTINUOUS
  0
LAYER
  5
13B
100
AcDbSymbolTableRecord
100
AcDbLayerTableRecord
  2
画層237
 70
    0
 62
7
  6
CONTINUOUS
  0
LAYER
  5
13C
100
AcDbSymbolTableRecord
100
AcDbLayerTableRecord
  2
画層238
 70
    0
 62
7
  6
CONTINUOUS
  0
LAYER
  5
13D
100
AcDbSymbolTableRecord
100
AcDbLayerTableRecord
  2
画層239
 70
    0
 62
7
  6
CONTINUOUS
  0
LAYER
  5
13E
100
AcDbSymbolTableRecord
100
AcDbLayerTableRecord
  2
画層240
 70
    0
 62
7
  6
CONTINUOUS
  0
LAYER
  5
13F
100
AcDbSymbolTableRecord
100
AcDbLayerTableRecord
  2
画層241
 70
    0
 62
7
  6
CONTINUOUS
  0
LAYER
  5
140
100
AcDbSymbolTableRecord
100
AcDbLayerTableRecord
  2
画層242
 70
    0
 62
7
  6
CONTINUOUS
  0
LAYER
  5
141
100
AcDbSymbolTableRecord
100
AcDbLayerTableRecord
  2
画層243
 70
    0
 62
7
  6
CONTINUOUS
  0
LAYER
  5
142
100
AcDbSymbolTableRecord
100
AcDbLayerTableRecord
  2
画層244
 70
    0
 62
7
  6
CONTINUOUS
  0
LAYER
  5
143
100
AcDbSymbolTableRecord
100
AcDbLayerTableRecord
  2
画層245
 70
    0
 62
7
  6
CONTINUOUS
  0
LAYER
  5
144
100
AcDbSymbolTableRecord
100
AcDbLayerTableRecord
  2
画層246
 70
    0
 62
7
  6
CONTINUOUS
  0
LAYER
  5
145
100
AcDbSymbolTableRecord
100
AcDbLayerTableRecord
  2
画層247
 70
    0
 62
7
  6
CONTINUOUS
  0
LAYER
  5
146
100
AcDbSymbolTableRecord
100
AcDbLayerTableRecord
  2
画層248
 70
    0
 62
7
  6
CONTINUOUS
  0
LAYER
  5
147
100
AcDbSymbolTableRecord
100
AcDbLayerTableRecord
  2
画層249
 70
    0
 62
7
  6
CONTINUOUS
  0
LAYER
  5
148
100
AcDbSymbolTableRecord
100
AcDbLayerTableRecord
  2
画層250
 70
    0
 62
7
  6
CONTINUOUS
  0
LAYER
  5
149
100
AcDbSymbolTableRecord
100
AcDbLayerTableRecord
  2
画層251
 70
    0
 62
7
  6
CONTINUOUS
  0
LAYER
  5
14A
100
AcDbSymbolTableRecord
100
AcDbLayerTableRecord
  2
画層252
 70
    0
 62
7
  6
CONTINUOUS
  0
LAYER
  5
14B
100
AcDbSymbolTableRecord
100
AcDbLayerTableRecord
  2
画層253
 70
    0
 62
7
  6
CONTINUOUS
  0
LAYER
  5
14C
100
AcDbSymbolTableRecord
100
AcDbLayerTableRecord
  2
画層254
 70
    0
 62
7
  6
CONTINUOUS
  0
LAYER
  5
14D
100
AcDbSymbolTableRecord
100
AcDbLayerTableRecord
  2
画層255
 70
    0
 62
7
  6
CONTINUOUS
  0
ENDTAB
  0
TABLE
  2
STYLE
  5
4
100
AcDbSymbolTable
 70
     1
  0
STYLE
  5
14E
100
AcDbSymbolTableRecord
100
AcDbTextStyleTableRecord
  2
Standard
 70
     0
 40
0.0
 41
1.0
 50
0.0
 71
     0
 42
3.2
  3
TXT
  4
BIGFONT
  0
STYLE
  5
14F
100
AcDbSymbolTableRecord
100
AcDbTextStyleTableRecord
  2
Font_0
 70
     0
 40
0.0
 41
1.0
 50
0.0
 71
     0
 42
3.2
  3
MS Gothic.ttf
  4

1001
ACAD
1000
MS Gothic
1071
  32817
  0
STYLE
  5
150
100
AcDbSymbolTableRecord
100
AcDbTextStyleTableRecord
  2
Font_1
 70
     0
 40
0.0
 41
1.0
 50
0.0
 71
     0
 42
3.2
  3
MS Gothic.ttf
  4

1001
ACAD
1000
@MS Gothic
1071
  32817
  0
ENDTAB
  0
TABLE
  2
VIEW
  5
5
100
AcDbSymbolTable
 70
     0
  0
ENDTAB
  0
TABLE
  2
UCS
  5
6
100
AcDbSymbolTable
 70
     0
  0
ENDTAB
  0
TABLE
  2
APPID
  5
7
100
AcDbSymbolTable
 70
     1
  0
APPID
  5
151
100
AcDbSymbolTableRecord
100
AcDbRegAppTableRecord
  2
ACAD
 70
     0
  0
ENDTAB
  0
TABLE
  2
DIMSTYLE
  5
8
100
AcDbSymbolTable
 70
     1
  0
DIMSTYLE
105
2A
100
AcDbSymbolTableRecord
100
AcDbDimStyleTableRecord
  2
STANDARD
 70
     0
  3

  4

  5

  6

  7

 40
1.0
 41
2.5
 42
2.0
 43
7.0
 44
1.25
 45
0.0
 46
0.0
 47
0.0
 48
0.0
 71
     0
 72
     0
 73
     0
 74
     0
 75
     0
 76
     0
 77
     1
 78
     0
140
2.5
141
2.5
142
0.0
143
0.0394
144
1.0
145
0.0
146
1.0
147
1.0
170
     0
171
     2
172
     0
173
     0
174
     1
175
     0
176
     0
177
     0
178
     0
270
     2
271
     2
272
     4
273
     2
274
     2
275
     0
280
     0
281
     0
282
     0
283
     1
284
     0
285
     0
286
     0
287
     3
288
     0
  0
ENDTAB
  0
TABLE
  2
BLOCK_RECORD
  5
9
100
AcDbSymbolTable
 70
     0
  0
BLOCK_RECORD
  5
152
100
AcDbSymbolTableRecord
100
AcDbBlockTableRecord
  2
*MODEL_SPACE
  0
BLOCK_RECORD
  5
153
100
AcDbSymbolTableRecord
100
AcDbBlockTableRecord
  2
*PAPER_SPACE
  0
BLOCK_RECORD
  5
154
100
AcDbSymbolTableRecord
100
AcDbBlockTableRecord
  2
0
  0
BLOCK_RECORD
  5
155
100
AcDbSymbolTableRecord
100
AcDbBlockTableRecord
  2
A4
  0
BLOCK_RECORD
  5
156
100
AcDbSymbolTableRecord
100
AcDbBlockTableRecord
  2
NOTE
  0
BLOCK_RECORD
  5
157
100
AcDbSymbolTableRecord
100
AcDbBlockTableRecord
  2
BASE
  0
BLOCK_RECORD
  5
158
100
AcDbSymbolTableRecord
100
AcDbBlockTableRecord
  2
LIST
  0
BLOCK_RECORD
  5
159
100
AcDbSymbolTableRecord
100
AcDbBlockTableRecord
  2
A4ｹﾏｮﾘ
  0
BLOCK_RECORD
  5
15A
100
AcDbSymbolTableRecord
100
AcDbBlockTableRecord
  2
JAME
  0
BLOCK_RECORD
  5
15B
100
AcDbSymbolTableRecord
100
AcDbBlockTableRecord
  2
GENAXEH
  0
BLOCK_RECORD
  5
15C
100
AcDbSymbolTableRecord
100
AcDbBlockTableRecord
  2
A$C36D836D4
  0
BLOCK_RECORD
  5
15D
100
AcDbSymbolTableRecord
100
AcDbBlockTableRecord
  2
A$C520435C5
  0
BLOCK_RECORD
  5
15E
100
AcDbSymbolTableRecord
100
AcDbBlockTableRecord
  2
A$C60F9129D
  0
BLOCK_RECORD
  5
15F
100
AcDbSymbolTableRecord
100
AcDbBlockTableRecord
  2
A
  0
BLOCK_RECORD
  5
160
100
AcDbSymbolTableRecord
100
AcDbBlockTableRecord
  2
B
  0
BLOCK_RECORD
  5
161
100
AcDbSymbolTableRecord
100
AcDbBlockTableRecord
  2
C
  0
BLOCK_RECORD
  5
162
100
AcDbSymbolTableRecord
100
AcDbBlockTableRecord
  2
D
  0
BLOCK_RECORD
  5
163
100
AcDbSymbolTableRecord
100
AcDbBlockTableRecord
  2
A4ｹﾏｮﾘ_JAME_
  0
BLOCK_RECORD
  5
164
100
AcDbSymbolTableRecord
100
AcDbBlockTableRecord
  2
A$C232243C3
  0
ENDTAB
  0
ENDSEC
  0
SECTION
  2
BLOCKS
  0
BLOCK
  5
166
100
AcDbEntity
  8
0
100
AcDbBlockBegin
2
*MODEL_SPACE
 70
     0
 10
0.0
 20
0.0
 30
0.0
  3
*MODEL_SPACE
  1

  0
ENDBLK
  5
167
100
AcDbEntity
  8
0
100
AcDbBlockEnd
  0
BLOCK
  5
168
100
AcDbEntity
 67
     1
  8
0
100
AcDbBlockBegin
  2
*PAPER_SPACE
 70
     0
 10
0.0
 20
0.0
 30
0.0
  3
*PAPER_SPACE
  1

  0
ENDBLK
  5
169
100
AcDbEntity
 67
     1
  8
0
100
AcDbBlockEnd
  0
BLOCK
  5
16A
100
AcDbEntity
  8
0
100
AcDbBlockBegin
  2
0
 70
    0
 10
0
 20
0
 30
0.0
  3
0
  1

  0
LINE
  5
16B
100
AcDbEntity
  8
0
100
AcDbLine
  6
BYLAYER
 10
1
 20
1
 11
97.85
 21
1
  0
LINE
  5
16C
100
AcDbEntity
  8
0
100
AcDbLine
  6
BYLAYER
 10
1
 20
201
 11
1
 21
1
  0
LINE
  5
16D
100
AcDbEntity
  8
0
100
AcDbLine
  6
BYLAYER
 10
1
 20
1
 11
1
 21
35
  0
LINE
  5
16E
100
AcDbEntity
  8
0
100
AcDbLine
  6
BYLAYER
 10
1
 20
7
 11
290
 21
7
  0
LINE
  5
16F
100
AcDbEntity
  8
0
100
AcDbLine
  6
BYLAYER
 10
1
 20
13
 11
290
 21
13
  0
LINE
  5
170
100
AcDbEntity
  8
0
100
AcDbLine
  6
BYLAYER
 10
97.85
 20
19
 11
290
 21
19
  0
LINE
  5
171
100
AcDbEntity
  8
0
100
AcDbLine
  6
BYLAYER
 10
98
 20
25
 11
290
 21
25
  0
LINE
  5
172
100
AcDbEntity
  8
0
100
AcDbLine
  6
BYLAYER
 10
98
 20
31
 11
290
 21
31
  0
LINE
  5
173
100
AcDbEntity
  8
0
100
AcDbLine
  6
BYLAYER
 10
214
 20
37
 11
214
 21
1
  0
LINE
  5
174
100
AcDbEntity
  8
0
100
AcDbLine
  6
BYLAYER
 10
233
 20
37
 11
233
 21
1
  0
LINE
  5
175
100
AcDbEntity
  8
0
100
AcDbLine
  6
BYLAYER
 10
196.025
 20
31
 11
196.025
 21
1
  0
LINE
  5
176
100
AcDbEntity
  8
0
100
AcDbLine
  6
BYLAYER
 10
196.025
 20
31
 11
290
 21
31
  0
LINE
  5
177
100
AcDbEntity
  8
0
100
AcDbLine
  6
BYLAYER
 10
196.025
 20
1
 11
290
 21
1
  0
LINE
  5
178
100
AcDbEntity
  8
0
100
AcDbLine
  6
BYLAYER
 10
196.15
 20
37
 11
196.15
 21
1
  0
LINE
  5
179
100
AcDbEntity
  8
0
100
AcDbLine
  6
BYLAYER
 10
195.85
 20
37
 11
195.85
 21
1
  0
LINE
  5
17A
100
AcDbEntity
  8
0
100
AcDbLine
  6
BYLAYER
 10
98.15
 20
37
 11
98.15
 21
1
  0
LINE
  5
17B
100
AcDbEntity
  8
0
100
AcDbLine
  6
BYLAYER
 10
98.15
 20
31
 11
195.85
 21
31
  0
LINE
  5
17C
100
AcDbEntity
  8
0
100
AcDbLine
  6
BYLAYER
 10
98.15
 20
1
 11
195.85
 21
1
  0
LINE
  5
17D
100
AcDbEntity
  8
0
100
AcDbLine
  6
BYLAYER
 10
97.85
 20
37
 11
97.85
 21
1
  0
LINE
  5
17E
100
AcDbEntity
  8
0
100
AcDbLine
  6
BYLAYER
 10
145
 20
37
 11
145
 21
1
  0
LINE
  5
17F
100
AcDbEntity
  8
0
100
AcDbLine
  6
BYLAYER
 10
115
 20
37
 11
115
 21
1
  0
LINE
  5
180
100
AcDbEntity
  8
0
100
AcDbLine
  6
BYLAYER
 10
164
 20
37
 11
164
 21
1
  0
LINE
  5
181
100
AcDbEntity
  8
0
100
AcDbLine
  6
BYLAYER
 10
49
 20
13
 11
49
 21
1
  0
LINE
  5
182
100
AcDbEntity
  8
0
100
AcDbLine
  6
BYLAYER
 10
14
 20
13
 11
14
 21
1
  0
LINE
  5
183
100
AcDbEntity
  8
0
100
AcDbLine
  6
BYLAYER
 10
63
 20
13
 11
63
 21
1
  0
TEXT
  5
184
100
AcDbEntity
  8
0
100
AcDbText
  6
BYLAYER
 10
3
 20
7.72940914028269
 40
3
  1
TEL
  7
Font_0
100
AcDbText
  0
TEXT
  5
185
100
AcDbEntity
  8
0
100
AcDbText
  6
BYLAYER
 10
51
 20
7.91176142535337
 40
3
  1
FAX
  7
Font_0
100
AcDbText
  0
TEXT
  5
186
100
AcDbEntity
  8
0
100
AcDbText
  6
BYLAYER
 10
16.5400336288223
 20
8.09411371042404
 40
3
  1
(04)3322627
  7
Font_0
100
AcDbText
  0
TEXT
  5
187
100
AcDbEntity
  8
0
100
AcDbText
  6
BYLAYER
 10
67
 20
8.09411371042404
 40
3
  1
(04)3322629
  7
Font_0
100
AcDbText
  0
LINE
  5
188
100
AcDbEntity
  8
0
100
AcDbLine
  6
BYLAYER
 10
1
 20
37
 11
290
 21
37
  0
TEXT
  5
189
100
AcDbEntity
  8
0
100
AcDbText
  6
BYLAYER
 10
40.6536662502908
 20
8.06055328395253
 40
3
  1
~8
  7
Font_0
100
AcDbText
  0
TEXT
  5
18A
100
AcDbEntity
  8
0
100
AcDbText
  6
BYLAYER
 10
99.7036913346956
 20
32.2639399057443
 40
4
  1
･D ｺﾞ
  7
Font_0
100
AcDbText
  0
TEXT
  5
18B
100
AcDbEntity
  8
0
100
AcDbText
  6
BYLAYER
 10
99.7036913346956
 20
25.6992573518645
 40
4
  1
ｮﾖ ｹ�
  7
Font_0
100
AcDbText
  0
TEXT
  5
18C
100
AcDbEntity
  8
0
100
AcDbText
  6
BYLAYER
 10
99.8861871848885
 20
19.8639838602288
 40
4
  1
ﾃｸ ｹﾏ
  7
Font_0
100
AcDbText
  0
TEXT
  5
18D
100
AcDbEntity
  8
0
100
AcDbText
  6
BYLAYER
 10
99.8861871848885
 20
13.8463581030321
 40
4
  1
ｾ� ｺﾘ
  7
Font_0
100
AcDbText
  0
TEXT
  5
18E
100
AcDbEntity
  8
0
100
AcDbText
  6
BYLAYER
 10
100.068683035081
 20
7.82873284267693
 40
4
  1
ｫ~ ｦW
  7
Font_0
100
AcDbText
  0
TEXT
  5
18F
100
AcDbEntity
  8
0
100
AcDbText
  6
BYLAYER
 10
100.068683035081
 20
1.99345935104124
 40
4
  1
ｹﾏ ｸｹ
  7
Font_0
100
AcDbText
  0
TEXT
  5
190
100
AcDbEntity
  8
0
100
AcDbText
  6
BYLAYER
 10
146.605123404095
 20
31.8992353746223
 40
4
  1
ｧ� ｽ�
  7
Font_0
100
AcDbText
  0
TEXT
  5
191
100
AcDbEntity
  8
0
100
AcDbText
  6
BYLAYER
 10
146.605123404095
 20
25.8816096174256
 40
4
  1
､� ｨﾒ
  7
Font_0
100
AcDbText
  0
TEXT
  5
192
100
AcDbEntity
  8
0
100
AcDbText
  6
BYLAYER
 10
146.787619254287
 20
20.0463361257899
 40
4
  1
ｼﾆ ｶq
  7
Font_0
100
AcDbText
  0
TEXT
  5
193
100
AcDbEntity
  8
0
100
AcDbText
  6
BYLAYER
 10
146.97011510448
 20
14.0287103685931
 40
4
  1
ｳ� ｦ�
  7
Font_0
100
AcDbText
  0
TEXT
  5
194
100
AcDbEntity
  8
0
100
AcDbText
  6
BYLAYER
 10
146.422627553902
 20
8.01108510823795
 40
4
  1
ｪ揵ｱｳBｲz
  7
Font_0
100
AcDbText
  0
TEXT
  5
195
100
AcDbEntity
  8
0
100
AcDbText
  6
BYLAYER
 10
146.605123404095
 20
2.17581161660226
 40
4
  1
ｻsｹﾏ､魘ﾁ
  7
Font_0
100
AcDbText
  0
TEXT
  5
196
100
AcDbEntity
  8
0
100
AcDbText
  6
BYLAYER
 10
197.77841370095
 20
32.2399819360484
 40
4
  1
､� ｴﾁ
  7
Font_0
100
AcDbText
  0
TEXT
  5
197
100
AcDbEntity
  8
0
100
AcDbText
  6
BYLAYER
 10
215.423238216157
 20
32.0275605512105
 40
4
  1
ｭt
  7
Font_0
100
AcDbText
  0
TEXT
  5
198
100
AcDbEntity
  8
0
100
AcDbText
  6
BYLAYER
 10
221.375709026727
 20
31.815139655317
 40
4
  1
ｳd
  7
Font_0
100
AcDbText
  0
TEXT
  5
199
100
AcDbEntity
  8
0
100
AcDbText
  6
BYLAYER
 10
227.328179837297
 20
31.815139655317
 40
4
  1
､H
  7
Font_0
100
AcDbText
  0
TEXT
  5
19A
100
AcDbEntity
  8
0
100
AcDbText
  6
BYLAYER
 10
239.020533541933
 20
32.0275605512105
 40
4
  1
ｧ�
  7
Font_0
100
AcDbText
  0
TEXT
  5
19B
100
AcDbEntity
  8
0
100
AcDbText
  6
BYLAYER
 10
251.98841615305
 20
32.0275605512105
 40
4
  1
ｧ�
  7
Font_0
100
AcDbText
  0
TEXT
  5
19C
100
AcDbEntity
  8
0
100
AcDbText
  6
BYLAYER
 10
264.531122227431
 20
32.0275605512105
 40
4
  1
､ｺ
  7
Font_0
100
AcDbText
  0
TEXT
  5
19D
100
AcDbEntity
  8
0
100
AcDbText
  6
BYLAYER
 10
276.436064552298
 20
31.815139655317
 40
4
  1
ｮe
  7
Font_0
100
AcDbText
  0
TEXT
  5
19E
100
AcDbEntity
  8
0
100
AcDbText
  6
BYLAYER
 10
23.0468952754036
 20
24.3731292136772
 40
7
  1
ｫﾘｷﾔ､uｷ~ｪﾑ･ｳｭｭ､ｽ･q
  7
Font_0
100
AcDbText
  0
TEXT
  5
19F
100
AcDbEntity
  8
0
100
AcDbText
  6
BYLAYER
 10
22.2780828500217
 20
15.9228468305838
 40
3
  1
CHIEN YU INDUSTRIAL CO.,LTD.
  7
Font_0
100
AcDbText
  0
CIRCLE
  5
1A0
100
AcDbEntity
  8
0
100
AcDbCircle
  6
BYLAYER
 10
11.1054905349494
 20
25.350263158651
 40
9.36463111331499
  0
CIRCLE
  5
1A1
100
AcDbEntity
  8
0
100
AcDbCircle
  6
BYLAYER
 10
11.1054905349494
 20
25.350263158651
 40
7.62237416200057
  0
ARC
  5
1A2
100
AcDbEntity
  8
0
100
AcDbCircle
  6
BYLAYER
 10
11.1054905349494
 20
25.350263158651
 40
4.41008790801462
100
AcDbArc
 50
90
 51
0
  0
LINE
  5
1A3
100
AcDbEntity
  8
0
100
AcDbLine
  6
BYLAYER
 10
11.1054905349494
 20
29.7603510666656
 11
16.2233703294355
 21
29.7603510666656
  0
LINE
  5
1A4
100
AcDbEntity
  8
0
100
AcDbLine
  6
BYLAYER
 10
15.515578442964
 20
25.350263158651
 11
16.4411524483498
 21
25.350263158651
  0
TEXT
  5
1A5
100
AcDbEntity
  8
0
100
AcDbText
  6
BYLAYER
 10
8.49210581170386
 20
22.8477388856442
 40
5
  1
Y
  7
Font_0
100
AcDbText
  0
ARC
  5
1A6
100
AcDbEntity
  8
0
100
AcDbCircle
  6
BYLAYER
 10
11.5745216067836
 20
33.8983997393573
 40
0.704372460813671
100
AcDbArc
 50
83.8529806316668
 51
239.250071636948
  0
ARC
  5
1A7
100
AcDbEntity
  8
0
100
AcDbCircle
  6
BYLAYER
 10
7.23761506796891
 20
32.9876821284788
 40
0.704372460813671
100
AcDbArc
 50
113.852980631667
 51
269.250071636948
  0
ARC
  5
1A8
100
AcDbEntity
  8
0
100
AcDbCircle
  6
BYLAYER
 10
3.93710263695578
 20
30.0305242723769
 40
0.704372460813671
100
AcDbArc
 50
143.852980631667
 51
299.250071636948
  0
ARC
  5
1A9
100
AcDbEntity
  8
0
100
AcDbCircle
  6
BYLAYER
 10
2.55735395424305
 20
25.8192942304852
 40
0.704372460813671
100
AcDbArc
 50
173.852980631667
 51
329.250071636948
  0
ARC
  5
1AA
100
AcDbEntity
  8
0
100
AcDbCircle
  6
BYLAYER
 10
3.46807156512152
 20
21.4823876916705
 40
0.704372460813671
100
AcDbArc
 50
203.852980631667
 51
359.250071636948
  0
ARC
  5
1AB
100
AcDbEntity
  8
0
100
AcDbCircle
  6
BYLAYER
 10
6.42522942122351
 20
18.1818752606574
 40
0.704372460813671
100
AcDbArc
 50
233.852980631667
 51
29.2500716369476
  0
ARC
  5
1AC
100
AcDbEntity
  8
0
100
AcDbCircle
  6
BYLAYER
 10
10.6364594631151
 20
16.8021265779447
 40
0.704372460813671
100
AcDbArc
 50
263.852980631667
 51
59.2500716369476
  0
ARC
  5
1AD
100
AcDbEntity
  8
0
100
AcDbCircle
  6
BYLAYER
 10
14.9733660019298
 20
17.7128441888231
 40
0.704372460813671
100
AcDbArc
 50
293.852980631667
 51
89.2500716369476
  0
ARC
  5
1AE
100
AcDbEntity
  8
0
100
AcDbCircle
  6
BYLAYER
 10
18.273878432943
 20
20.6700020449251
 40
0.704372460813671
100
AcDbArc
 50
323.852980631667
 51
119.250071636948
  0
ARC
  5
1AF
100
AcDbEntity
  8
0
100
AcDbCircle
  6
BYLAYER
 10
19.6536271156557
 20
24.8812320868167
 40
0.704372460813671
100
AcDbArc
 50
353.852980631667
 51
149.250071636948
  0
ARC
  5
1B0
100
AcDbEntity
  8
0
100
AcDbCircle
  6
BYLAYER
 10
18.7429095047772
 20
29.2181386256314
 40
0.704372460813671
100
AcDbArc
 50
23.8529806316668
 51
179.250071636948
  0
ARC
  5
1B1
100
AcDbEntity
  8
0
100
AcDbCircle
  6
BYLAYER
 10
15.7857516486752
 20
32.5186510566446
 40
0.704372460813671
100
AcDbArc
 50
53.8529806316668
 51
209.250071636948
  0
LINE
  5
1B2
100
AcDbEntity
  8
0
100
AcDbLine
  6
BYLAYER
 10
1
 20
201
 11
290
 21
201
  0
LINE
  5
1B3
100
AcDbEntity
  8
0
100
AcDbLine
  6
BYLAYER
 10
290
 20
201
 11
290
 21
1
  0
ENDBLK
  5
1B4
100
AcDbEntity
  8
0
 67
     1
100
AcDbBlockEnd
  0
BLOCK
  5
1B5
100
AcDbEntity
  8
0
100
AcDbBlockBegin
  2
A4
 70
    0
 10
0
 20
0
 30
0.0
  3
A4
  1

  0
TEXT
  5
1B6
100
AcDbEntity
  8
0
100
AcDbText
  6
BYLAYER
 10
121.243373757434
 20
22.64898098486
 40
4.8
  1
ｿ� ｪ｢ ｵo
  7
Font_0
100
AcDbText
  0
TEXT
  5
1B7
100
AcDbEntity
  8
0
100
AcDbText
  6
BYLAYER
 10
175.643149157513
 20
16.5268633951276
 40
4.8
  1
M/M
  7
Font_0
100
AcDbText
  0
INSERT
  5
1B8
100
AcDbEntity
  8
0
100
AcDbBlockReference
  6
CONTINUOUS
  2
0
 10
2.77414193339833
 20
3.05830958210858
 30
0.0
  0
ENDBLK
  5
1B9
100
AcDbEntity
  8
0
 67
     1
100
AcDbBlockEnd
  0
BLOCK
  5
1BA
100
AcDbEntity
  8
0
100
AcDbBlockBegin
  2
NOTE
 70
    0
 10
0
 20
0
 30
0.0
  3
NOTE
  1

  0
LINE
  5
1BB
100
AcDbEntity
  8
0
100
AcDbLine
  6
BYLAYER
 10
0
 20
48
 11
244.5
 21
48
  0
LINE
  5
1BC
100
AcDbEntity
  8
0
100
AcDbLine
  6
BYLAYER
 10
0
 20
42
 11
244.5
 21
42
  0
LINE
  5
1BD
100
AcDbEntity
  8
0
100
AcDbLine
  6
BYLAYER
 10
0
 20
36
 11
244.5
 21
36
  0
LINE
  5
1BE
100
AcDbEntity
  8
0
100
AcDbLine
  6
BYLAYER
 10
0
 20
30
 11
244.5
 21
30
  0
LINE
  5
1BF
100
AcDbEntity
  8
0
100
AcDbLine
  6
BYLAYER
 10
0
 20
24
 11
244.5
 21
24
  0
LINE
  5
1C0
100
AcDbEntity
  8
0
100
AcDbLine
  6
BYLAYER
 10
0
 20
18
 11
244.5
 21
18
  0
LINE
  5
1C1
100
AcDbEntity
  8
0
100
AcDbLine
  6
BYLAYER
 10
0
 20
12
 11
244.5
 21
12
  0
LINE
  5
1C2
100
AcDbEntity
  8
0
100
AcDbLine
  6
BYLAYER
 10
0
 20
6
 11
244.5
 21
6
  0
LINE
  5
1C3
100
AcDbEntity
  8
0
100
AcDbLine
  6
BYLAYER
 62
3
 10
196.307106781187
 20
0.707106781186553
 11
211.192893218814
 21
0.707106781186553
  0
LINE
  5
1C4
100
AcDbEntity
  8
0
100
AcDbLine
  6
BYLAYER
 62
3
 10
196.307106781187
 20
6.70710678118655
 11
211.192893218814
 21
6.70710678118655
  0
LINE
  5
1C5
100
AcDbEntity
  8
0
100
AcDbLine
  6
BYLAYER
 62
3
 10
196.307106781187
 20
12.7071067811866
 11
211.192893218814
 21
12.7071067811866
  0
LINE
  5
1C6
100
AcDbEntity
  8
0
100
AcDbLine
  6
BYLAYER
 62
3
 10
196.307106781187
 20
18.7071067811866
 11
211.192893218814
 21
18.7071067811866
  0
LINE
  5
1C7
100
AcDbEntity
  8
0
100
AcDbLine
  6
BYLAYER
 62
3
 10
196.307106781187
 20
24.7071067811866
 11
211.192893218814
 21
24.7071067811866
  0
LINE
  5
1C8
100
AcDbEntity
  8
0
100
AcDbLine
  6
BYLAYER
 62
3
 10
196.307106781187
 20
30.7071067811865
 11
211.192893218814
 21
30.7071067811865
  0
LINE
  5
1C9
100
AcDbEntity
  8
0
100
AcDbLine
  6
BYLAYER
 62
3
 10
196.307106781187
 20
36.7071067811866
 11
211.192893218814
 21
36.7071067811866
  0
LINE
  5
1CA
100
AcDbEntity
  8
0
100
AcDbLine
  6
BYLAYER
 62
3
 10
65.9071067811866
 20
0.707106781186553
 11
80.7928932188135
 21
0.707106781186553
  0
LINE
  5
1CB
100
AcDbEntity
  8
0
100
AcDbLine
  6
BYLAYER
 62
3
 10
65.9071067811866
 20
6.70710678118655
 11
80.7928932188135
 21
6.70710678118655
  0
LINE
  5
1CC
100
AcDbEntity
  8
0
100
AcDbLine
  6
BYLAYER
 62
3
 10
65.9071067811866
 20
12.7071067811866
 11
80.7928932188135
 21
12.7071067811866
  0
LINE
  5
1CD
100
AcDbEntity
  8
0
100
AcDbLine
  6
BYLAYER
 62
3
 10
65.9071067811866
 20
18.7071067811866
 11
80.7928932188135
 21
18.7071067811866
  0
LINE
  5
1CE
100
AcDbEntity
  8
0
100
AcDbLine
  6
BYLAYER
 62
3
 10
65.9071067811866
 20
24.7071067811866
 11
80.7928932188135
 21
24.7071067811866
  0
LINE
  5
1CF
100
AcDbEntity
  8
0
100
AcDbLine
  6
BYLAYER
 62
3
 10
65.9071067811866
 20
30.7071067811865
 11
80.7928932188135
 21
30.7071067811865
  0
LINE
  5
1D0
100
AcDbEntity
  8
0
100
AcDbLine
  6
BYLAYER
 62
3
 10
65.9071067811866
 20
36.7071067811866
 11
80.7928932188135
 21
36.7071067811866
  0
LINE
  5
1D1
100
AcDbEntity
  8
0
100
AcDbLine
  6
BYLAYER
 10
65.2
 20
48
 11
65.2
 21
0
  0
LINE
  5
1D2
100
AcDbEntity
  8
0
100
AcDbLine
  6
BYLAYER
 10
32.6
 20
48
 11
32.6
 21
0
  0
LINE
  5
1D3
100
AcDbEntity
  8
0
100
AcDbLine
  6
BYLAYER
 10
16.3
 20
48
 11
16.3
 21
0
  0
LINE
  5
1D4
100
AcDbEntity
  8
0
100
AcDbLine
  6
BYLAYER
 10
48.9
 20
48
 11
48.9
 21
0
  0
LINE
  5
1D5
100
AcDbEntity
  8
0
100
AcDbLine
  6
BYLAYER
 62
3
 10
0.707106781186548
 20
0.707106781186553
 11
15.5928932188134
 21
0.707106781186553
  0
LINE
  5
1D6
100
AcDbEntity
  8
0
100
AcDbLine
  6
BYLAYER
 62
3
 10
0.707106781186548
 20
6.70710678118655
 11
15.5928932188134
 21
6.70710678118655
  0
LINE
  5
1D7
100
AcDbEntity
  8
0
100
AcDbLine
  6
BYLAYER
 62
3
 10
0.707106781186548
 20
12.7071067811866
 11
15.5928932188134
 21
12.7071067811866
  0
LINE
  5
1D8
100
AcDbEntity
  8
0
100
AcDbLine
  6
BYLAYER
 62
3
 10
0.707106781186548
 20
18.7071067811866
 11
15.5928932188134
 21
18.7071067811866
  0
LINE
  5
1D9
100
AcDbEntity
  8
0
100
AcDbLine
  6
BYLAYER
 62
3
 10
33.3071067811865
 20
0.707106781186553
 11
48.1928932188135
 21
0.707106781186553
  0
LINE
  5
1DA
100
AcDbEntity
  8
0
100
AcDbLine
  6
BYLAYER
 62
3
 10
33.3071067811865
 20
6.70710678118655
 11
48.1928932188135
 21
6.70710678118655
  0
LINE
  5
1DB
100
AcDbEntity
  8
0
100
AcDbLine
  6
BYLAYER
 62
3
 10
33.3071067811865
 20
12.7071067811866
 11
48.1928932188135
 21
12.7071067811866
  0
LINE
  5
1DC
100
AcDbEntity
  8
0
100
AcDbLine
  6
BYLAYER
 62
3
 10
33.3071067811865
 20
18.7071067811866
 11
48.1928932188135
 21
18.7071067811866
  0
LINE
  5
1DD
100
AcDbEntity
  8
0
100
AcDbLine
  6
BYLAYER
 62
3
 10
17.0071067811865
 20
0.707106781186553
 11
31.8928932188135
 21
0.707106781186553
  0
LINE
  5
1DE
100
AcDbEntity
  8
0
100
AcDbLine
  6
BYLAYER
 62
3
 10
17.0071067811865
 20
6.70710678118655
 11
31.8928932188135
 21
6.70710678118655
  0
LINE
  5
1DF
100
AcDbEntity
  8
0
100
AcDbLine
  6
BYLAYER
 62
3
 10
17.0071067811865
 20
12.7071067811866
 11
31.8928932188135
 21
12.7071067811866
  0
LINE
  5
1E0
100
AcDbEntity
  8
0
100
AcDbLine
  6
BYLAYER
 62
3
 10
17.0071067811865
 20
18.7071067811866
 11
31.8928932188135
 21
18.7071067811866
  0
LINE
  5
1E1
100
AcDbEntity
  8
0
100
AcDbLine
  6
BYLAYER
 62
3
 10
49.6071067811866
 20
0.707106781186553
 11
64.4928932188135
 21
0.707106781186553
  0
LINE
  5
1E2
100
AcDbEntity
  8
0
100
AcDbLine
  6
BYLAYER
 62
3
 10
49.6071067811866
 20
6.70710678118655
 11
64.4928932188135
 21
6.70710678118655
  0
LINE
  5
1E3
100
AcDbEntity
  8
0
100
AcDbLine
  6
BYLAYER
 62
3
 10
49.6071067811866
 20
12.7071067811866
 11
64.4928932188135
 21
12.7071067811866
  0
LINE
  5
1E4
100
AcDbEntity
  8
0
100
AcDbLine
  6
BYLAYER
 62
3
 10
49.6071067811866
 20
18.7071067811866
 11
64.4928932188135
 21
18.7071067811866
  0
LINE
  5
1E5
100
AcDbEntity
  8
0
100
AcDbLine
  6
BYLAYER
 62
3
 10
0.707106781186548
 20
24.7071067811866
 11
15.5928932188134
 21
24.7071067811866
  0
LINE
  5
1E6
100
AcDbEntity
  8
0
100
AcDbLine
  6
BYLAYER
 62
3
 10
0.707106781186548
 20
30.7071067811865
 11
15.5928932188134
 21
30.7071067811865
  0
LINE
  5
1E7
100
AcDbEntity
  8
0
100
AcDbLine
  6
BYLAYER
 62
3
 10
0.707106781186548
 20
36.7071067811866
 11
15.5928932188134
 21
36.7071067811866
  0
TEXT
  5
1E8
100
AcDbEntity
  8
0
100
AcDbText
  6
BYLAYER
 10
5.67126064773777
 20
43.5
 40
3
  1
､u･O
  7
Font_0
100
AcDbText
  0
LINE
  5
1E9
100
AcDbEntity
  8
0
100
AcDbLine
  6
BYLAYER
 62
3
 10
33.3071067811865
 20
24.7071067811866
 11
48.1928932188135
 21
24.7071067811866
  0
LINE
  5
1EA
100
AcDbEntity
  8
0
100
AcDbLine
  6
BYLAYER
 62
3
 10
33.3071067811865
 20
30.7071067811865
 11
48.1928932188135
 21
30.7071067811865
  0
LINE
  5
1EB
100
AcDbEntity
  8
0
100
AcDbLine
  6
BYLAYER
 62
3
 10
33.3071067811865
 20
36.7071067811866
 11
48.1928932188135
 21
36.7071067811866
  0
LINE
  5
1EC
100
AcDbEntity
  8
0
100
AcDbLine
  6
BYLAYER
 62
3
 10
17.0071067811865
 20
24.7071067811866
 11
31.8928932188135
 21
24.7071067811866
  0
LINE
  5
1ED
100
AcDbEntity
  8
0
100
AcDbLine
  6
BYLAYER
 62
3
 10
17.0071067811865
 20
30.7071067811865
 11
31.8928932188135
 21
30.7071067811865
  0
LINE
  5
1EE
100
AcDbEntity
  8
0
100
AcDbLine
  6
BYLAYER
 62
3
 10
17.0071067811865
 20
36.7071067811866
 11
31.8928932188135
 21
36.7071067811866
  0
TEXT
  5
1EF
100
AcDbEntity
  8
0
100
AcDbText
  6
BYLAYER
 10
21.3781148184937
 20
43.5
 40
3
  1
ｽsｸｹ
  7
Font_0
100
AcDbText
  0
TEXT
  5
1F0
100
AcDbEntity
  8
0
100
AcDbText
  6
BYLAYER
 10
39.5
 20
43.5
 40
3
  1
A
  7
Font_0
100
AcDbText
  0
LINE
  5
1F1
100
AcDbEntity
  8
0
100
AcDbLine
  6
BYLAYER
 62
3
 10
49.6071067811866
 20
24.7071067811866
 11
64.4928932188135
 21
24.7071067811866
  0
LINE
  5
1F2
100
AcDbEntity
  8
0
100
AcDbLine
  6
BYLAYER
 62
3
 10
49.6071067811866
 20
30.7071067811865
 11
64.4928932188135
 21
30.7071067811865
  0
LINE
  5
1F3
100
AcDbEntity
  8
0
100
AcDbLine
  6
BYLAYER
 62
3
 10
49.6071067811866
 20
36.7071067811866
 11
64.4928932188135
 21
36.7071067811866
  0
TEXT
  5
1F4
100
AcDbEntity
  8
0
100
AcDbText
  6
BYLAYER
 10
56
 20
43.5
 40
3
  1
B
  7
Font_0
100
AcDbText
  0
TEXT
  5
1F5
100
AcDbEntity
  8
0
100
AcDbText
  6
BYLAYER
 10
72.5
 20
43.5
 40
3
  1
C
  7
Font_0
100
AcDbText
  0
LINE
  5
1F6
100
AcDbEntity
  8
0
100
AcDbLine
  6
BYLAYER
 10
163
 20
48
 11
163
 21
0
  0
LINE
  5
1F7
100
AcDbEntity
  8
0
100
AcDbLine
  6
BYLAYER
 10
146.7
 20
48
 11
146.7
 21
0
  0
LINE
  5
1F8
100
AcDbEntity
  8
0
100
AcDbLine
  6
BYLAYER
 10
179.3
 20
48
 11
179.3
 21
0
  0
LINE
  5
1F9
100
AcDbEntity
  8
0
100
AcDbLine
  6
BYLAYER
 10
195.6
 20
48
 11
195.6
 21
0
  0
LINE
  5
1FA
100
AcDbEntity
  8
0
100
AcDbLine
  6
BYLAYER
 10
81.5
 20
48
 11
81.5
 21
0
  0
LINE
  5
1FB
100
AcDbEntity
  8
0
100
AcDbLine
  6
BYLAYER
 10
114.1
 20
48
 11
114.1
 21
0
  0
LINE
  5
1FC
100
AcDbEntity
  8
0
100
AcDbLine
  6
BYLAYER
 10
97.8
 20
48
 11
97.8
 21
0
  0
LINE
  5
1FD
100
AcDbEntity
  8
0
100
AcDbLine
  6
BYLAYER
 10
130.4
 20
48
 11
130.4
 21
0
  0
LINE
  5
1FE
100
AcDbEntity
  8
0
100
AcDbLine
  6
BYLAYER
 62
3
 10
131.107106781186
 20
0.707106781186553
 11
145.992893218813
 21
0.707106781186553
  0
LINE
  5
1FF
100
AcDbEntity
  8
0
100
AcDbLine
  6
BYLAYER
 62
3
 10
131.107106781186
 20
6.70710678118655
 11
145.992893218813
 21
6.70710678118655
  0
LINE
  5
200
100
AcDbEntity
  8
0
100
AcDbLine
  6
BYLAYER
 62
3
 10
131.107106781186
 20
12.7071067811866
 11
145.992893218813
 21
12.7071067811866
  0
LINE
  5
201
100
AcDbEntity
  8
0
100
AcDbLine
  6
BYLAYER
 62
3
 10
131.107106781186
 20
18.7071067811866
 11
145.992893218813
 21
18.7071067811866
  0
LINE
  5
202
100
AcDbEntity
  8
0
100
AcDbLine
  6
BYLAYER
 62
3
 10
98.5071067811866
 20
0.707106781186553
 11
113.392893218813
 21
0.707106781186553
  0
LINE
  5
203
100
AcDbEntity
  8
0
100
AcDbLine
  6
BYLAYER
 62
3
 10
98.5071067811866
 20
6.70710678118655
 11
113.392893218813
 21
6.70710678118655
  0
LINE
  5
204
100
AcDbEntity
  8
0
100
AcDbLine
  6
BYLAYER
 62
3
 10
98.5071067811866
 20
12.7071067811866
 11
113.392893218813
 21
12.7071067811866
  0
LINE
  5
205
100
AcDbEntity
  8
0
100
AcDbLine
  6
BYLAYER
 62
3
 10
98.5071067811866
 20
18.7071067811866
 11
113.392893218813
 21
18.7071067811866
  0
LINE
  5
206
100
AcDbEntity
  8
0
100
AcDbLine
  6
BYLAYER
 62
3
 10
82.2071067811865
 20
0.707106781186553
 11
97.0928932188135
 21
0.707106781186553
  0
LINE
  5
207
100
AcDbEntity
  8
0
100
AcDbLine
  6
BYLAYER
 62
3
 10
82.2071067811865
 20
6.70710678118655
 11
97.0928932188135
 21
6.70710678118655
  0
LINE
  5
208
100
AcDbEntity
  8
0
100
AcDbLine
  6
BYLAYER
 62
3
 10
82.2071067811865
 20
12.7071067811866
 11
97.0928932188135
 21
12.7071067811866
  0
LINE
  5
209
100
AcDbEntity
  8
0
100
AcDbLine
  6
BYLAYER
 62
3
 10
82.2071067811865
 20
18.7071067811866
 11
97.0928932188135
 21
18.7071067811866
  0
LINE
  5
20A
100
AcDbEntity
  8
0
100
AcDbLine
  6
BYLAYER
 62
3
 10
114.807106781187
 20
0.707106781186553
 11
129.692893218813
 21
0.707106781186553
  0
LINE
  5
20B
100
AcDbEntity
  8
0
100
AcDbLine
  6
BYLAYER
 62
3
 10
114.807106781187
 20
6.70710678118655
 11
129.692893218813
 21
6.70710678118655
  0
LINE
  5
20C
100
AcDbEntity
  8
0
100
AcDbLine
  6
BYLAYER
 62
3
 10
114.807106781187
 20
12.7071067811866
 11
129.692893218813
 21
12.7071067811866
  0
LINE
  5
20D
100
AcDbEntity
  8
0
100
AcDbLine
  6
BYLAYER
 62
3
 10
114.807106781187
 20
18.7071067811866
 11
129.692893218813
 21
18.7071067811866
  0
LINE
  5
20E
100
AcDbEntity
  8
0
100
AcDbLine
  6
BYLAYER
 62
3
 10
163.707106781186
 20
0.707106781186553
 11
178.592893218813
 21
0.707106781186553
  0
LINE
  5
20F
100
AcDbEntity
  8
0
100
AcDbLine
  6
BYLAYER
 62
3
 10
163.707106781186
 20
6.70710678118655
 11
178.592893218813
 21
6.70710678118655
  0
LINE
  5
210
100
AcDbEntity
  8
0
100
AcDbLine
  6
BYLAYER
 62
3
 10
163.707106781186
 20
12.7071067811866
 11
178.592893218813
 21
12.7071067811866
  0
LINE
  5
211
100
AcDbEntity
  8
0
100
AcDbLine
  6
BYLAYER
 62
3
 10
163.707106781186
 20
18.7071067811866
 11
178.592893218813
 21
18.7071067811866
  0
LINE
  5
212
100
AcDbEntity
  8
0
100
AcDbLine
  6
BYLAYER
 62
3
 10
147.407106781187
 20
0.707106781186553
 11
162.292893218814
 21
0.707106781186553
  0
LINE
  5
213
100
AcDbEntity
  8
0
100
AcDbLine
  6
BYLAYER
 62
3
 10
147.407106781187
 20
6.70710678118655
 11
162.292893218814
 21
6.70710678118655
  0
LINE
  5
214
100
AcDbEntity
  8
0
100
AcDbLine
  6
BYLAYER
 62
3
 10
147.407106781187
 20
12.7071067811866
 11
162.292893218814
 21
12.7071067811866
  0
LINE
  5
215
100
AcDbEntity
  8
0
100
AcDbLine
  6
BYLAYER
 62
3
 10
147.407106781187
 20
18.7071067811866
 11
162.292893218814
 21
18.7071067811866
  0
LINE
  5
216
100
AcDbEntity
  8
0
100
AcDbLine
  6
BYLAYER
 62
3
 10
180.007106781186
 20
0.707106781186553
 11
194.892893218813
 21
0.707106781186553
  0
LINE
  5
217
100
AcDbEntity
  8
0
100
AcDbLine
  6
BYLAYER
 62
3
 10
180.007106781186
 20
6.70710678118655
 11
194.892893218813
 21
6.70710678118655
  0
LINE
  5
218
100
AcDbEntity
  8
0
100
AcDbLine
  6
BYLAYER
 62
3
 10
180.007106781186
 20
12.7071067811866
 11
194.892893218813
 21
12.7071067811866
  0
LINE
  5
219
100
AcDbEntity
  8
0
100
AcDbLine
  6
BYLAYER
 62
3
 10
180.007106781186
 20
18.7071067811866
 11
194.892893218813
 21
18.7071067811866
  0
LINE
  5
21A
100
AcDbEntity
  8
0
100
AcDbLine
  6
BYLAYER
 62
3
 10
131.107106781186
 20
24.7071067811866
 11
145.992893218813
 21
24.7071067811866
  0
LINE
  5
21B
100
AcDbEntity
  8
0
100
AcDbLine
  6
BYLAYER
 62
3
 10
131.107106781186
 20
30.7071067811865
 11
145.992893218813
 21
30.7071067811865
  0
LINE
  5
21C
100
AcDbEntity
  8
0
100
AcDbLine
  6
BYLAYER
 62
3
 10
131.107106781186
 20
36.7071067811866
 11
145.992893218813
 21
36.7071067811866
  0
LINE
  5
21D
100
AcDbEntity
  8
0
100
AcDbLine
  6
BYLAYER
 62
3
 10
98.5071067811866
 20
24.7071067811866
 11
113.392893218813
 21
24.7071067811866
  0
LINE
  5
21E
100
AcDbEntity
  8
0
100
AcDbLine
  6
BYLAYER
 62
3
 10
98.5071067811866
 20
30.7071067811865
 11
113.392893218813
 21
30.7071067811865
  0
LINE
  5
21F
100
AcDbEntity
  8
0
100
AcDbLine
  6
BYLAYER
 62
3
 10
98.5071067811866
 20
36.7071067811866
 11
113.392893218813
 21
36.7071067811866
  0
LINE
  5
220
100
AcDbEntity
  8
0
100
AcDbLine
  6
BYLAYER
 62
3
 10
82.2071067811865
 20
24.7071067811866
 11
97.0928932188135
 21
24.7071067811866
  0
LINE
  5
221
100
AcDbEntity
  8
0
100
AcDbLine
  6
BYLAYER
 62
3
 10
82.2071067811865
 20
30.7071067811865
 11
97.0928932188135
 21
30.7071067811865
  0
LINE
  5
222
100
AcDbEntity
  8
0
100
AcDbLine
  6
BYLAYER
 62
3
 10
82.2071067811865
 20
36.7071067811866
 11
97.0928932188135
 21
36.7071067811866
  0
TEXT
  5
223
100
AcDbEntity
  8
0
100
AcDbText
  6
BYLAYER
 10
89
 20
43.5
 40
3
  1
D
  7
Font_0
100
AcDbText
  0
TEXT
  5
224
100
AcDbEntity
  8
0
100
AcDbText
  6
BYLAYER
 10
105.3
 20
43.5
 40
3
  1
E
  7
Font_0
100
AcDbText
  0
LINE
  5
225
100
AcDbEntity
  8
0
100
AcDbLine
  6
BYLAYER
 62
3
 10
114.807106781187
 20
24.7071067811866
 11
129.692893218813
 21
24.7071067811866
  0
LINE
  5
226
100
AcDbEntity
  8
0
100
AcDbLine
  6
BYLAYER
 62
3
 10
114.807106781187
 20
30.7071067811865
 11
129.692893218813
 21
30.7071067811865
  0
LINE
  5
227
100
AcDbEntity
  8
0
100
AcDbLine
  6
BYLAYER
 62
3
 10
114.807106781187
 20
36.7071067811866
 11
129.692893218813
 21
36.7071067811866
  0
TEXT
  5
228
100
AcDbEntity
  8
0
100
AcDbText
  6
BYLAYER
 10
121.8
 20
43.5
 40
3
  1
F
  7
Font_0
100
AcDbText
  0
TEXT
  5
229
100
AcDbEntity
  8
0
100
AcDbText
  6
BYLAYER
 10
137.8
 20
43.5
 40
3
  1
G
  7
Font_0
100
AcDbText
  0
LINE
  5
22A
100
AcDbEntity
  8
0
100
AcDbLine
  6
BYLAYER
 62
3
 10
163.707106781186
 20
24.7071067811866
 11
178.592893218813
 21
24.7071067811866
  0
LINE
  5
22B
100
AcDbEntity
  8
0
100
AcDbLine
  6
BYLAYER
 62
3
 10
163.707106781186
 20
30.7071067811865
 11
178.592893218813
 21
30.7071067811865
  0
LINE
  5
22C
100
AcDbEntity
  8
0
100
AcDbLine
  6
BYLAYER
 62
3
 10
163.707106781186
 20
36.7071067811866
 11
178.592893218813
 21
36.7071067811866
  0
LINE
  5
22D
100
AcDbEntity
  8
0
100
AcDbLine
  6
BYLAYER
 62
3
 10
147.407106781187
 20
24.7071067811866
 11
162.292893218814
 21
24.7071067811866
  0
LINE
  5
22E
100
AcDbEntity
  8
0
100
AcDbLine
  6
BYLAYER
 62
3
 10
147.407106781187
 20
30.7071067811865
 11
162.292893218814
 21
30.7071067811865
  0
LINE
  5
22F
100
AcDbEntity
  8
0
100
AcDbLine
  6
BYLAYER
 62
3
 10
147.407106781187
 20
36.7071067811866
 11
162.292893218814
 21
36.7071067811866
  0
TEXT
  5
230
100
AcDbEntity
  8
0
100
AcDbText
  6
BYLAYER
 10
153.5
 20
43.5
 40
3
  1
H
  7
Font_0
100
AcDbText
  0
TEXT
  5
231
100
AcDbEntity
  8
0
100
AcDbText
  6
BYLAYER
 10
171.5
 20
43.5
 40
3
  1
I
  7
Font_0
100
AcDbText
  0
LINE
  5
232
100
AcDbEntity
  8
0
100
AcDbLine
  6
BYLAYER
 62
3
 10
180.007106781186
 20
24.7071067811866
 11
194.892893218813
 21
24.7071067811866
  0
LINE
  5
233
100
AcDbEntity
  8
0
100
AcDbLine
  6
BYLAYER
 62
3
 10
180.007106781186
 20
30.7071067811865
 11
194.892893218813
 21
30.7071067811865
  0
LINE
  5
234
100
AcDbEntity
  8
0
100
AcDbLine
  6
BYLAYER
 62
3
 10
180.007106781186
 20
36.7071067811866
 11
194.892893218813
 21
36.7071067811866
  0
TEXT
  5
235
100
AcDbEntity
  8
0
100
AcDbText
  6
BYLAYER
 10
186.6
 20
43.5
 40
3
  1
J
  7
Font_0
100
AcDbText
  0
TEXT
  5
236
100
AcDbEntity
  8
0
100
AcDbText
  6
BYLAYER
 10
202.5
 20
43.5
 40
3
  1
K
  7
Font_0
100
AcDbText
  0
LINE
  5
237
100
AcDbEntity
  8
0
100
AcDbLine
  6
BYLAYER
 10
244.5
 20
48
 11
244.5
 21
0
  0
LINE
  5
238
100
AcDbEntity
  8
0
100
AcDbLine
  6
BYLAYER
 10
211.9
 20
48
 11
211.9
 21
0
  0
LINE
  5
239
100
AcDbEntity
  8
0
100
AcDbLine
  6
BYLAYER
 10
228.2
 20
48
 11
228.2
 21
0
  0
LINE
  5
23A
100
AcDbEntity
  8
0
100
AcDbLine
  6
BYLAYER
 62
3
 10
228.907106781187
 20
0.707106781186553
 11
243.792893218814
 21
0.707106781186553
  0
LINE
  5
23B
100
AcDbEntity
  8
0
100
AcDbLine
  6
BYLAYER
 62
3
 10
228.907106781187
 20
6.70710678118655
 11
243.792893218814
 21
6.70710678118655
  0
LINE
  5
23C
100
AcDbEntity
  8
0
100
AcDbLine
  6
BYLAYER
 62
3
 10
228.907106781187
 20
12.7071067811866
 11
243.792893218814
 21
12.7071067811866
  0
LINE
  5
23D
100
AcDbEntity
  8
0
100
AcDbLine
  6
BYLAYER
 62
3
 10
228.907106781187
 20
18.7071067811866
 11
243.792893218814
 21
18.7071067811866
  0
LINE
  5
23E
100
AcDbEntity
  8
0
100
AcDbLine
  6
BYLAYER
 62
3
 10
212.607106781186
 20
0.707106781186553
 11
227.492893218814
 21
0.707106781186553
  0
LINE
  5
23F
100
AcDbEntity
  8
0
100
AcDbLine
  6
BYLAYER
 62
3
 10
212.607106781186
 20
6.70710678118655
 11
227.492893218814
 21
6.70710678118655
  0
LINE
  5
240
100
AcDbEntity
  8
0
100
AcDbLine
  6
BYLAYER
 62
3
 10
212.607106781186
 20
12.7071067811866
 11
227.492893218814
 21
12.7071067811866
  0
LINE
  5
241
100
AcDbEntity
  8
0
100
AcDbLine
  6
BYLAYER
 62
3
 10
212.607106781186
 20
18.7071067811866
 11
227.492893218814
 21
18.7071067811866
  0
LINE
  5
242
100
AcDbEntity
  8
0
100
AcDbLine
  6
BYLAYER
 62
3
 10
228.907106781187
 20
24.7071067811866
 11
243.792893218814
 21
24.7071067811866
  0
LINE
  5
243
100
AcDbEntity
  8
0
100
AcDbLine
  6
BYLAYER
 62
3
 10
228.907106781187
 20
30.7071067811865
 11
243.792893218814
 21
30.7071067811865
  0
LINE
  5
244
100
AcDbEntity
  8
0
100
AcDbLine
  6
BYLAYER
 62
3
 10
228.907106781187
 20
36.7071067811866
 11
243.792893218814
 21
36.7071067811866
  0
LINE
  5
245
100
AcDbEntity
  8
0
100
AcDbLine
  6
BYLAYER
 62
3
 10
212.607106781186
 20
24.7071067811866
 11
227.492893218814
 21
24.7071067811866
  0
LINE
  5
246
100
AcDbEntity
  8
0
100
AcDbLine
  6
BYLAYER
 62
3
 10
212.607106781186
 20
30.7071067811865
 11
227.492893218814
 21
30.7071067811865
  0
LINE
  5
247
100
AcDbEntity
  8
0
100
AcDbLine
  6
BYLAYER
 62
3
 10
212.607106781186
 20
36.7071067811866
 11
227.492893218814
 21
36.7071067811866
  0
TEXT
  5
248
100
AcDbEntity
  8
0
100
AcDbText
  6
BYLAYER
 10
219
 20
43.5
 40
3
  1
L
  7
Font_0
100
AcDbText
  0
TEXT
  5
249
100
AcDbEntity
  8
0
100
AcDbText
  6
BYLAYER
 10
233.270544856686
 20
43.5
 40
3
  1
ｫﾈ､�
  7
Font_0
100
AcDbText
  0
ENDBLK
  5
24A
100
AcDbEntity
  8
0
 67
     1
100
AcDbBlockEnd
  0
BLOCK
  5
24B
100
AcDbEntity
  8
0
100
AcDbBlockBegin
  2
BASE
 70
    0
 10
0
 20
0
 30
0.0
  3
BASE
  1

  0
LINE
  5
24C
100
AcDbEntity
  8
0
100
AcDbLine
  6
BYLAYER
 10
0
 20
36
 11
278.4
 21
36
  0
LINE
  5
24D
100
AcDbEntity
  8
0
100
AcDbLine
  6
BYLAYER
 10
0
 20
12
 11
278.4
 21
12
  0
LINE
  5
24E
100
AcDbEntity
  8
0
100
AcDbLine
  6
BYLAYER
 10
0
 20
6
 11
278.4
 21
6
  0
LINE
  5
24F
100
AcDbEntity
  8
0
100
AcDbLine
  6
BYLAYER
 10
0
 20
0
 11
278.4
 21
0
  0
LINE
  5
250
100
AcDbEntity
  8
0
100
AcDbLine
  6
BYLAYER
 10
278.4
 20
186
 11
0
 21
186
  0
LINE
  5
251
100
AcDbEntity
  8
0
100
AcDbLine
  6
BYLAYER
 10
96.85
 20
30
 11
278.4
 21
30
  0
LINE
  5
252
100
AcDbEntity
  8
0
100
AcDbLine
  6
BYLAYER
 10
96.85
 20
24
 11
278.4
 21
24
  0
LINE
  5
253
100
AcDbEntity
  8
0
100
AcDbLine
  6
BYLAYER
 10
96.85
 20
18
 11
278.4
 21
18
  0
LINE
  5
254
100
AcDbEntity
  8
0
100
AcDbLine
  6
BYLAYER
 10
0
 20
0
 11
0
 21
186
  0
TEXT
  5
255
100
AcDbEntity
  8
0
100
AcDbText
  6
BYLAYER
 10
22.1680110084321
 20
15.7553550725962
 40
2.8
  1
CAM YORK INDUSTRIAL CO.,LTD.
  7
Font_0
100
AcDbText
  0
TEXT
  5
256
100
AcDbEntity
  8
0
100
AcDbText
  6
BYLAYER
 10
22.0468952754036
 20
26
 40
7
  1
ｫﾘｷﾔ､uｷ~ｪﾑ･ｳｭｭ､ｽ･q
  7
Font_0
100
AcDbText
  0
TEXT
  5
257
100
AcDbEntity
  8
0
100
AcDbText
  6
BYLAYER
 10
63.8643398403977
 20
7.09411371042404
 40
2.8
  1
(04)3322629
  7
Font_0
100
AcDbText
  0
LINE
  5
258
100
AcDbEntity
  8
0
100
AcDbLine
  6
BYLAYER
 10
10.1054905349494
 20
28.7603510666656
 11
15.2233703294355
 21
28.7603510666656
  0
CIRCLE
  5
259
100
AcDbEntity
  8
0
100
AcDbCircle
  6
BYLAYER
 10
10.1054905349494
 20
24.350263158651
 40
9.36463111331499
  0
CIRCLE
  5
25A
100
AcDbEntity
  8
0
100
AcDbCircle
  6
BYLAYER
 10
10.1054905349494
 20
24.350263158651
 40
7.62237416200057
  0
ARC
  5
25B
100
AcDbEntity
  8
0
100
AcDbCircle
  6
BYLAYER
 10
10.1054905349494
 20
24.350263158651
 40
4.41008790801462
100
AcDbArc
 50
90
 51
0
  0
LINE
  5
25C
100
AcDbEntity
  8
0
100
AcDbLine
  6
BYLAYER
 10
13
 20
12
 11
13
 21
0
  0
TEXT
  5
25D
100
AcDbEntity
  8
0
100
AcDbText
  6
BYLAYER
 10
2.6
 20
7.3
 40
3
  1
TEL
  7
Font_0
100
AcDbText
  0
TEXT
  5
25E
100
AcDbEntity
  8
0
100
AcDbText
  6
BYLAYER
 10
3.5
 20
1.5
 40
3
  1
ｳﾆｵ�
  7
Font_0
 72
1
 11
6.5
 21
3
100
AcDbText
 73
2
  0
ARC
  5
25F
100
AcDbEntity
  8
0
100
AcDbCircle
  6
BYLAYER
 10
10.5745216067836
 20
32.8983997393573
 40
0.704372460813671
100
AcDbArc
 50
83.8529806316668
 51
239.250071636948
  0
ARC
  5
260
100
AcDbEntity
  8
0
100
AcDbCircle
  6
BYLAYER
 10
6.23761506796892
 20
31.9876821284788
 40
0.704372460813671
100
AcDbArc
 50
113.852980631667
 51
269.250071636948
  0
ARC
  5
261
100
AcDbEntity
  8
0
100
AcDbCircle
  6
BYLAYER
 10
2.46807156512152
 20
20.4823876916705
 40
0.704372460813671
100
AcDbArc
 50
203.852980631667
 51
359.250071636948
  0
ARC
  5
262
100
AcDbEntity
  8
0
100
AcDbCircle
  6
BYLAYER
 10
9.63645946311512
 20
15.8021265779447
 40
0.704372460813671
100
AcDbArc
 50
263.852980631667
 51
59.2500716369476
  0
ARC
  5
263
100
AcDbEntity
  8
0
100
AcDbCircle
  6
BYLAYER
 10
5.4252294212235
 20
17.1818752606574
 40
0.704372460813671
100
AcDbArc
 50
233.852980631667
 51
29.2500716369476
  0
ARC
  5
264
100
AcDbEntity
  8
0
100
AcDbCircle
  6
BYLAYER
 10
1.55735395424306
 20
24.8192942304852
 40
0.704372460813671
100
AcDbArc
 50
173.852980631667
 51
329.250071636948
  0
ARC
  5
265
100
AcDbEntity
  8
0
100
AcDbCircle
  6
BYLAYER
 10
2.93710263695578
 20
29.0305242723768
 40
0.704372460813671
100
AcDbArc
 50
143.852980631667
 51
299.250071636948
  0
TEXT
  5
266
100
AcDbEntity
  8
0
100
AcDbText
  6
BYLAYER
 10
7.49210581170385
 20
21.8477388856442
 40
5
  1
Y
  7
Font_0
100
AcDbText
  0
TEXT
  5
267
100
AcDbEntity
  8
0
100
AcDbText
  6
BYLAYER
 10
42.3478047909238
 20
7.2
 40
2.8
  1
~8
  7
Font_0
100
AcDbText
  0
TEXT
  5
268
100
AcDbEntity
  8
0
100
AcDbText
  6
BYLAYER
 10
13.8764304985659
 20
7.2
 40
2.8
  1
(04)3322627
  7
Font_0
100
AcDbText
  0
TEXT
  5
269
100
AcDbEntity
  8
0
100
AcDbText
  6
BYLAYER
 10
51
 20
7.2
 40
3
  1
FAX
  7
Font_0
100
AcDbText
  0
LINE
  5
26A
100
AcDbEntity
  8
0
100
AcDbLine
  6
BYLAYER
 10
48
 20
12
 11
48
 21
6
  0
LINE
  5
26B
100
AcDbEntity
  8
0
100
AcDbLine
  6
BYLAYER
 10
62
 20
12
 11
62
 21
6
  0
ARC
  5
26C
100
AcDbEntity
  8
0
100
AcDbCircle
  6
BYLAYER
 10
14.7857516486752
 20
31.5186510566446
 40
0.704372460813671
100
AcDbArc
 50
53.8529806316668
 51
209.250071636948
  0
ARC
  5
26D
100
AcDbEntity
  8
0
100
AcDbCircle
  6
BYLAYER
 10
17.273878432943
 20
19.6700020449251
 40
0.704372460813671
100
AcDbArc
 50
323.852980631667
 51
119.250071636948
  0
ARC
  5
26E
100
AcDbEntity
  8
0
100
AcDbCircle
  6
BYLAYER
 10
13.9733660019298
 20
16.7128441888231
 40
0.704372460813671
100
AcDbArc
 50
293.852980631667
 51
89.2500716369476
  0
LINE
  5
26F
100
AcDbEntity
  8
0
100
AcDbLine
  6
BYLAYER
 10
14.515578442964
 20
24.350263158651
 11
15.4411524483498
 21
24.350263158651
  0
ARC
  5
270
100
AcDbEntity
  8
0
100
AcDbCircle
  6
BYLAYER
 10
18.6536271156557
 20
23.8812320868167
 40
0.704372460813671
100
AcDbArc
 50
353.852980631667
 51
149.250071636948
  0
ARC
  5
271
100
AcDbEntity
  8
0
100
AcDbCircle
  6
BYLAYER
 10
17.7429095047772
 20
28.2181386256314
 40
0.704372460813671
100
AcDbArc
 50
23.8529806316668
 51
179.250071636948
  0
TEXT
  5
272
100
AcDbEntity
  8
0
100
AcDbText
  6
BYLAYER
 10
100.4
 20
7.4
 40
3
  1
ｫ~ ｦW
  7
Font_0
100
AcDbText
  0
LINE
  5
273
100
AcDbEntity
  8
0
100
AcDbLine
  6
BYLAYER
 10
144
 20
36
 11
144
 21
0
  0
LINE
  5
274
100
AcDbEntity
  8
0
100
AcDbLine
  6
BYLAYER
 10
114
 20
36
 11
114
 21
0
  0
LINE
  5
275
100
AcDbEntity
  8
0
100
AcDbLine
  6
BYLAYER
 10
97.15
 20
36
 11
97.15
 21
0
  0
LINE
  5
276
100
AcDbEntity
  8
0
100
AcDbLine
  6
BYLAYER
 10
96.85
 20
36
 11
96.85
 21
0
  0
TEXT
  5
277
100
AcDbEntity
  8
0
100
AcDbText
  6
BYLAYER
 10
100.4
 20
1.6
 40
3
  1
ｹﾏ ｸｹ
  7
Font_0
100
AcDbText
  0
TEXT
  5
278
100
AcDbEntity
  8
0
100
AcDbText
  6
BYLAYER
 10
100.4
 20
31.6
 40
3
  1
･D ｺﾞ
  7
Font_0
100
AcDbText
  0
TEXT
  5
279
100
AcDbEntity
  8
0
100
AcDbText
  6
BYLAYER
 10
100.4
 20
19.6
 40
3
  1
ﾃｸ ｹﾏ
  7
Font_0
100
AcDbText
  0
TEXT
  5
27A
100
AcDbEntity
  8
0
100
AcDbText
  6
BYLAYER
 10
100.4
 20
13.8
 40
3
  1
ｾ� ｺﾘ
  7
Font_0
100
AcDbText
  0
TEXT
  5
27B
100
AcDbEntity
  8
0
100
AcDbText
  6
BYLAYER
 10
100.4
 20
25.4
 40
3
  1
ｮﾖ ｹ�
  7
Font_0
100
AcDbText
  0
LINE
  5
27C
100
AcDbEntity
  8
0
100
AcDbLine
  6
BYLAYER
 10
195.15
 20
36
 11
195.15
 21
0
  0
LINE
  5
27D
100
AcDbEntity
  8
0
100
AcDbLine
  6
BYLAYER
 10
194.85
 20
36
 11
194.85
 21
0
  0
LINE
  5
27E
100
AcDbEntity
  8
0
100
AcDbLine
  6
BYLAYER
 10
195.025
 20
36
 11
195.025
 21
0
  0
LINE
  5
27F
100
AcDbEntity
  8
0
100
AcDbLine
  6
BYLAYER
 10
163
 20
36
 11
163
 21
0
  0
TEXT
  5
280
100
AcDbEntity
  8
0
100
AcDbText
  6
BYLAYER
 10
146.967830348543
 20
7.5
 40
3
  1
ｪ揵ｱｳBｲz
  7
Font_0
100
AcDbText
  0
TEXT
  5
281
100
AcDbEntity
  8
0
100
AcDbText
  6
BYLAYER
 10
146.967830348543
 20
1.5
 40
3
  1
ｻsｹﾏ､魘ﾁ
  7
Font_0
100
AcDbText
  0
TEXT
  5
282
100
AcDbEntity
  8
0
100
AcDbText
  6
BYLAYER
 10
148.5
 20
31.5
 40
3
  1
ｧ� ｽ�
  7
Font_0
100
AcDbText
  0
TEXT
  5
283
100
AcDbEntity
  8
0
100
AcDbText
  6
BYLAYER
 10
148.5
 20
19.5
 40
3
  1
ｼﾆ ｶq
  7
Font_0
100
AcDbText
  0
TEXT
  5
284
100
AcDbEntity
  8
0
100
AcDbText
  6
BYLAYER
 10
148.5
 20
13.5
 40
3
  1
ｳ� ｦ�
  7
Font_0
100
AcDbText
  0
TEXT
  5
285
100
AcDbEntity
  8
0
100
AcDbText
  6
BYLAYER
 10
148.5
 20
25.5
 40
3
  1
､� ｨﾒ
  7
Font_0
100
AcDbText
  0
TEXT
  5
286
100
AcDbEntity
  8
0
100
AcDbText
  6
BYLAYER
 10
200.830454348633
 20
31.5
 40
3
  1
､魘ﾁ
  7
Font_0
100
AcDbText
  0
LINE
  5
287
100
AcDbEntity
  8
0
100
AcDbLine
  6
BYLAYER
 10
278.4
 20
186
 11
278.4
 21
0
  0
LINE
  5
288
100
AcDbEntity
  8
0
100
AcDbLine
  6
BYLAYER
 10
269.7178125
 20
135.285
 11
269.7178125
 21
151.27125
  0
LINE
  5
289
100
AcDbEntity
  8
0
100
AcDbLine
  6
BYLAYER
 10
261.035625
 20
135.285
 11
261.035625
 21
151.27125
  0
LINE
  5
28A
100
AcDbEntity
  8
0
100
AcDbLine
  6
BYLAYER
 10
252.3534375
 20
135.285
 11
252.3534375
 21
151.27125
  0
LINE
  5
28B
100
AcDbEntity
  8
0
100
AcDbLine
  6
BYLAYER
 10
243.67125
 20
135.285
 11
243.67125
 21
180.4875
  0
LINE
  5
28C
100
AcDbEntity
  8
0
100
AcDbLine
  6
BYLAYER
 10
221.07
 20
135.285
 11
221.07
 21
180.4875
  0
LINE
  5
28D
100
AcDbEntity
  8
0
100
AcDbLine
  6
BYLAYER
 10
216.66
 20
135.285
 11
216.66
 21
186
  0
LINE
  5
28E
100
AcDbEntity
  8
0
100
AcDbLine
  6
BYLAYER
 10
213
 20
36
 11
213
 21
0
  0
LINE
  5
28F
100
AcDbEntity
  8
0
100
AcDbLine
  6
BYLAYER
 10
232
 20
36
 11
232
 21
0
  0
TEXT
  5
290
100
AcDbEntity
  8
0
100
AcDbText
  6
BYLAYER
 10
235
 20
31.5
 40
3
  1
ｧ�   ｧ�   ､ｺ   ｮe
  7
Font_0
100
AcDbText
  0
TEXT
  5
291
100
AcDbEntity
  8
0
100
AcDbText
  6
BYLAYER
 10
218.659856969007
 20
31.5
 40
3
  1
ｭtｳd､H
  7
Font_0
100
AcDbText
  0
LINE
  5
292
100
AcDbEntity
  8
0
100
AcDbLine
  6
BYLAYER
 10
278.4
 20
139.695
 11
221.07
 21
139.695
  0
LINE
  5
293
100
AcDbEntity
  8
0
100
AcDbLine
  6
BYLAYER
 10
278.4
 20
135.285
 11
216.66
 21
135.285
  0
TEXT
  5
294
100
AcDbEntity
  8
0
100
AcDbText
  6
BYLAYER
 10
246.15416478566
 20
128.207003496756
 40
2
  1
projection ｲﾄ､Tｨ､ｧ�ｼv
  7
Font_0
100
AcDbText
  0
LINE
  5
295
100
AcDbEntity
  8
0
100
AcDbLine
  6
BYLAYER
 10
278.4
 20
113.78625
 11
243.67125
 21
113.78625
  0
TEXT
  5
296
100
AcDbEntity
  8
0
100
AcDbText
  6
BYLAYER
 10
271.4339125
 20
144.733125
 40
1.5
  1
100･H､W
  7
Font_0
 72
1
 11
274.0589125
 21
145.483125
100
AcDbText
 73
2
  0
TEXT
  5
297
100
AcDbEntity
  8
0
100
AcDbText
  6
BYLAYER
 10
272.1839125
 20
136.74
 40
1.5
  1
±10'
  7
Font_0
 72
1
 11
274.0589125
 21
137.49
100
AcDbText
 73
2
  0
MTEXT
  5
298
100
AcDbEntity
  8
0
100
AcDbMText
 10
232.37065
 20
145.483125
 40
2
 41
  0.0
  1
､ｽｺﾙ､ﾘ､o (ｪﾗ)\Pｧｨｦｨｨ､､ｧｵuﾃ荀@､�
 71
5
  7
Font_0
  0
TEXT
  5
299
100
AcDbEntity
  8
0
100
AcDbText
  6
BYLAYER
 10
217.365
 20
147.778125
 40
3
  1
ｪｽｨ､ｫﾗ
  7
Font_1
 50
270
 11
218.865
 21
147.778125
100
AcDbText
 73
2
  0
TEXT
  5
29A
100
AcDbEntity
  8
0
100
AcDbText
  6
BYLAYER
 10
227.87065
 20
135.99
 40
3
  1
ｨ､ｫﾗｮt
  7
Font_0
 72
1
 11
232.37065
 21
137.49
100
AcDbText
 73
2
  0
LINE
  5
29B
100
AcDbEntity
  8
0
100
AcDbLine
  6
BYLAYER
 10
254.802068029839
 20
115.173423624616
 11
254.802068029839
 21
126.198423624616
  0
LINE
  5
29C
100
AcDbEntity
  8
0
100
AcDbLine
  6
BYLAYER
 10
243.67125
 20
113.78625
 11
243.67125
 21
135.285
  0
CIRCLE
  5
29D
100
AcDbEntity
  8
0
100
AcDbCircle
  6
BYLAYER
 10
254.802068029839
 20
120.685923624616
 40
4.41
  0
LINE
  5
29E
100
AcDbEntity
  8
0
100
AcDbLine
  6
BYLAYER
 10
249.289568029839
 20
120.685923624616
 11
260.314568029839
 21
120.685923624616
  0
CIRCLE
  5
29F
100
AcDbEntity
  8
0
100
AcDbCircle
  6
BYLAYER
 10
254.802068029839
 20
120.685923624616
 40
2.205
  0
LINE
  5
2A0
100
AcDbEntity
  8
0
100
AcDbLine
  6
BYLAYER
 10
263.194180551461
 20
120.685923624616
 11
274.770430551461
 21
120.685923624616
  0
LWPOLYLINE
  5
2A1
100
AcDbEntity
  8
0
100
AcDbPolyline
  6
BYLAYER
370
0
 90
     4
 70
     1
 10
264.296680551461
  20
118.480923624616
 10
273.667930551461
  20
116.275923624616
 10
273.667930551461
  20
125.095923624616
 10
264.296680551461
  20
122.890923624616
  0
TEXT
  5
2A2
100
AcDbEntity
  8
0
100
AcDbText
  6
BYLAYER
 10
245.828721587618
 20
131.605971951227
 40
2
  1
Third angle
  7
Font_0
100
AcDbText
  0
MTEXT
  5
2A3
100
AcDbEntity
  8
0
100
AcDbMText
 10
256.6945375
 20
145.483125
 40
1.5
 41
  0.0
  1
10･H､W\P50･H､U
 71
5
  7
Font_0
  0
TEXT
  5
2A4
100
AcDbEntity
  8
0
100
AcDbText
  6
BYLAYER
 10
246.13735
 20
136.74
 40
1.5
  1
±1°
  7
Font_0
 72
1
 11
248.01235
 21
137.49
100
AcDbText
 73
2
  0
TEXT
  5
2A5
100
AcDbEntity
  8
0
100
AcDbText
  6
BYLAYER
 10
254.8195375
 20
136.74
 40
1.5
  1
±30'
  7
Font_0
 72
1
 11
256.6945375
 21
137.49
100
AcDbText
 73
2
  0
TEXT
  5
2A6
100
AcDbEntity
  8
0
100
AcDbText
  6
BYLAYER
 10
245.76235
 20
144.733125
 40
1.5
  1
10･H､U
  7
Font_0
 72
1
 11
248.01235
 21
145.483125
100
AcDbText
 73
2
  0
TEXT
  5
2A7
100
AcDbEntity
  8
0
100
AcDbText
  6
BYLAYER
 10
263.501725
 20
136.74
 40
1.5
  1
±20'
  7
Font_0
 72
1
 11
265.376725
 21
137.49
100
AcDbText
 73
2
  0
MTEXT
  5
2A8
100
AcDbEntity
  8
0
100
AcDbMText
 10
265.376725
 20
145.483125
 40
1.5
 41
  0.0
  1
50･H､W\P100･H､U
 71
5
  7
Font_0
  0
LINE
  5
2A9
100
AcDbEntity
  8
0
100
AcDbLine
  6
BYLAYER
 10
221.07
 20
155.68125
 11
278.4
 21
155.68125
  0
LINE
  5
2AA
100
AcDbEntity
  8
0
100
AcDbLine
  6
BYLAYER
 10
221.07
 20
160.09125
 11
278.4
 21
160.09125
  0
LINE
  5
2AB
100
AcDbEntity
  8
0
100
AcDbLine
  6
BYLAYER
 10
221.07
 20
164.50125
 11
278.4
 21
164.50125
  0
LINE
  5
2AC
100
AcDbEntity
  8
0
100
AcDbLine
  6
BYLAYER
 10
221.07
 20
168.91125
 11
278.4
 21
168.91125
  0
LINE
  5
2AD
100
AcDbEntity
  8
0
100
AcDbLine
  6
BYLAYER
 10
221.07
 20
173.32125
 11
278.4
 21
173.32125
  0
LINE
  5
2AE
100
AcDbEntity
  8
0
100
AcDbLine
  6
BYLAYER
 10
216.66
 20
151.27125
 11
278.4
 21
151.27125
  0
LINE
  5
2AF
100
AcDbEntity
  8
0
100
AcDbLine
  6
BYLAYER
 10
216.66
 20
180.4875
 11
278.4
 21
180.4875
  0
TEXT
  5
2B0
100
AcDbEntity
  8
0
100
AcDbText
  6
BYLAYER
 10
269.1119
 20
175.154375
 40
3.5
  1
ｲﾊｯﾅ
  7
Font_0
 72
1
 11
272.6119
 21
176.904375
100
AcDbText
 73
2
  0
LINE
  5
2B1
100
AcDbEntity
  8
0
100
AcDbLine
  6
BYLAYER
 10
243.67125
 20
173.32125
 11
232.06971689676
 21
180.4875
  0
TEXT
  5
2B2
100
AcDbEntity
  8
0
100
AcDbText
  6
BYLAYER
 10
230.03
 20
181.49375
 40
3.5
  1
ｦｨ ｫ~ ､ｧ ｴｶ ｳq ､ｽ ｮt
  7
Font_0
 72
1
 11
247.53
 21
183.24375
100
AcDbText
 73
2
  0
TEXT
  5
2B3
100
AcDbEntity
  8
0
100
AcDbText
  6
BYLAYER
 10
228.24565
 20
170.36625
 40
1.5
  1
1･H､W~4･H､U
  7
Font_0
 72
1
 11
232.37065
 21
171.11625
100
AcDbText
 73
2
  0
TEXT
  5
2B4
100
AcDbEntity
  8
0
100
AcDbText
  6
BYLAYER
 10
227.49565
 20
161.54625
 40
1.5
  1
16･H､W~63･H､U
  7
Font_0
 72
1
 11
232.37065
 21
162.29625
100
AcDbText
 73
2
  0
TEXT
  5
2B5
100
AcDbEntity
  8
0
100
AcDbText
  6
BYLAYER
 10
227.12065
 20
157.13625
 40
1.5
  1
63･H､W~250･H､U
  7
Font_0
 72
1
 11
232.37065
 21
157.88625
100
AcDbText
 73
2
  0
TEXT
  5
2B6
100
AcDbEntity
  8
0
100
AcDbText
  6
BYLAYER
 10
226.37065
 20
152.72625
 40
1.5
  1
250･H､W~1000･H､U
  7
Font_0
 72
1
 11
232.37065
 21
153.47625
100
AcDbText
 73
2
  0
MTEXT
  5
2B7
100
AcDbEntity
  8
0
100
AcDbMText
 10
218.865
 20
168.879375
 40
3
 41
  0.0
  1
ｪﾗ
 71
4
  7
Font_1
 11
-1.83690953073357E-16
 21
-1
  0
TEXT
  5
2B8
100
AcDbEntity
  8
0
100
AcDbText
  6
BYLAYER
 10
227.87065
 20
165.95625
 40
1.5
  1
4･H､W~16･H､U
  7
Font_0
 72
1
 11
232.37065
 21
166.70625
100
AcDbText
 73
2
  0
TEXT
  5
2B9
100
AcDbEntity
  8
0
100
AcDbText
  6
BYLAYER
 10
221.354797302298
 20
174.015263609177
 40
1.7
  1
､ｽｺﾙ､ﾘ､oｹｺ､ﾀm/m
  7
Font_0
100
AcDbText
  0
TEXT
  5
2BA
100
AcDbEntity
  8
0
100
AcDbText
  6
BYLAYER
 10
237.865638127741
 20
177.454836298923
 40
1.7
  1
ｵ･ｯﾅ
  7
Font_0
100
AcDbText
  0
LINE
  5
2BB
100
AcDbEntity
  8
0
100
AcDbLine
  6
BYLAYER
 10
266.82375
 20
151.27125
 11
266.82375
 21
180.4875
  0
LINE
  5
2BC
100
AcDbEntity
  8
0
100
AcDbLine
  6
BYLAYER
 10
255.2475
 20
151.27125
 11
255.2475
 21
180.4875
  0
TEXT
  5
2BD
100
AcDbEntity
  8
0
100
AcDbText
  6
BYLAYER
 10
247.2094
 20
170.36625
 40
1.5
  1
±0.05
  7
Font_0
 72
1
 11
249.4594
 21
171.11625
100
AcDbText
 73
2
  0
TEXT
  5
2BE
100
AcDbEntity
  8
0
100
AcDbText
  6
BYLAYER
 10
258.78565
 20
170.36625
 40
1.5
  1
±0.10
  7
Font_0
 72
1
 11
261.03565
 21
171.11625
100
AcDbText
 73
2
  0
TEXT
  5
2BF
100
AcDbEntity
  8
0
100
AcDbText
  6
BYLAYER
 10
270.3619
 20
170.36625
 40
1.5
  1
±0.30
  7
Font_0
 72
1
 11
272.6119
 21
171.11625
100
AcDbText
 73
2
  0
TEXT
  5
2C0
100
AcDbEntity
  8
0
100
AcDbText
  6
BYLAYER
 10
258.78565
 20
165.95625
 40
1.5
  1
±0.20
  7
Font_0
 72
1
 11
261.03565
 21
166.70625
100
AcDbText
 73
2
  0
TEXT
  5
2C1
100
AcDbEntity
  8
0
100
AcDbText
  6
BYLAYER
 10
258.78565
 20
161.54625
 40
1.5
  1
±0.30
  7
Font_0
 72
1
 11
261.03565
 21
162.29625
100
AcDbText
 73
2
  0
TEXT
  5
2C2
100
AcDbEntity
  8
0
100
AcDbText
  6
BYLAYER
 10
258.78565
 20
157.13625
 40
1.5
  1
±0.50
  7
Font_0
 72
1
 11
261.03565
 21
157.88625
100
AcDbText
 73
2
  0
TEXT
  5
2C3
100
AcDbEntity
  8
0
100
AcDbText
  6
BYLAYER
 10
258.78565
 20
152.72625
 40
1.5
  1
±0.80
  7
Font_0
 72
1
 11
261.03565
 21
153.47625
100
AcDbText
 73
2
  0
TEXT
  5
2C4
100
AcDbEntity
  8
0
100
AcDbText
  6
BYLAYER
 10
247.2094
 20
157.13625
 40
1.5
  1
±0.20
  7
Font_0
 72
1
 11
249.4594
 21
157.88625
100
AcDbText
 73
2
  0
TEXT
  5
2C5
100
AcDbEntity
  8
0
100
AcDbText
  6
BYLAYER
 10
247.2094
 20
152.72625
 40
1.5
  1
±0.30
  7
Font_0
 72
1
 11
249.4594
 21
153.47625
100
AcDbText
 73
2
  0
TEXT
  5
2C6
100
AcDbEntity
  8
0
100
AcDbText
  6
BYLAYER
 10
247.2094
 20
165.95625
 40
1.5
  1
±0.07
  7
Font_0
 72
1
 11
249.4594
 21
166.70625
100
AcDbText
 73
2
  0
TEXT
  5
2C7
100
AcDbEntity
  8
0
100
AcDbText
  6
BYLAYER
 10
247.2094
 20
161.54625
 40
1.5
  1
±0.10
  7
Font_0
 72
1
 11
249.4594
 21
162.29625
100
AcDbText
 73
2
  0
TEXT
  5
2C8
100
AcDbEntity
  8
0
100
AcDbText
  6
BYLAYER
 10
270.3619
 20
152.72625
 40
1.5
  1
±2.00
  7
Font_0
 72
1
 11
272.6119
 21
153.47625
100
AcDbText
 73
2
  0
TEXT
  5
2C9
100
AcDbEntity
  8
0
100
AcDbText
  6
BYLAYER
 10
270.3619
 20
157.13625
 40
1.5
  1
±1.20
  7
Font_0
 72
1
 11
272.6119
 21
157.88625
100
AcDbText
 73
2
  0
TEXT
  5
2CA
100
AcDbEntity
  8
0
100
AcDbText
  6
BYLAYER
 10
270.3619
 20
161.54625
 40
1.5
  1
±0.70
  7
Font_0
 72
1
 11
272.6119
 21
162.29625
100
AcDbText
 73
2
  0
TEXT
  5
2CB
100
AcDbEntity
  8
0
100
AcDbText
  6
BYLAYER
 10
270.3619
 20
165.95625
 40
1.5
  1
±0.50
  7
Font_0
 72
1
 11
272.6119
 21
166.70625
100
AcDbText
 73
2
  0
TEXT
  5
2CC
100
AcDbEntity
  8
0
100
AcDbText
  6
BYLAYER
 10
257.5356
 20
175.154375
 40
3.5
  1
､､ｯﾅ
  7
Font_0
 72
1
 11
261.0356
 21
176.904375
100
AcDbText
 73
2
  0
TEXT
  5
2CD
100
AcDbEntity
  8
0
100
AcDbText
  6
BYLAYER
 10
245.9594
 20
175.154375
 40
3.5
  1
ｲﾓｯﾅ
  7
Font_0
 72
1
 11
249.4594
 21
176.904375
100
AcDbText
 73
2
  0
ENDBLK
  5
2CE
100
AcDbEntity
  8
0
 67
     1
100
AcDbBlockEnd
  0
BLOCK
  5
2CF
100
AcDbEntity
  8
0
100
AcDbBlockBegin
  2
LIST
 70
    0
 10
0
 20
0
 30
0.0
  3
LIST
  1

  0
LINE
  5
2D0
100
AcDbEntity
  8
TEXT
100
AcDbLine
  6
BYLAYER
 10
-2.84E-14
 20
48
 11
83.2499999999999
 21
48
  0
LINE
  5
2D1
100
AcDbEntity
  8
TEXT
100
AcDbLine
  6
BYLAYER
 10
-2.84E-14
 20
42
 11
83.2499999999999
 21
42
  0
LINE
  5
2D2
100
AcDbEntity
  8
TEXT
100
AcDbLine
  6
BYLAYER
 10
-2.84E-14
 20
36
 11
83.2499999999999
 21
36
  0
LINE
  5
2D3
100
AcDbEntity
  8
TEXT
100
AcDbLine
  6
BYLAYER
 10
-2.84E-14
 20
30
 11
83.2499999999999
 21
30
  0
LINE
  5
2D4
100
AcDbEntity
  8
TEXT
100
AcDbLine
  6
BYLAYER
 10
-2.84E-14
 20
24
 11
83.2499999999999
 21
24
  0
LINE
  5
2D5
100
AcDbEntity
  8
TEXT
100
AcDbLine
  6
BYLAYER
 10
-2.84E-14
 20
18
 11
83.2499999999999
 21
18
  0
LINE
  5
2D6
100
AcDbEntity
  8
TEXT
100
AcDbLine
  6
BYLAYER
 10
-2.84E-14
 20
12
 11
83.2499999999999
 21
12
  0
LINE
  5
2D7
100
AcDbEntity
  8
TEXT
100
AcDbLine
  6
BYLAYER
 10
-2.84E-14
 20
5.99999999999997
 11
83.2499999999999
 21
6
  0
TEXT
  5
2D8
100
AcDbEntity
  8
TEXT
100
AcDbText
  6
BYLAYER
 10
8.82499999999999
 20
18.7071067811865
 40
3.5
  1
C
  7
Font_0
 72
1
 11
9.69999999999999
 21
18.7071067811865
100
AcDbText
  0
LINE
  5
2D9
100
AcDbEntity
  8
TEXT
100
AcDbLine
  6
BYLAYER
 10
0
 20
48
 11
0
 21
0
  0
TEXT
  5
2DA
100
AcDbEntity
  8
TEXT
100
AcDbText
  6
BYLAYER
 10
8.82499999999999
 20
6.70710678118655
 40
3.5
  1
A
  7
Font_0
 72
1
 11
9.69999999999999
 21
6.70710678118655
100
AcDbText
  0
TEXT
  5
2DB
100
AcDbEntity
  8
TEXT
100
AcDbText
  6
BYLAYER
 10
6.49999999999997
 20
0.707106781186553
 40
3.5
  1
ｶｵｦｸ
  7
Font_0
 72
1
 11
9.99999999999997
 21
0.707106781186553
100
AcDbText
  0
TEXT
  5
2DC
100
AcDbEntity
  8
TEXT
100
AcDbText
  6
BYLAYER
 10
8.82499999999999
 20
12.7071067811866
 40
3.5
  1
B
  7
Font_0
 72
1
 11
9.69999999999999
 21
12.7071067811866
100
AcDbText
  0
TEXT
  5
2DD
100
AcDbEntity
  8
TEXT
100
AcDbText
  6
BYLAYER
 10
8.82499999999999
 20
42.7071067811866
 40
3.5
  1
G
  7
Font_0
 72
1
 11
9.69999999999999
 21
42.7071067811866
100
AcDbText
  0
TEXT
  5
2DE
100
AcDbEntity
  8
TEXT
100
AcDbText
  6
BYLAYER
 10
8.82499999999999
 20
30.7071067811865
 40
3.5
  1
E
  7
Font_0
 72
1
 11
9.69999999999999
 21
30.7071067811865
100
AcDbText
  0
TEXT
  5
2DF
100
AcDbEntity
  8
TEXT
100
AcDbText
  6
BYLAYER
 10
8.82499999999999
 20
24.7071067811866
 40
3.5
  1
D
  7
Font_0
 72
1
 11
9.69999999999999
 21
24.7071067811866
100
AcDbText
  0
TEXT
  5
2E0
100
AcDbEntity
  8
TEXT
100
AcDbText
  6
BYLAYER
 10
8.82499999999999
 20
36.7071067811866
 40
3.5
  1
F
  7
Font_0
 72
1
 11
9.69999999999999
 21
36.7071067811866
100
AcDbText
  0
TEXT
  5
2E1
100
AcDbEntity
  8
TEXT
100
AcDbText
  6
BYLAYER
 10
77.3935238436447
 20
18.7071067811866
 40
3.5
  1
1
  7
Font_0
 72
1
 11
78.2685238436447
 21
18.7071067811866
100
AcDbText
  0
TEXT
  5
2E2
100
AcDbEntity
  8
TEXT
100
AcDbText
  6
BYLAYER
 10
20.7
 20
18.7071067811866
 40
3.5
  1
A
  7
Font_0
100
AcDbText
  0
LINE
  5
2E3
100
AcDbEntity
  8
TEXT
100
AcDbLine
  6
BYLAYER
 10
73.8870476872896
 20
48
 11
73.8870476872896
 21
-1.42E-14
  0
LINE
  5
2E4
100
AcDbEntity
  8
TEXT
100
AcDbLine
  6
BYLAYER
 10
20
 20
48
 11
20
 21
0
  0
TEXT
  5
2E5
100
AcDbEntity
  8
TEXT
100
AcDbText
  6
BYLAYER
 10
75.0685238436447
 20
0.707106781186553
 40
3.5
  1
ｼﾆｶq
  7
Font_0
 72
1
 11
78.5685238436447
 21
0.707106781186553
100
AcDbText
  0
TEXT
  5
2E6
100
AcDbEntity
  8
TEXT
100
AcDbText
  6
BYLAYER
 10
37.4837220734968
 20
0.707106781186553
 40
3.5
  1
ｹﾏ       ｸｹ
  7
Font_0
 72
1
 11
47.1087220734968
 21
0.707106781186553
100
AcDbText
  0
TEXT
  5
2E7
100
AcDbEntity
  8
TEXT
100
AcDbText
  6
BYLAYER
 10
20.7
 20
6.70710678118656
 40
3.5
  1
A
  7
Font_0
100
AcDbText
  0
TEXT
  5
2E8
100
AcDbEntity
  8
TEXT
100
AcDbText
  6
BYLAYER
 10
20.7
 20
12.7071067811866
 40
3.5
  1
A
  7
Font_0
100
AcDbText
  0
TEXT
  5
2E9
100
AcDbEntity
  8
TEXT
100
AcDbText
  6
BYLAYER
 10
77.3935238436447
 20
6.70710678118656
 40
3.5
  1
1
  7
Font_0
 72
1
 11
78.2685238436447
 21
6.70710678118656
100
AcDbText
  0
TEXT
  5
2EA
100
AcDbEntity
  8
TEXT
100
AcDbText
  6
BYLAYER
 10
77.3935238436447
 20
12.7071067811866
 40
3.5
  1
1
  7
Font_0
 72
1
 11
78.2685238436447
 21
12.7071067811866
100
AcDbText
  0
TEXT
  5
2EB
100
AcDbEntity
  8
TEXT
100
AcDbText
  6
BYLAYER
 10
20.7
 20
42.7071067811866
 40
3.5
  1
A
  7
Font_0
100
AcDbText
  0
TEXT
  5
2EC
100
AcDbEntity
  8
TEXT
100
AcDbText
  6
BYLAYER
 10
20.7
 20
30.7071067811865
 40
3.5
  1
A
  7
Font_0
100
AcDbText
  0
TEXT
  5
2ED
100
AcDbEntity
  8
TEXT
100
AcDbText
  6
BYLAYER
 10
20.7
 20
24.7071067811866
 40
3.5
  1
A
  7
Font_0
100
AcDbText
  0
TEXT
  5
2EE
100
AcDbEntity
  8
TEXT
100
AcDbText
  6
BYLAYER
 10
20.7
 20
36.7071067811866
 40
3.5
  1
A
  7
Font_0
100
AcDbText
  0
TEXT
  5
2EF
100
AcDbEntity
  8
TEXT
100
AcDbText
  6
BYLAYER
 10
77.3935238436447
 20
42.7071067811866
 40
3.5
  1
1
  7
Font_0
 72
1
 11
78.2685238436447
 21
42.7071067811866
100
AcDbText
  0
TEXT
  5
2F0
100
AcDbEntity
  8
TEXT
100
AcDbText
  6
BYLAYER
 10
77.3935238436447
 20
30.7071067811865
 40
3.5
  1
1
  7
Font_0
 72
1
 11
78.2685238436447
 21
30.7071067811865
100
AcDbText
  0
TEXT
  5
2F1
100
AcDbEntity
  8
TEXT
100
AcDbText
  6
BYLAYER
 10
77.3935238436447
 20
24.7071067811866
 40
3.5
  1
1
  7
Font_0
 72
1
 11
78.2685238436447
 21
24.7071067811866
100
AcDbText
  0
TEXT
  5
2F2
100
AcDbEntity
  8
TEXT
100
AcDbText
  6
BYLAYER
 10
77.3935238436447
 20
36.7071067811866
 40
3.5
  1
1
  7
Font_0
 72
1
 11
78.2685238436447
 21
36.7071067811866
100
AcDbText
  0
ENDBLK
  5
2F3
100
AcDbEntity
  8
0
 67
     1
100
AcDbBlockEnd
  0
BLOCK
  5
2F4
100
AcDbEntity
  8
0
100
AcDbBlockBegin
  2
A4ｹﾏｮﾘ
 70
    0
 10
0
 20
0
 30
0.0
  3
A4ｹﾏｮﾘ
  1

  0
POINT
  5
2F5
100
AcDbEntity
  8
7475A
100
AcDbPoint
 10
289
 20
0
  0
LINE
  5
2F6
100
AcDbEntity
  8
0
100
AcDbLine
  6
BYLAYER
 10
0
 20
12
 11
278.4
 21
12
  0
LINE
  5
2F7
100
AcDbEntity
  8
0
100
AcDbLine
  6
BYLAYER
 10
0
 20
6
 11
278.4
 21
6
  0
LINE
  5
2F8
100
AcDbEntity
  8
0
100
AcDbLine
  6
BYLAYER
 10
96.85
 20
30
 11
278.4
 21
30
  0
LINE
  5
2F9
100
AcDbEntity
  8
0
100
AcDbLine
  6
BYLAYER
 10
96.85
 20
24
 11
278.4
 21
24
  0
LINE
  5
2FA
100
AcDbEntity
  8
0
100
AcDbLine
  6
BYLAYER
 10
96.85
 20
18
 11
278.4
 21
18
  0
TEXT
  5
2FB
100
AcDbEntity
  8
0
100
AcDbText
  6
BYLAYER
 10
22.1680110084321
 20
15.7553550725962
 40
2.8
  1
CAM YORK INDUSTRIAL CO.,LTD.
  7
Font_0
100
AcDbText
  0
TEXT
  5
2FC
100
AcDbEntity
  8
0
100
AcDbText
  6
BYLAYER
 10
22.0468952754036
 20
26
 40
7
  1
ｫﾘｷﾔ､uｷ~ｪﾑ･ｳｭｭ､ｽ･q
  7
Font_0
100
AcDbText
  0
TEXT
  5
2FD
100
AcDbEntity
  8
0
100
AcDbText
  6
BYLAYER
 10
63.8643398403977
 20
7.09411371042404
 40
2.8
  1
(04)3322629
  7
Font_0
100
AcDbText
  0
LINE
  5
2FE
100
AcDbEntity
  8
0
100
AcDbLine
  6
BYLAYER
 10
10.1054905349494
 20
28.7603510666656
 11
15.2233703294355
 21
28.7603510666656
  0
CIRCLE
  5
2FF
100
AcDbEntity
  8
0
100
AcDbCircle
  6
BYLAYER
 10
10.1054905349494
 20
24.350263158651
 40
9.36463111331499
  0
CIRCLE
  5
300
100
AcDbEntity
  8
0
100
AcDbCircle
  6
BYLAYER
 10
10.1054905349494
 20
24.350263158651
 40
7.62237416200057
  0
ARC
  5
301
100
AcDbEntity
  8
0
100
AcDbCircle
  6
BYLAYER
 10
10.1054905349494
 20
24.350263158651
 40
4.41008790801462
100
AcDbArc
 50
90
 51
0
  0
LINE
  5
302
100
AcDbEntity
  8
0
100
AcDbLine
  6
BYLAYER
 10
13
 20
12
 11
13
 21
0
  0
TEXT
  5
303
100
AcDbEntity
  8
0
100
AcDbText
  6
BYLAYER
 10
2.6
 20
7.3
 40
3
  1
TEL
  7
Font_0
100
AcDbText
  0
TEXT
  5
304
100
AcDbEntity
  8
0
100
AcDbText
  6
BYLAYER
 10
3.5
 20
1.5
 40
3
  1
ｳﾆｵ�
  7
Font_0
 72
1
 11
6.5
 21
3
100
AcDbText
 73
2
  0
ARC
  5
305
100
AcDbEntity
  8
0
100
AcDbCircle
  6
BYLAYER
 10
10.5745216067836
 20
32.8983997393573
 40
0.704372460813671
100
AcDbArc
 50
83.8529806316668
 51
239.250071636948
  0
ARC
  5
306
100
AcDbEntity
  8
0
100
AcDbCircle
  6
BYLAYER
 10
6.23761506796892
 20
31.9876821284788
 40
0.704372460813671
100
AcDbArc
 50
113.852980631667
 51
269.250071636948
  0
ARC
  5
307
100
AcDbEntity
  8
0
100
AcDbCircle
  6
BYLAYER
 10
2.46807156512152
 20
20.4823876916705
 40
0.704372460813671
100
AcDbArc
 50
203.852980631667
 51
359.250071636948
  0
ARC
  5
308
100
AcDbEntity
  8
0
100
AcDbCircle
  6
BYLAYER
 10
9.63645946311512
 20
15.8021265779447
 40
0.704372460813671
100
AcDbArc
 50
263.852980631667
 51
59.2500716369476
  0
ARC
  5
309
100
AcDbEntity
  8
0
100
AcDbCircle
  6
BYLAYER
 10
5.4252294212235
 20
17.1818752606574
 40
0.704372460813671
100
AcDbArc
 50
233.852980631667
 51
29.2500716369476
  0
ARC
  5
30A
100
AcDbEntity
  8
0
100
AcDbCircle
  6
BYLAYER
 10
1.55735395424306
 20
24.8192942304852
 40
0.704372460813671
100
AcDbArc
 50
173.852980631667
 51
329.250071636948
  0
ARC
  5
30B
100
AcDbEntity
  8
0
100
AcDbCircle
  6
BYLAYER
 10
2.93710263695578
 20
29.0305242723768
 40
0.704372460813671
100
AcDbArc
 50
143.852980631667
 51
299.250071636948
  0
TEXT
  5
30C
100
AcDbEntity
  8
0
100
AcDbText
  6
BYLAYER
 10
7.49210581170385
 20
21.8477388856442
 40
5
  1
Y
  7
Font_0
100
AcDbText
  0
TEXT
  5
30D
100
AcDbEntity
  8
0
100
AcDbText
  6
BYLAYER
 10
42.3478047909238
 20
7.2
 40
2.8
  1
~8
  7
Font_0
100
AcDbText
  0
TEXT
  5
30E
100
AcDbEntity
  8
0
100
AcDbText
  6
BYLAYER
 10
13.8764304985659
 20
7.2
 40
2.8
  1
(04)3322627
  7
Font_0
100
AcDbText
  0
TEXT
  5
30F
100
AcDbEntity
  8
0
100
AcDbText
  6
BYLAYER
 10
51
 20
7.2
 40
3
  1
FAX
  7
Font_0
100
AcDbText
  0
LINE
  5
310
100
AcDbEntity
  8
0
100
AcDbLine
  6
BYLAYER
 10
48
 20
12
 11
48
 21
6
  0
LINE
  5
311
100
AcDbEntity
  8
0
100
AcDbLine
  6
BYLAYER
 10
62
 20
12
 11
62
 21
6
  0
ARC
  5
312
100
AcDbEntity
  8
0
100
AcDbCircle
  6
BYLAYER
 10
14.7857516486752
 20
31.5186510566446
 40
0.704372460813671
100
AcDbArc
 50
53.8529806316668
 51
209.250071636948
  0
ARC
  5
313
100
AcDbEntity
  8
0
100
AcDbCircle
  6
BYLAYER
 10
17.273878432943
 20
19.6700020449251
 40
0.704372460813671
100
AcDbArc
 50
323.852980631667
 51
119.250071636948
  0
ARC
  5
314
100
AcDbEntity
  8
0
100
AcDbCircle
  6
BYLAYER
 10
13.9733660019298
 20
16.7128441888231
 40
0.704372460813671
100
AcDbArc
 50
293.852980631667
 51
89.2500716369476
  0
LINE
  5
315
100
AcDbEntity
  8
0
100
AcDbLine
  6
BYLAYER
 10
14.515578442964
 20
24.350263158651
 11
15.4411524483498
 21
24.350263158651
  0
ARC
  5
316
100
AcDbEntity
  8
0
100
AcDbCircle
  6
BYLAYER
 10
18.6536271156557
 20
23.8812320868167
 40
0.704372460813671
100
AcDbArc
 50
353.852980631667
 51
149.250071636948
  0
ARC
  5
317
100
AcDbEntity
  8
0
100
AcDbCircle
  6
BYLAYER
 10
17.7429095047772
 20
28.2181386256314
 40
0.704372460813671
100
AcDbArc
 50
23.8529806316668
 51
179.250071636948
  0
TEXT
  5
318
100
AcDbEntity
  8
0
100
AcDbText
  6
BYLAYER
 10
100.4
 20
7.4
 40
3
  1
ｫ~ ｦW
  7
Font_0
100
AcDbText
  0
LINE
  5
319
100
AcDbEntity
  8
0
100
AcDbLine
  6
BYLAYER
 10
144
 20
36
 11
144
 21
0
  0
LINE
  5
31A
100
AcDbEntity
  8
0
100
AcDbLine
  6
BYLAYER
 10
114
 20
36
 11
114
 21
0
  0
TEXT
  5
31B
100
AcDbEntity
  8
0
100
AcDbText
  6
BYLAYER
 10
100.4
 20
1.6
 40
3
  1
ｹﾏ ｸｹ
  7
Font_0
100
AcDbText
  0
TEXT
  5
31C
100
AcDbEntity
  8
0
100
AcDbText
  6
BYLAYER
 10
100.4
 20
31.6
 40
3
  1
･D ｺﾞ
  7
Font_0
100
AcDbText
  0
TEXT
  5
31D
100
AcDbEntity
  8
0
100
AcDbText
  6
BYLAYER
 10
100.4
 20
19.6
 40
3
  1
ﾃｸ ｹﾏ
  7
Font_0
100
AcDbText
  0
TEXT
  5
31E
100
AcDbEntity
  8
0
100
AcDbText
  6
BYLAYER
 10
100.4
 20
13.8
 40
3
  1
ｾ� ｺﾘ
  7
Font_0
100
AcDbText
  0
TEXT
  5
31F
100
AcDbEntity
  8
0
100
AcDbText
  6
BYLAYER
 10
100.4
 20
25.4
 40
3
  1
ｮﾖ ｹ�
  7
Font_0
100
AcDbText
  0
LINE
  5
320
100
AcDbEntity
  8
0
100
AcDbLine
  6
BYLAYER
 10
163
 20
36
 11
163
 21
0
  0
TEXT
  5
321
100
AcDbEntity
  8
0
100
AcDbText
  6
BYLAYER
 10
146.967830348543
 20
7.5
 40
3
  1
ｪ揵ｱｳBｲz
  7
Font_0
100
AcDbText
  0
TEXT
  5
322
100
AcDbEntity
  8
0
100
AcDbText
  6
BYLAYER
 10
146.967830348543
 20
1.5
 40
3
  1
ｻsｹﾏ､魘ﾁ
  7
Font_0
100
AcDbText
  0
TEXT
  5
323
100
AcDbEntity
  8
0
100
AcDbText
  6
BYLAYER
 10
148.5
 20
31.5
 40
3
  1
ｧ� ｽ�
  7
Font_0
100
AcDbText
  0
TEXT
  5
324
100
AcDbEntity
  8
0
100
AcDbText
  6
BYLAYER
 10
148.5
 20
19.5
 40
3
  1
ｼﾆ ｶq
  7
Font_0
100
AcDbText
  0
TEXT
  5
325
100
AcDbEntity
  8
0
100
AcDbText
  6
BYLAYER
 10
148.5
 20
13.5
 40
3
  1
ｳ� ｦ�
  7
Font_0
100
AcDbText
  0
TEXT
  5
326
100
AcDbEntity
  8
0
100
AcDbText
  6
BYLAYER
 10
148.5
 20
25.5
 40
3
  1
､� ｨﾒ
  7
Font_0
100
AcDbText
  0
TEXT
  5
327
100
AcDbEntity
  8
0
100
AcDbText
  6
BYLAYER
 10
200.830454348633
 20
31.5
 40
3
  1
､魘ﾁ
  7
Font_0
100
AcDbText
  0
LINE
  5
328
100
AcDbEntity
  8
0
100
AcDbLine
  6
BYLAYER
 10
269.7178125
 20
135.285
 11
269.7178125
 21
151.27125
  0
LINE
  5
329
100
AcDbEntity
  8
0
100
AcDbLine
  6
BYLAYER
 10
261.035625
 20
135.285
 11
261.035625
 21
151.27125
  0
LINE
  5
32A
100
AcDbEntity
  8
0
100
AcDbLine
  6
BYLAYER
 10
252.3534375
 20
135.285
 11
252.3534375
 21
151.27125
  0
LINE
  5
32B
100
AcDbEntity
  8
0
100
AcDbLine
  6
BYLAYER
 10
243.67125
 20
135.285
 11
243.67125
 21
180.4875
  0
LINE
  5
32C
100
AcDbEntity
  8
0
100
AcDbLine
  6
BYLAYER
 10
221.07
 20
135.285
 11
221.07
 21
180.4875
  0
LINE
  5
32D
100
AcDbEntity
  8
0
100
AcDbLine
  6
BYLAYER
 10
216.66
 20
135.285
 11
216.66
 21
186
  0
LINE
  5
32E
100
AcDbEntity
  8
0
100
AcDbLine
  6
BYLAYER
 10
213
 20
36
 11
213
 21
0
  0
LINE
  5
32F
100
AcDbEntity
  8
0
100
AcDbLine
  6
BYLAYER
 10
232
 20
36
 11
232
 21
0
  0
TEXT
  5
330
100
AcDbEntity
  8
0
100
AcDbText
  6
BYLAYER
 10
235
 20
31.5
 40
3
  1
ｧ�   ｧ�   ､ｺ   ｮe
  7
Font_0
100
AcDbText
  0
TEXT
  5
331
100
AcDbEntity
  8
0
100
AcDbText
  6
BYLAYER
 10
218.659856969007
 20
31.5
 40
3
  1
ｭtｳd､H
  7
Font_0
100
AcDbText
  0
LINE
  5
332
100
AcDbEntity
  8
0
100
AcDbLine
  6
BYLAYER
 10
278.4
 20
139.695
 11
221.07
 21
139.695
  0
LINE
  5
333
100
AcDbEntity
  8
0
100
AcDbLine
  6
BYLAYER
 10
278.4
 20
135.285
 11
216.66
 21
135.285
  0
TEXT
  5
334
100
AcDbEntity
  8
0
100
AcDbText
  6
BYLAYER
 10
246.15416478566
 20
128.207003496756
 40
2
  1
projection ｲﾄ､Tｨ､ｧ�ｼv
  7
Font_0
100
AcDbText
  0
LINE
  5
335
100
AcDbEntity
  8
0
100
AcDbLine
  6
BYLAYER
 10
278.4
 20
113.78625
 11
243.67125
 21
113.78625
  0
TEXT
  5
336
100
AcDbEntity
  8
0
100
AcDbText
  6
BYLAYER
 10
271.4339125
 20
144.733125
 40
1.5
  1
100･H､W
  7
Font_0
 72
1
 11
274.0589125
 21
145.483125
100
AcDbText
 73
2
  0
TEXT
  5
337
100
AcDbEntity
  8
0
100
AcDbText
  6
BYLAYER
 10
272.1839125
 20
136.74
 40
1.5
  1
±10'
  7
Font_0
 72
1
 11
274.0589125
 21
137.49
100
AcDbText
 73
2
  0
MTEXT
  5
338
100
AcDbEntity
  8
0
100
AcDbMText
 10
232.37065
 20
145.483125
 40
2
 41
  0.0
  1
､ｽｺﾙ､ﾘ､o (ｪﾗ)\Pｧｨｦｨｨ､､ｧｵuﾃ荀@､�
 71
5
  7
Font_0
  0
TEXT
  5
339
100
AcDbEntity
  8
0
100
AcDbText
  6
BYLAYER
 10
217.365
 20
147.778125
 40
3
  1
ｪｽｨ､ｫﾗ
  7
Font_1
 50
270
 11
218.865
 21
147.778125
100
AcDbText
 73
2
  0
TEXT
  5
33A
100
AcDbEntity
  8
0
100
AcDbText
  6
BYLAYER
 10
227.87065
 20
135.99
 40
3
  1
ｨ､ｫﾗｮt
  7
Font_0
 72
1
 11
232.37065
 21
137.49
100
AcDbText
 73
2
  0
LINE
  5
33B
100
AcDbEntity
  8
0
100
AcDbLine
  6
BYLAYER
 10
254.802068029839
 20
115.173423624616
 11
254.802068029839
 21
126.198423624616
  0
LINE
  5
33C
100
AcDbEntity
  8
0
100
AcDbLine
  6
BYLAYER
 10
243.67125
 20
113.78625
 11
243.67125
 21
135.285
  0
CIRCLE
  5
33D
100
AcDbEntity
  8
0
100
AcDbCircle
  6
BYLAYER
 10
254.802068029839
 20
120.685923624616
 40
4.41
  0
LINE
  5
33E
100
AcDbEntity
  8
0
100
AcDbLine
  6
BYLAYER
 10
249.289568029839
 20
120.685923624616
 11
260.314568029839
 21
120.685923624616
  0
CIRCLE
  5
33F
100
AcDbEntity
  8
0
100
AcDbCircle
  6
BYLAYER
 10
254.802068029839
 20
120.685923624616
 40
2.205
  0
LINE
  5
340
100
AcDbEntity
  8
0
100
AcDbLine
  6
BYLAYER
 10
263.194180551461
 20
120.685923624616
 11
274.770430551461
 21
120.685923624616
  0
LWPOLYLINE
  5
341
100
AcDbEntity
  8
0
100
AcDbPolyline
  6
BYLAYER
370
0
 90
     4
 70
     1
 10
264.296680551461
  20
118.480923624616
 10
273.667930551461
  20
116.275923624616
 10
273.667930551461
  20
125.095923624616
 10
264.296680551461
  20
122.890923624616
  0
TEXT
  5
342
100
AcDbEntity
  8
0
100
AcDbText
  6
BYLAYER
 10
245.828721587618
 20
131.605971951227
 40
2
  1
Third angle
  7
Font_0
100
AcDbText
  0
MTEXT
  5
343
100
AcDbEntity
  8
0
100
AcDbMText
 10
256.6945375
 20
145.483125
 40
1.5
 41
  0.0
  1
10･H､W\P50･H､U
 71
5
  7
Font_0
  0
TEXT
  5
344
100
AcDbEntity
  8
0
100
AcDbText
  6
BYLAYER
 10
246.13735
 20
136.74
 40
1.5
  1
±1°
  7
Font_0
 72
1
 11
248.01235
 21
137.49
100
AcDbText
 73
2
  0
TEXT
  5
345
100
AcDbEntity
  8
0
100
AcDbText
  6
BYLAYER
 10
254.8195375
 20
136.74
 40
1.5
  1
±30'
  7
Font_0
 72
1
 11
256.6945375
 21
137.49
100
AcDbText
 73
2
  0
TEXT
  5
346
100
AcDbEntity
  8
0
100
AcDbText
  6
BYLAYER
 10
245.76235
 20
144.733125
 40
1.5
  1
10･H､U
  7
Font_0
 72
1
 11
248.01235
 21
145.483125
100
AcDbText
 73
2
  0
TEXT
  5
347
100
AcDbEntity
  8
0
100
AcDbText
  6
BYLAYER
 10
263.501725
 20
136.74
 40
1.5
  1
±20'
  7
Font_0
 72
1
 11
265.376725
 21
137.49
100
AcDbText
 73
2
  0
MTEXT
  5
348
100
AcDbEntity
  8
0
100
AcDbMText
 10
265.376725
 20
145.483125
 40
1.5
 41
  0.0
  1
50･H､W\P100･H､U
 71
5
  7
Font_0
  0
LINE
  5
349
100
AcDbEntity
  8
0
100
AcDbLine
  6
BYLAYER
 10
221.07
 20
155.68125
 11
278.4
 21
155.68125
  0
LINE
  5
34A
100
AcDbEntity
  8
0
100
AcDbLine
  6
BYLAYER
 10
221.07
 20
160.09125
 11
278.4
 21
160.09125
  0
LINE
  5
34B
100
AcDbEntity
  8
0
100
AcDbLine
  6
BYLAYER
 10
221.07
 20
164.50125
 11
278.4
 21
164.50125
  0
LINE
  5
34C
100
AcDbEntity
  8
0
100
AcDbLine
  6
BYLAYER
 10
221.07
 20
168.91125
 11
278.4
 21
168.91125
  0
LINE
  5
34D
100
AcDbEntity
  8
0
100
AcDbLine
  6
BYLAYER
 10
221.07
 20
173.32125
 11
278.4
 21
173.32125
  0
LINE
  5
34E
100
AcDbEntity
  8
0
100
AcDbLine
  6
BYLAYER
 10
216.66
 20
151.27125
 11
278.4
 21
151.27125
  0
LINE
  5
34F
100
AcDbEntity
  8
0
100
AcDbLine
  6
BYLAYER
 10
216.66
 20
180.4875
 11
278.4
 21
180.4875
  0
TEXT
  5
350
100
AcDbEntity
  8
0
100
AcDbText
  6
BYLAYER
 10
269.1119
 20
175.154375
 40
3.5
  1
ｲﾊｯﾅ
  7
Font_0
 72
1
 11
272.6119
 21
176.904375
100
AcDbText
 73
2
  0
LINE
  5
351
100
AcDbEntity
  8
0
100
AcDbLine
  6
BYLAYER
 10
243.67125
 20
173.32125
 11
232.06971689676
 21
180.4875
  0
TEXT
  5
352
100
AcDbEntity
  8
0
100
AcDbText
  6
BYLAYER
 10
230.03
 20
181.49375
 40
3.5
  1
ｦｨ ｫ~ ､ｧ ｴｶ ｳq ､ｽ ｮt
  7
Font_0
 72
1
 11
247.53
 21
183.24375
100
AcDbText
 73
2
  0
TEXT
  5
353
100
AcDbEntity
  8
0
100
AcDbText
  6
BYLAYER
 10
228.24565
 20
170.36625
 40
1.5
  1
1･H､W~4･H､U
  7
Font_0
 72
1
 11
232.37065
 21
171.11625
100
AcDbText
 73
2
  0
TEXT
  5
354
100
AcDbEntity
  8
0
100
AcDbText
  6
BYLAYER
 10
227.49565
 20
161.54625
 40
1.5
  1
16･H､W~63･H､U
  7
Font_0
 72
1
 11
232.37065
 21
162.29625
100
AcDbText
 73
2
  0
TEXT
  5
355
100
AcDbEntity
  8
0
100
AcDbText
  6
BYLAYER
 10
227.12065
 20
157.13625
 40
1.5
  1
63･H､W~250･H､U
  7
Font_0
 72
1
 11
232.37065
 21
157.88625
100
AcDbText
 73
2
  0
TEXT
  5
356
100
AcDbEntity
  8
0
100
AcDbText
  6
BYLAYER
 10
226.37065
 20
152.72625
 40
1.5
  1
250･H､W~1000･H､U
  7
Font_0
 72
1
 11
232.37065
 21
153.47625
100
AcDbText
 73
2
  0
MTEXT
  5
357
100
AcDbEntity
  8
0
100
AcDbMText
 10
218.865
 20
168.879375
 40
3
 41
  0.0
  1
ｪﾗ
 71
4
  7
Font_1
 11
-1.83690953073357E-16
 21
-1
  0
TEXT
  5
358
100
AcDbEntity
  8
0
100
AcDbText
  6
BYLAYER
 10
227.87065
 20
165.95625
 40
1.5
  1
4･H､W~16･H､U
  7
Font_0
 72
1
 11
232.37065
 21
166.70625
100
AcDbText
 73
2
  0
TEXT
  5
359
100
AcDbEntity
  8
0
100
AcDbText
  6
BYLAYER
 10
221.354797302298
 20
174.015263609177
 40
1.7
  1
､ｽｺﾙ､ﾘ､oｹｺ､ﾀm/m
  7
Font_0
100
AcDbText
  0
TEXT
  5
35A
100
AcDbEntity
  8
0
100
AcDbText
  6
BYLAYER
 10
237.865638127741
 20
177.454836298923
 40
1.7
  1
ｵ･ｯﾅ
  7
Font_0
100
AcDbText
  0
LINE
  5
35B
100
AcDbEntity
  8
0
100
AcDbLine
  6
BYLAYER
 10
266.82375
 20
151.27125
 11
266.82375
 21
180.4875
  0
LINE
  5
35C
100
AcDbEntity
  8
0
100
AcDbLine
  6
BYLAYER
 10
255.2475
 20
151.27125
 11
255.2475
 21
180.4875
  0
TEXT
  5
35D
100
AcDbEntity
  8
0
100
AcDbText
  6
BYLAYER
 10
247.2094
 20
170.36625
 40
1.5
  1
±0.05
  7
Font_0
 72
1
 11
249.4594
 21
171.11625
100
AcDbText
 73
2
  0
TEXT
  5
35E
100
AcDbEntity
  8
0
100
AcDbText
  6
BYLAYER
 10
258.78565
 20
170.36625
 40
1.5
  1
±0.10
  7
Font_0
 72
1
 11
261.03565
 21
171.11625
100
AcDbText
 73
2
  0
TEXT
  5
35F
100
AcDbEntity
  8
0
100
AcDbText
  6
BYLAYER
 10
270.3619
 20
170.36625
 40
1.5
  1
±0.30
  7
Font_0
 72
1
 11
272.6119
 21
171.11625
100
AcDbText
 73
2
  0
TEXT
  5
360
100
AcDbEntity
  8
0
100
AcDbText
  6
BYLAYER
 10
258.78565
 20
165.95625
 40
1.5
  1
±0.20
  7
Font_0
 72
1
 11
261.03565
 21
166.70625
100
AcDbText
 73
2
  0
TEXT
  5
361
100
AcDbEntity
  8
0
100
AcDbText
  6
BYLAYER
 10
258.78565
 20
161.54625
 40
1.5
  1
±0.30
  7
Font_0
 72
1
 11
261.03565
 21
162.29625
100
AcDbText
 73
2
  0
TEXT
  5
362
100
AcDbEntity
  8
0
100
AcDbText
  6
BYLAYER
 10
258.78565
 20
157.13625
 40
1.5
  1
±0.50
  7
Font_0
 72
1
 11
261.03565
 21
157.88625
100
AcDbText
 73
2
  0
TEXT
  5
363
100
AcDbEntity
  8
0
100
AcDbText
  6
BYLAYER
 10
258.78565
 20
152.72625
 40
1.5
  1
±0.80
  7
Font_0
 72
1
 11
261.03565
 21
153.47625
100
AcDbText
 73
2
  0
TEXT
  5
364
100
AcDbEntity
  8
0
100
AcDbText
  6
BYLAYER
 10
247.2094
 20
157.13625
 40
1.5
  1
±0.20
  7
Font_0
 72
1
 11
249.4594
 21
157.88625
100
AcDbText
 73
2
  0
TEXT
  5
365
100
AcDbEntity
  8
0
100
AcDbText
  6
BYLAYER
 10
247.2094
 20
152.72625
 40
1.5
  1
±0.30
  7
Font_0
 72
1
 11
249.4594
 21
153.47625
100
AcDbText
 73
2
  0
TEXT
  5
366
100
AcDbEntity
  8
0
100
AcDbText
  6
BYLAYER
 10
247.2094
 20
165.95625
 40
1.5
  1
±0.07
  7
Font_0
 72
1
 11
249.4594
 21
166.70625
100
AcDbText
 73
2
  0
TEXT
  5
367
100
AcDbEntity
  8
0
100
AcDbText
  6
BYLAYER
 10
247.2094
 20
161.54625
 40
1.5
  1
±0.10
  7
Font_0
 72
1
 11
249.4594
 21
162.29625
100
AcDbText
 73
2
  0
TEXT
  5
368
100
AcDbEntity
  8
0
100
AcDbText
  6
BYLAYER
 10
270.3619
 20
152.72625
 40
1.5
  1
±2.00
  7
Font_0
 72
1
 11
272.6119
 21
153.47625
100
AcDbText
 73
2
  0
TEXT
  5
369
100
AcDbEntity
  8
0
100
AcDbText
  6
BYLAYER
 10
270.3619
 20
157.13625
 40
1.5
  1
±1.20
  7
Font_0
 72
1
 11
272.6119
 21
157.88625
100
AcDbText
 73
2
  0
TEXT
  5
36A
100
AcDbEntity
  8
0
100
AcDbText
  6
BYLAYER
 10
270.3619
 20
161.54625
 40
1.5
  1
±0.70
  7
Font_0
 72
1
 11
272.6119
 21
162.29625
100
AcDbText
 73
2
  0
TEXT
  5
36B
100
AcDbEntity
  8
0
100
AcDbText
  6
BYLAYER
 10
270.3619
 20
165.95625
 40
1.5
  1
±0.50
  7
Font_0
 72
1
 11
272.6119
 21
166.70625
100
AcDbText
 73
2
  0
TEXT
  5
36C
100
AcDbEntity
  8
0
100
AcDbText
  6
BYLAYER
 10
257.5356
 20
175.154375
 40
3.5
  1
､､ｯﾅ
  7
Font_0
 72
1
 11
261.0356
 21
176.904375
100
AcDbText
 73
2
  0
TEXT
  5
36D
100
AcDbEntity
  8
0
100
AcDbText
  6
BYLAYER
 10
245.9594
 20
175.154375
 40
3.5
  1
ｲﾓｯﾅ
  7
Font_0
 72
1
 11
249.4594
 21
176.904375
100
AcDbText
 73
2
  0
LWPOLYLINE
  5
36E
100
AcDbEntity
  8
0
100
AcDbPolyline
  6
BYLAYER
370
20
 90
     4
 70
     1
 10
0
  20
0
 10
0
  20
186
 10
278.4
  20
186
 10
278.4
  20
0
  0
LWPOLYLINE
  5
36F
100
AcDbEntity
  8
0
100
AcDbPolyline
  6
BYLAYER
370
20
 90
     2
 10
0
  20
36
 10
278.4
  20
36
  0
LWPOLYLINE
  5
370
100
AcDbEntity
  8
0
100
AcDbPolyline
  6
BYLAYER
370
20
 90
     2
 10
195.15
  20
36
 10
195.15
  20
0
  0
LWPOLYLINE
  5
371
100
AcDbEntity
  8
0
100
AcDbPolyline
  6
BYLAYER
370
20
 90
     2
 10
96.85
  20
36
 10
96.85
  20
0
  0
ENDBLK
  5
372
100
AcDbEntity
  8
0
 67
     1
100
AcDbBlockEnd
  0
BLOCK
  5
373
100
AcDbEntity
  8
0
100
AcDbBlockBegin
  2
JAME
 70
    0
 10
0
 20
0
 30
0.0
  3
JAME
  1

  0
TEXT
  5
374
100
AcDbEntity
  8
0
100
AcDbText
  6
BYLAYER
 10
200.830454348633
 20
31.5
 40
3
  1
､魘ﾁ
  7
Font_0
100
AcDbText
  0
LINE
  5
375
100
AcDbEntity
  8
0
100
AcDbLine
  6
BYLAYER
 10
0
 20
12
 11
278.4
 21
12
  0
LINE
  5
376
100
AcDbEntity
  8
0
100
AcDbLine
  6
BYLAYER
 10
0
 20
6
 11
278.4
 21
6
  0
LINE
  5
377
100
AcDbEntity
  8
0
100
AcDbLine
  6
BYLAYER
 10
0
 20
0
 11
278.4
 21
0
  0
LINE
  5
378
100
AcDbEntity
  8
0
100
AcDbLine
  6
BYLAYER
 10
96.85
 20
30
 11
278.4
 21
30
  0
LINE
  5
379
100
AcDbEntity
  8
0
100
AcDbLine
  6
BYLAYER
 10
96.85
 20
24
 11
278.4
 21
24
  0
LINE
  5
37A
100
AcDbEntity
  8
0
100
AcDbLine
  6
BYLAYER
 10
96.85
 20
18
 11
278.4
 21
18
  0
LWPOLYLINE
  5
37B
100
AcDbEntity
  8
0
100
AcDbPolyline
  6
BYLAYER
370
0
 90
     2
 70
     1
 10
0
  20
36
 10
278.4
  20
36
  0
LWPOLYLINE
  5
37C
100
AcDbEntity
  8
0
100
AcDbPolyline
  6
BYLAYER
 90
     2
 70
     1
 10
278.4
  20
186
 10
0
  20
186
  0
LINE
  5
37D
100
AcDbEntity
  8
0
100
AcDbLine
  6
BYLAYER
 10
0
 20
0
 11
0
 21
186
  0
TEXT
  5
37E
100
AcDbEntity
  8
0
100
AcDbText
  6
BYLAYER
 10
63.8643398403977
 20
7.09411371042404
 40
2.8
  1
(04)23322629
  7
Font_0
100
AcDbText
  0
TEXT
  5
37F
100
AcDbEntity
  8
0
100
AcDbText
  6
BYLAYER
 10
22.1680110084321
 20
15.7553550725962
 40
2.8
  1
CAM YORK INDUSTRIAL CO.,LTD.
  7
Font_0
100
AcDbText
  0
TEXT
  5
380
100
AcDbEntity
  8
0
100
AcDbText
  6
BYLAYER
 10
22.0468952754036
 20
26
 40
7
  1
ｫﾘｷﾔ､uｷ~ｪﾑ･ｳｭｭ､ｽ･q
  7
Font_0
100
AcDbText
  0
ARC
  5
381
100
AcDbEntity
  8
0
100
AcDbCircle
  6
BYLAYER
 10
5.4252294212235
 20
17.1818752606574
 40
0.704372460813671
100
AcDbArc
 50
233.852980631667
 51
29.2500716369477
  0
TEXT
  5
382
100
AcDbEntity
  8
0
100
AcDbText
  6
BYLAYER
 10
3.5
 20
1.5
 40
3
  1
ｳﾆｵ�
  7
Font_0
 72
1
 11
6.5
 21
3
100
AcDbText
 73
2
  0
TEXT
  5
383
100
AcDbEntity
  8
0
100
AcDbText
  6
BYLAYER
 10
2.6
 20
7.3
 40
3
  1
TEL
  7
Font_0
100
AcDbText
  0
ARC
  5
384
100
AcDbEntity
  8
0
100
AcDbCircle
  6
BYLAYER
 10
10.1054905349494
 20
24.350263158651
 40
4.41008790801462
100
AcDbArc
 50
90
 51
0
  0
CIRCLE
  5
385
100
AcDbEntity
  8
0
100
AcDbCircle
  6
BYLAYER
 10
10.1054905349494
 20
24.350263158651
 40
7.62237416200057
  0
CIRCLE
  5
386
100
AcDbEntity
  8
0
100
AcDbCircle
  6
BYLAYER
 10
10.1054905349494
 20
24.350263158651
 40
9.36463111331499
  0
ARC
  5
387
100
AcDbEntity
  8
0
100
AcDbCircle
  6
BYLAYER
 10
6.23761506796892
 20
31.9876821284788
 40
0.704372460813671
100
AcDbArc
 50
113.852980631667
 51
269.250071636948
  0
ARC
  5
388
100
AcDbEntity
  8
0
100
AcDbCircle
  6
BYLAYER
 10
2.46807156512152
 20
20.4823876916705
 40
0.704372460813671
100
AcDbArc
 50
203.852980631667
 51
359.250071636948
  0
ARC
  5
389
100
AcDbEntity
  8
0
100
AcDbCircle
  6
BYLAYER
 10
1.55735395424306
 20
24.8192942304852
 40
0.704372460813671
100
AcDbArc
 50
173.852980631667
 51
329.250071636948
  0
ARC
  5
38A
100
AcDbEntity
  8
0
100
AcDbCircle
  6
BYLAYER
 10
2.93710263695578
 20
29.0305242723768
 40
0.704372460813671
100
AcDbArc
 50
143.852980631667
 51
299.250071636948
  0
LINE
  5
38B
100
AcDbEntity
  8
0
100
AcDbLine
  6
BYLAYER
 10
62
 20
12
 11
62
 21
6
  0
TEXT
  5
38C
100
AcDbEntity
  8
0
100
AcDbText
  6
BYLAYER
 10
51.8
 20
7.2
 40
3
  1
FAX
  7
Font_0
100
AcDbText
  0
LINE
  5
38D
100
AcDbEntity
  8
0
100
AcDbLine
  6
BYLAYER
 10
49.4
 20
12
 11
49.4
 21
6
  0
TEXT
  5
38E
100
AcDbEntity
  8
0
100
AcDbText
  6
BYLAYER
 10
43.3478047909238
 20
7.2
 40
2.8
  1
~8
  7
Font_0
100
AcDbText
  0
LINE
  5
38F
100
AcDbEntity
  8
0
100
AcDbLine
  6
BYLAYER
 10
11.8
 20
12
 11
11.8
 21
0
  0
TEXT
  5
390
100
AcDbEntity
  8
0
100
AcDbText
  6
BYLAYER
 10
12.8764304985659
 20
7.2
 40
2.8
  1
(04)23322627
  7
Font_0
100
AcDbText
  0
ARC
  5
391
100
AcDbEntity
  8
0
100
AcDbCircle
  6
BYLAYER
 10
14.7857516486752
 20
31.5186510566446
 40
0.704372460813671
100
AcDbArc
 50
53.8529806316668
 51
209.250071636948
  0
ARC
  5
392
100
AcDbEntity
  8
0
100
AcDbCircle
  6
BYLAYER
 10
10.5745216067836
 20
32.8983997393573
 40
0.704372460813671
100
AcDbArc
 50
83.8529806316668
 51
239.250071636948
  0
ARC
  5
393
100
AcDbEntity
  8
0
100
AcDbCircle
  6
BYLAYER
 10
13.9733660019298
 20
16.7128441888231
 40
0.704372460813671
100
AcDbArc
 50
293.852980631667
 51
89.2500716369476
  0
ARC
  5
394
100
AcDbEntity
  8
0
100
AcDbCircle
  6
BYLAYER
 10
9.63645946311512
 20
15.8021265779447
 40
0.704372460813671
100
AcDbArc
 50
263.852980631667
 51
59.2500716369476
  0
ARC
  5
395
100
AcDbEntity
  8
0
100
AcDbCircle
  6
BYLAYER
 10
17.273878432943
 20
19.6700020449251
 40
0.704372460813671
100
AcDbArc
 50
323.852980631667
 51
119.250071636948
  0
LINE
  5
396
100
AcDbEntity
  8
0
100
AcDbLine
  6
BYLAYER
 10
14.515578442964
 20
24.350263158651
 11
15.4411524483498
 21
24.350263158651
  0
LINE
  5
397
100
AcDbEntity
  8
0
100
AcDbLine
  6
BYLAYER
 10
10.1054905349494
 20
28.7603510666656
 11
15.2233703294355
 21
28.7603510666656
  0
TEXT
  5
398
100
AcDbEntity
  8
0
100
AcDbText
  6
BYLAYER
 10
7.49210581170385
 20
21.8477388856442
 40
5
  1
Y
  7
Font_0
100
AcDbText
  0
ARC
  5
399
100
AcDbEntity
  8
0
100
AcDbCircle
  6
BYLAYER
 10
18.6536271156557
 20
23.8812320868167
 40
0.704372460813671
100
AcDbArc
 50
353.852980631667
 51
149.250071636947
  0
ARC
  5
39A
100
AcDbEntity
  8
0
100
AcDbCircle
  6
BYLAYER
 10
17.7429095047772
 20
28.2181386256314
 40
0.704372460813671
100
AcDbArc
 50
23.8529806316668
 51
179.250071636948
  0
LINE
  5
39B
100
AcDbEntity
  8
0
100
AcDbLine
  6
BYLAYER
 10
114
 20
36
 11
114
 21
0
  0
TEXT
  5
39C
100
AcDbEntity
  8
0
100
AcDbText
  6
BYLAYER
 10
100.4
 20
7.4
 40
3
  1
ｫ~ ｦW
  7
Font_0
100
AcDbText
  0
LINE
  5
39D
100
AcDbEntity
  8
0
100
AcDbLine
  6
BYLAYER
 10
97.15
 20
36
 11
97.15
 21
0
  0
LINE
  5
39E
100
AcDbEntity
  8
0
100
AcDbLine
  6
BYLAYER
 10
96.85
 20
36
 11
96.85
 21
0
  0
LWPOLYLINE
  5
39F
100
AcDbEntity
  8
0
100
AcDbPolyline
  6
BYLAYER
370
0
 90
     4
 10
96.85
  20
36
 10
96.85
  20
0
 10
97.15
  20
0
 10
97.15
  20
36
  0
TEXT
  5
3A0
100
AcDbEntity
  8
0
100
AcDbText
  6
BYLAYER
 10
100.4
 20
1.6
 40
3
  1
ｹﾏ ｸｹ
  7
Font_0
100
AcDbText
  0
TEXT
  5
3A1
100
AcDbEntity
  8
0
100
AcDbText
  6
BYLAYER
 10
100.4
 20
31.6
 40
3
  1
･D ｺﾞ
  7
Font_0
100
AcDbText
  0
TEXT
  5
3A2
100
AcDbEntity
  8
0
100
AcDbText
  6
BYLAYER
 10
100.4
 20
19.6
 40
3
  1
ﾃｸ ｹﾏ
  7
Font_0
100
AcDbText
  0
TEXT
  5
3A3
100
AcDbEntity
  8
0
100
AcDbText
  6
BYLAYER
 10
100.4
 20
25.4
 40
3
  1
ｮﾖ ｹ�
  7
Font_0
100
AcDbText
  0
TEXT
  5
3A4
100
AcDbEntity
  8
0
100
AcDbText
  6
BYLAYER
 10
100.316862435203
 20
13.8
 40
3
  1
ｾ� ｺﾘ
  7
Font_0
100
AcDbText
  0
LINE
  5
3A5
100
AcDbEntity
  8
0
100
AcDbLine
  6
BYLAYER
 10
195.15
 20
36
 11
195.15
 21
0
  0
LINE
  5
3A6
100
AcDbEntity
  8
0
100
AcDbLine
  6
BYLAYER
 10
194.85
 20
36
 11
194.85
 21
0
  0
LINE
  5
3A7
100
AcDbEntity
  8
0
100
AcDbLine
  6
BYLAYER
 10
195.025
 20
36
 11
195.025
 21
0
  0
TEXT
  5
3A8
100
AcDbEntity
  8
0
100
AcDbText
  6
BYLAYER
 10
146.967830348543
 20
7.5
 40
3
  1
ｻsｹﾏ､魘ﾁ
  7
Font_0
100
AcDbText
  0
LINE
  5
3A9
100
AcDbEntity
  8
0
100
AcDbLine
  6
BYLAYER
 10
163
 20
36
 11
163
 21
0
  0
LINE
  5
3AA
100
AcDbEntity
  8
0
100
AcDbLine
  6
BYLAYER
 10
144
 20
36
 11
144
 21
0
  0
TEXT
  5
3AB
100
AcDbEntity
  8
0
100
AcDbText
  6
BYLAYER
 10
147.076922819997
 20
1.5
 40
3
  1
ｹqｸ｣ｽsｸｹ
  7
Font_0
100
AcDbText
  0
TEXT
  5
3AC
100
AcDbEntity
  8
0
100
AcDbText
  6
BYLAYER
 10
148.5
 20
31.5
 40
3
  1
ｧ� ｽ�
  7
Font_0
100
AcDbText
  0
TEXT
  5
3AD
100
AcDbEntity
  8
0
100
AcDbText
  6
BYLAYER
 10
148.5
 20
25.5
 40
3
  1
ｼﾆ ｶq
  7
Font_0
100
AcDbText
  0
TEXT
  5
3AE
100
AcDbEntity
  8
0
100
AcDbText
  6
BYLAYER
 10
148.5
 20
19.5
 40
3
  1
ｳ� ｦ�
  7
Font_0
100
AcDbText
  0
TEXT
  5
3AF
100
AcDbEntity
  8
0
100
AcDbText
  6
BYLAYER
 10
146.967830348543
 20
13.5
 40
3
  1
ｪ揵ｱｳBｲz
  7
Font_0
100
AcDbText
  0
LINE
  5
3B0
100
AcDbEntity
  8
0
100
AcDbLine
  6
BYLAYER
 10
278.4
 20
186
 11
278.4
 21
0
  0
TEXT
  5
3B1
100
AcDbEntity
  8
0
100
AcDbText
  6
BYLAYER
 10
235
 20
31.5
 40
3
  1
ｧ�   ｧ�   ､ｺ   ｮe
  7
Font_0
100
AcDbText
  0
LINE
  5
3B2
100
AcDbEntity
  8
0
100
AcDbLine
  6
BYLAYER
 10
232
 20
36
 11
232
 21
0
  0
LINE
  5
3B3
100
AcDbEntity
  8
0
100
AcDbLine
  6
BYLAYER
 10
213
 20
36
 11
213
 21
0
  0
TEXT
  5
3B4
100
AcDbEntity
  8
0
100
AcDbText
  6
BYLAYER
 10
218.659856969007
 20
31.5
 40
3
  1
ｭtｳd､H
  7
Font_0
100
AcDbText
  0
ENDBLK
  5
3B5
100
AcDbEntity
  8
0
 67
     1
100
AcDbBlockEnd
  0
BLOCK
  5
3B6
100
AcDbEntity
  8
0
100
AcDbBlockBegin
  2
GENAXEH
 70
    0
 10
0
 20
0
 30
0.0
  3
GENAXEH
  1

  0
LINE
  5
3B7
100
AcDbEntity
  8
0
100
AcDbLine
  6
BYLAYER
 10
-1
 20
0
 11
1
 21
0
  0
ENDBLK
  5
3B8
100
AcDbEntity
  8
0
 67
     1
100
AcDbBlockEnd
  0
BLOCK
  5
3B9
100
AcDbEntity
  8
0
100
AcDbBlockBegin
  2
A$C36D836D4
 70
    0
 10
0
 20
0
 30
0.0
  3
A$C36D836D4
  1

  0
LINE
  5
3BA
100
AcDbEntity
  8
BASE
100
AcDbLine
  6
BYLAYER
 10
-156.592114756201
 20
-85.2890618578437
 11
-73.3421147562014
 21
-85.2890618578437
  0
LINE
  5
3BB
100
AcDbEntity
  8
BASE
100
AcDbLine
  6
BYLAYER
 10
-156.592114756201
 20
-91.2890618578437
 11
-73.3421147562014
 21
-91.2890618578437
  0
LINE
  5
3BC
100
AcDbEntity
  8
BASE
100
AcDbLine
  6
BYLAYER
 10
-156.592114756201
 20
-97.2890618578437
 11
-73.3421147562014
 21
-97.2890618578437
  0
LINE
  5
3BD
100
AcDbEntity
  8
BASE
100
AcDbLine
  6
BYLAYER
 10
-156.592114756201
 20
-103.289061857844
 11
-73.3421147562014
 21
-103.289061857844
  0
LINE
  5
3BE
100
AcDbEntity
  8
BASE
100
AcDbLine
  6
BYLAYER
 10
-156.592114756201
 20
-109.289061857844
 11
-73.3421147562014
 21
-109.289061857844
  0
LINE
  5
3BF
100
AcDbEntity
  8
BASE
100
AcDbLine
  6
BYLAYER
 10
-156.592114756201
 20
-115.289061857844
 11
-73.3421147562014
 21
-115.289061857844
  0
LINE
  5
3C0
100
AcDbEntity
  8
BASE
100
AcDbLine
  6
BYLAYER
 10
-156.592114756201
 20
-121.289061857844
 11
-73.3421147562014
 21
-121.289061857844
  0
LINE
  5
3C1
100
AcDbEntity
  8
BASE
100
AcDbLine
  6
BYLAYER
 10
-156.592114756201
 20
-127.289061857844
 11
-73.3421147562014
 21
-127.289061857844
  0
LINE
  5
3C2
100
AcDbEntity
  8
BASE
100
AcDbLine
  6
BYLAYER
 10
-146.592114756201
 20
-85.2890618578437
 11
-146.592114756201
 21
-133.289061857844
  0
LINE
  5
3C3
100
AcDbEntity
  8
BASE
100
AcDbLine
  6
BYLAYER
 10
-156.592114756201
 20
-85.2890618578437
 11
-156.592114756201
 21
-133.289061857844
  0
LINE
  5
3C4
100
AcDbEntity
  8
BASE
100
AcDbLine
  6
BYLAYER
 10
-136.592114756201
 20
-85.2890618578437
 11
-136.592114756201
 21
-133.289061857844
  0
TEXT
  5
3C5
100
AcDbEntity
  8
BASE
100
AcDbText
  6
BYLAYER
 10
-152.287315422519
 20
-120.581955076657
 40
3.5
  1
B
  7
Font_0
 72
1
 11
-151.412315422519
 21
-120.581955076657
100
AcDbText
  0
TEXT
  5
3C6
100
AcDbEntity
  8
BASE
100
AcDbText
  6
BYLAYER
 10
-154.338363967876
 20
-132.581955076657
 40
3.5
  1
ｶｵｦｸ
  7
Font_0
 72
1
 11
-150.838363967876
 21
-132.581955076657
100
AcDbText
  0
TEXT
  5
3C7
100
AcDbEntity
  8
BASE
100
AcDbText
  6
BYLAYER
 10
-151.961433062886
 20
-126.581955076657
 40
3.5
  1
A
  7
Font_0
 72
1
 11
-151.086433062886
 21
-126.581955076657
100
AcDbText
  0
TEXT
  5
3C8
100
AcDbEntity
  8
0
100
AcDbText
  6
BYLAYER
 10
-125.857609278239
 20
-132.019757538773
 40
3.5
  1
ｹﾏ
  7
Font_0
 11
-125.857609278239
 21
-128.519757538773
100
AcDbText
 73
3
  0
TEXT
  5
3C9
100
AcDbEntity
  8
0
100
AcDbText
  6
BYLAYER
 10
-112.160031551964
 20
-132.156603581708
 40
3.5
  1
ｸｹ
  7
Font_0
 11
-112.160031551964
 21
-128.656603581708
100
AcDbText
 73
3
  0
TEXT
  5
3CA
100
AcDbEntity
  8
BASE
100
AcDbText
  6
BYLAYER
 10
-152.150339695197
 20
-114.581955076657
 40
3.5
  1
C
  7
Font_0
 72
1
 11
-151.275339695197
 21
-114.581955076657
100
AcDbText
  0
LINE
  5
3CB
100
AcDbEntity
  8
BASE
100
AcDbLine
  6
BYLAYER
 10
-92.7050670689118
 20
-85.2890618578437
 11
-92.7050670689118
 21
-133.289061857844
  0
LINE
  5
3CC
100
AcDbEntity
  8
BASE
100
AcDbLine
  6
BYLAYER
 10
-82.7050670689118
 20
-85.2890618578437
 11
-82.7050670689118
 21
-133.289061857844
  0
TEXT
  5
3CD
100
AcDbEntity
  8
0
100
AcDbText
  6
BYLAYER
 10
-91.2050670689118
 20
-132.72329119719
 40
3.5
  1
ｪｩ･ｻ
  7
Font_0
 72
1
 11
-87.7050670689118
 21
-130.97329119719
100
AcDbText
 73
2
  0
TEXT
  5
3CE
100
AcDbEntity
  8
BASE
100
AcDbText
  6
BYLAYER
 10
-81.5235909125566
 20
-132.581955076657
 40
3.5
  1
ｼﾆｶq
  7
Font_0
 72
1
 11
-78.0235909125566
 21
-132.581955076657
100
AcDbText
  0
TEXT
  5
3CF
100
AcDbEntity
  8
BASE
100
AcDbText
  6
BYLAYER
 10
-79.1985909125566
 20
-126.581955076657
 40
3.5
  1
1
  7
Font_0
 72
1
 11
-78.3235909125566
 21
-126.581955076657
100
AcDbText
  0
TEXT
  5
3D0
100
AcDbEntity
  8
BASE
100
AcDbText
  6
BYLAYER
 10
-79.1985909125566
 20
-120.581955076657
 40
3.5
  1
1
  7
Font_0
 72
1
 11
-78.3235909125566
 21
-120.581955076657
100
AcDbText
  0
TEXT
  5
3D1
100
AcDbEntity
  8
BASE
100
AcDbText
  6
BYLAYER
 10
-79.1985909125566
 20
-114.581955076657
 40
3.5
  1
1
  7
Font_0
 72
1
 11
-78.3235909125566
 21
-114.581955076657
100
AcDbText
  0
ENDBLK
  5
3D2
100
AcDbEntity
  8
0
 67
     1
100
AcDbBlockEnd
  0
BLOCK
  5
3D3
100
AcDbEntity
  8
0
100
AcDbBlockBegin
  2
A$C520435C5
 70
    0
 10
0
 20
0
 30
0.0
  3
A$C520435C5
  1

  0
LINE
  5
3D4
100
AcDbEntity
  8
CEN
100
AcDbLine
  6
BYLAYER
 10
42.4999999576461
 20
37.5000000875314
 11
42.4999999576461
 21
8.75313617E-8
  0
CIRCLE
  5
3D5
100
AcDbEntity
  8
BASE
100
AcDbCircle
  6
BYLAYER
 10
42.4999999576461
 20
42.5000000875313
 40
31.25
  0
CIRCLE
  5
3D6
100
AcDbEntity
  8
BASE
100
AcDbCircle
  6
BYLAYER
 10
42.4999999576461
 20
42.5000000875313
 40
8
  0
CIRCLE
  5
3D7
100
AcDbEntity
  8
BASE
100
AcDbCircle
  6
BYLAYER
 10
42.4999999576461
 20
42.5000000875313
 40
25.5
  0
CIRCLE
  5
3D8
100
AcDbEntity
  8
BASE
100
AcDbCircle
  6
BYLAYER
 10
42.4999999576461
 20
42.5000000875313
 40
28.5
  0
CIRCLE
  5
3D9
100
AcDbEntity
  8
BASE
100
AcDbCircle
  6
BYLAYER
 10
42.4999999576461
 20
42.5000000875313
 40
16.25
  0
CIRCLE
  5
3DA
100
AcDbEntity
  8
BASE
100
AcDbCircle
  6
BYLAYER
 10
42.4999999576461
 20
42.5000000875313
 40
14
  0
LINE
  5
3DB
100
AcDbEntity
  8
CEN
100
AcDbLine
  6
BYLAYER
 10
47.4999999576461
 20
42.5000000875313
 11
84.9999999576461
 21
42.5000000875313
  0
LINE
  5
3DC
100
AcDbEntity
  8
CEN
100
AcDbLine
  6
BYLAYER
 10
42.4999999576461
 20
47.5000000875313
 11
42.4999999576461
 21
85.0000000875314
  0
LINE
  5
3DD
100
AcDbEntity
  8
CEN
100
AcDbLine
  6
BYLAYER
 10
37.4999999576461
 20
42.5000000875313
 11
-4.23538893E-8
 21
42.5000000875313
  0
LINE
  5
3DE
100
AcDbEntity
  8
HIDDEN
100
AcDbLine
  6
BYLAYER
 10
40.4999999576461
 20
50.2459667799462
 11
40.4999999576461
 21
44.7360680650312
  0
LINE
  5
3DF
100
AcDbEntity
  8
HIDDEN
100
AcDbLine
  6
BYLAYER
 10
44.4999999576461
 20
50.2459667799462
 11
44.4999999576461
 21
44.7360680650312
  0
LINE
  5
3E0
100
AcDbEntity
  8
HIDDEN
100
AcDbLine
  6
BYLAYER
 10
41.2999999576461
 20
50.4094880608454
 11
41.2999999576461
 21
45.2495455045049
  0
LINE
  5
3E1
100
AcDbEntity
  8
HIDDEN
100
AcDbLine
  6
BYLAYER
 10
43.6999999576461
 20
50.4094880608454
 11
43.6999999576461
 21
45.2495455045049
  0
LINE
  5
3E2
100
AcDbEntity
  8
CEN
100
AcDbLine
  6
BYLAYER
 10
42.4999999576461
 20
40.0000000875313
 11
42.4999999576461
 21
45.0000000875313
  0
CIRCLE
  5
3E3
100
AcDbEntity
  8
BASE
100
AcDbCircle
  6
BYLAYER
 10
42.4999999576461
 20
42.5000000875313
 40
3
  0
LINE
  5
3E4
100
AcDbEntity
  8
CEN
100
AcDbLine
  6
BYLAYER
 10
39.9999999576461
 20
42.5000000875313
 11
44.9999999576461
 21
42.5000000875313
  0
ENDBLK
  5
3E5
100
AcDbEntity
  8
0
 67
     1
100
AcDbBlockEnd
  0
BLOCK
  5
3E6
100
AcDbEntity
  8
0
100
AcDbBlockBegin
  2
A$C60F9129D
 70
    0
 10
0
 20
0
 30
0.0
  3
A$C60F9129D
  1

  0
LINE
  5
3E7
100
AcDbEntity
  8
BASE
100
AcDbLine
  6
BYLAYER
 10
56.8497610654588
 20
24.5009881171584
 11
72.8497610654588
 21
24.5009881171584
  0
LINE
  5
3E8
100
AcDbEntity
  8
BASE
100
AcDbLine
  6
BYLAYER
 10
56.8497610654588
 20
31.5009881171584
 11
72.8497610654588
 21
31.5009881171584
  0
LINE
  5
3E9
100
AcDbEntity
  8
BASE
100
AcDbLine
  6
BYLAYER
 10
56.8497610654588
 20
6.50098811715838
 11
72.8497610654588
 21
6.50098811715838
  0
LINE
  5
3EA
100
AcDbEntity
  8
HIDDEN
100
AcDbLine
  6
BYLAYER
 10
56.8497610654588
 20
13.5009881171584
 11
72.8497610654588
 21
13.5009881171584
  0
LINE
  5
3EB
100
AcDbEntity
  8
DIM
100
AcDbLine
  6
BYLAYER
 62
0
370
  -2
 10
52.3497610654587
 20
10.5745178828921
 11
52.3497610654587
 21
4.15013925290424
  0
LINE
  5
3EC
100
AcDbEntity
  8
DIM
100
AcDbLine
  6
BYLAYER
 62
0
370
  -2
 10
56.3497610654587
 20
9.93848811715834
 11
56.3497610654587
 21
4.15013925290424
  0
LINE
  5
3ED
100
AcDbEntity
  8
DIM
100
AcDbLine
  6
BYLAYER
 62
0
370
  -2
 10
52.5297610654587
 20
4.33013925290423
 11
56.1697610654587
 21
4.33013925290423
  0
LINE
  5
3EE
100
AcDbEntity
  8
DIM
100
AcDbLine
  6
BYLAYER
 62
0
370
  -2
 10
56.3497610654587
 20
4.33013925290423
 11
88.2797610654587
 21
4.33013925290423
  0
SOLID
  5
3EF
100
AcDbEntity
  8
DIM
100
AcDbTrace
 10
52.3497610654587
 20
4.33013925290423
 30
0.0
 11
52.5297610654587
 21
4.30013925290423
 31
0.0
 12
52.5297610654587
 22
4.36013925290423
 32
0.0
 13
52.5297610654587
 23
4.36013925290423
 33
0.0
  0
SOLID
  5
3F0
100
AcDbEntity
  8
DIM
100
AcDbTrace
 10
56.1697610654587
 20
4.36013925290423
 30
0.0
 11
56.1697610654587
 21
4.30013925290423
 31
0.0
 12
56.3497610654587
 22
4.33013925290423
 32
0.0
 13
56.3497610654587
 23
4.33013925290423
 33
0.0
  0
TEXT
  5
3F1
100
AcDbEntity
  8
DIM
 62
0
100
AcDbText
  6
BYLAYER
 62
0
 10
88.8497610654587
 20
4.24013925290423
 40
0.18
  1
4.0000
  7
Font_0
 72
1
 11
89.1197610654587
 21
4.33013925290423
100
AcDbText
 73
2
  0
LINE
  5
3F2
100
AcDbEntity
  8
DIM
100
AcDbLine
  6
BYLAYER
 62
0
370
  -2
 10
52.3497610654587
 20
10.4384881171583
 11
52.3497610654587
 21
4.76934530979634E-7
  0
LINE
  5
3F3
100
AcDbEntity
  8
DIM
100
AcDbLine
  6
BYLAYER
 62
0
370
  -2
 10
73.3497610654587
 20
6.93848811715834
 11
73.3497610654587
 21
4.76934530979634E-7
  0
LINE
  5
3F4
100
AcDbEntity
  8
DIM
100
AcDbLine
  6
BYLAYER
 62
0
370
  -2
 10
52.5297610654587
 20
0.180000476934524
 11
62.3097610654587
 21
0.180000476934524
  0
LINE
  5
3F5
100
AcDbEntity
  8
DIM
100
AcDbLine
  6
BYLAYER
 62
0
370
  -2
 10
73.1697610654587
 20
0.180000476934524
 11
63.3897610654587
 21
0.180000476934524
  0
SOLID
  5
3F6
100
AcDbEntity
  8
DIM
100
AcDbTrace
 10
52.3497610654587
 20
0.180000476934524
 30
0.0
 11
52.5297610654587
 21
0.150000476934522
 31
0.0
 12
52.5297610654587
 22
0.210000476934525
 32
0.0
 13
52.5297610654587
 23
0.210000476934525
 33
0.0
  0
SOLID
  5
3F7
100
AcDbEntity
  8
DIM
100
AcDbTrace
 10
73.1697610654587
 20
0.210000476934525
 30
0.0
 11
73.1697610654587
 21
0.150000476934522
 31
0.0
 12
73.3497610654587
 22
0.180000476934524
 32
0.0
 13
73.3497610654587
 23
0.180000476934524
 33
0.0
  0
TEXT
  5
3F8
100
AcDbEntity
  8
DIM
 62
0
100
AcDbText
  6
BYLAYER
 62
0
 10
62.5347610654587
 20
0.0900004769345236
 40
0.18
  1
21.0000
  7
Font_0
 72
1
 11
62.8497610654587
 21
0.180000476934524
100
AcDbText
 73
2
  0
LINE
  5
3F9
100
AcDbEntity
  8
DIM
100
AcDbLine
  6
BYLAYER
 62
0
370
  -2
 10
65.3497610654587
 20
31.5634881171583
 11
65.3497610654587
 21
35.4088867475892
  0
LINE
  5
3FA
100
AcDbEntity
  8
DIM
100
AcDbLine
  6
BYLAYER
 62
0
370
  -2
 10
73.3497610654587
 20
31.0634881171583
 11
73.3497610654587
 21
35.4088867475892
  0
LINE
  5
3FB
100
AcDbEntity
  8
DIM
100
AcDbLine
  6
BYLAYER
 62
0
370
  -2
 10
65.5297610654587
 20
35.2288867475892
 11
68.8697610654587
 21
35.2288867475892
  0
LINE
  5
3FC
100
AcDbEntity
  8
DIM
100
AcDbLine
  6
BYLAYER
 62
0
370
  -2
 10
73.1697610654587
 20
35.2288867475892
 11
69.8297610654587
 21
35.2288867475892
  0
SOLID
  5
3FD
100
AcDbEntity
  8
DIM
100
AcDbTrace
 10
65.3497610654587
 20
35.2288867475892
 30
0.0
 11
65.5297610654587
 21
35.1988867475892
 31
0.0
 12
65.5297610654587
 22
35.2588867475892
 32
0.0
 13
65.5297610654587
 23
35.2588867475892
 33
0.0
  0
SOLID
  5
3FE
100
AcDbEntity
  8
DIM
100
AcDbTrace
 10
73.1697610654587
 20
35.2588867475892
 30
0.0
 11
73.1697610654587
 21
35.1988867475892
 31
0.0
 12
73.3497610654587
 22
35.2288867475892
 32
0.0
 13
73.3497610654587
 23
35.2288867475892
 33
0.0
  0
TEXT
  5
3FF
100
AcDbEntity
  8
DIM
 62
0
100
AcDbText
  6
BYLAYER
 62
0
 10
69.0797610654587
 20
35.1388867475892
 40
0.18
  1
8.0000
  7
Font_0
 72
1
 11
69.3497610654587
 21
35.2288867475892
100
AcDbText
 73
2
  0
LINE
  5
400
100
AcDbEntity
  8
BASE
100
AcDbLine
  6
BYLAYER
 10
52.3497610654588
 20
27.2289285856908
 11
52.3497610654588
 21
10.773047648626
  0
LINE
  5
401
100
AcDbEntity
  8
DIM
100
AcDbLine
  6
BYLAYER
 62
0
370
  -2
 10
54.2872610654587
 20
26.5009881171583
 11
48.3699477433158
 21
26.5009881171583
  0
LINE
  5
402
100
AcDbEntity
  8
DIM
100
AcDbLine
  6
BYLAYER
 62
0
370
  -2
 10
54.2872610654587
 20
11.5009881171583
 11
48.3699477433158
 21
11.5009881171583
  0
LINE
  5
403
100
AcDbEntity
  8
DIM
100
AcDbLine
  6
BYLAYER
 62
0
370
  -2
 10
48.5499477433158
 20
26.3209881171583
 11
48.5499477433158
 21
19.1809881171583
  0
LINE
  5
404
100
AcDbEntity
  8
DIM
100
AcDbLine
  6
BYLAYER
 62
0
370
  -2
 10
48.5499477433158
 20
11.6809881171583
 11
48.5499477433158
 21
18.8209881171583
  0
SOLID
  5
405
100
AcDbEntity
  8
DIM
100
AcDbTrace
 10
48.5199477433158
 20
26.3209881171583
 30
0.0
 11
48.5799477433158
 21
26.3209881171583
 31
0.0
 12
48.5499477433158
 22
26.5009881171583
 32
0.0
 13
48.5499477433158
 23
26.5009881171583
 33
0.0
  0
SOLID
  5
406
100
AcDbEntity
  8
DIM
100
AcDbTrace
 10
48.5499477433158
 20
11.5009881171583
 30
0.0
 11
48.5799477433158
 21
11.6809881171583
 31
0.0
 12
48.5199477433158
 22
11.6809881171583
 32
0.0
 13
48.5199477433158
 23
11.6809881171583
 33
0.0
  0
TEXT
  5
407
100
AcDbEntity
  8
DIM
 62
0
100
AcDbText
  6
BYLAYER
 62
0
 10
48.3699477433157
 20
18.9109881171583
 40
0.18
  1
Φ15
  7
Font_0
 72
1
 11
48.5499477433157
 21
19.0009881171583
100
AcDbText
 73
2
  0
LINE
  5
408
100
AcDbEntity
  8
CEN
100
AcDbLine
  6
BYLAYER
 10
14.9999989478504
 20
34.0009881171584
 11
14.9999989478504
 21
4.00098811715838
  0
LINE
  5
409
100
AcDbEntity
  8
DIM
100
AcDbLine
  6
BYLAYER
 62
0
370
  -2
 10
52.7872610654587
 20
28.0009881171583
 11
44.3126344211728
 21
28.0009881171583
  0
LINE
  5
40A
100
AcDbEntity
  8
DIM
100
AcDbLine
  6
BYLAYER
 62
0
370
  -2
 10
52.7872610654587
 20
10.0009881171583
 11
44.3126344211728
 21
10.0009881171583
  0
LINE
  5
40B
100
AcDbEntity
  8
DIM
100
AcDbLine
  6
BYLAYER
 62
0
370
  -2
 10
44.4926344211728
 20
27.8209881171583
 11
44.4926344211728
 21
19.1809881171583
  0
LINE
  5
40C
100
AcDbEntity
  8
DIM
100
AcDbLine
  6
BYLAYER
 62
0
370
  -2
 10
44.4926344211728
 20
10.1809881171583
 11
44.4926344211728
 21
18.8209881171583
  0
SOLID
  5
40D
100
AcDbEntity
  8
DIM
100
AcDbTrace
 10
44.4626344211728
 20
27.8209881171583
 30
0.0
 11
44.5226344211728
 21
27.8209881171583
 31
0.0
 12
44.4926344211728
 22
28.0009881171583
 32
0.0
 13
44.4926344211728
 23
28.0009881171583
 33
0.0
  0
SOLID
  5
40E
100
AcDbEntity
  8
DIM
100
AcDbTrace
 10
44.4926344211728
 20
10.0009881171583
 30
0.0
 11
44.5226344211728
 21
10.1809881171583
 31
0.0
 12
44.4626344211728
 22
10.1809881171583
 32
0.0
 13
44.4626344211728
 23
10.1809881171583
 33
0.0
  0
TEXT
  5
40F
100
AcDbEntity
  8
DIM
 62
0
100
AcDbText
  6
BYLAYER
 62
0
 10
44.3126344211728
 20
18.9109881171583
 40
0.18
  1
Φ18
  7
Font_0
 72
1
 11
44.4926344211728
 21
19.0009881171583
100
AcDbText
 73
2
  0
LINE
  5
410
100
AcDbEntity
  8
DIM
100
AcDbLine
  6
BYLAYER
 62
0
370
  -2
 10
18.304178717982
 20
14.0432567041127
 11
18.124178717982
 21
14.0432567041127
  0
LINE
  5
411
100
AcDbEntity
  8
DIM
100
AcDbLine
  6
BYLAYER
 62
0
370
  -2
 10
18.124178717982
 20
14.0432567041127
 11
18.028214151664
 21
14.1955419693598
  0
TEXT
  5
412
100
AcDbEntity
  8
DIM
 62
0
100
AcDbText
  6
BYLAYER
 62
0
 10
18.859178717982
 20
13.9532567041127
 40
0.18
  1
φ11.0000
  7
Font_0
 72
1
 11
19.264178717982
 21
14.0432567041127
100
AcDbText
 73
2
  0
SOLID
  5
413
100
AcDbEntity
  8
DIM
100
AcDbTrace
 10
17.9322495853459
 20
14.347827234607
 30
0.0
 11
18.0028332741228
 21
14.1795478749735
 31
0.0
 12
18.0535950292052
 22
14.2115360637462
 32
0.0
 13
18.0535950292052
 23
14.2115360637462
 33
0.0
  0
LINE
  5
414
100
AcDbEntity
  8
DIM
100
AcDbLine
  6
BYLAYER
 62
0
370
  -2
 10
14.9099989478502
 20
19.0009881171583
 11
15.0899989478502
 21
19.0009881171583
  0
LINE
  5
415
100
AcDbEntity
  8
DIM
100
AcDbLine
  6
BYLAYER
 62
0
370
  -2
 10
14.9999989478503
 20
18.9109881171583
 11
14.9999989478502
 21
19.0909881171583
  0
CIRCLE
  5
416
100
AcDbEntity
  8
BASE
100
AcDbCircle
  6
BYLAYER
 10
14.9999989478504
 20
19.0009881171584
 40
12.5
  0
CIRCLE
  5
417
100
AcDbEntity
  8
BASE
100
AcDbCircle
  6
BYLAYER
 10
14.9999989478504
 20
19.0009881171584
 40
9
  0
CIRCLE
  5
418
100
AcDbEntity
  8
BASE
100
AcDbCircle
  6
BYLAYER
 10
14.9999989478504
 20
19.0009881171584
 40
5.5
  0
CIRCLE
  5
419
100
AcDbEntity
  8
BASE
100
AcDbCircle
  6
BYLAYER
 10
14.9999989478504
 20
19.0009881171584
 40
7.5
  0
LINE
  5
41A
100
AcDbEntity
  8
DIM
100
AcDbLine
  6
BYLAYER
 62
0
370
  -2
 10
9.605148122294
 20
30.756196786816
 11
9.78514812229399
 21
30.756196786816
  0
LINE
  5
41B
100
AcDbEntity
  8
DIM
100
AcDbLine
  6
BYLAYER
 62
0
370
  -2
 10
9.78514812229399
 20
30.756196786816
 11
9.85813981347599
 21
30.5916604290758
  0
TEXT
  5
41C
100
AcDbEntity
  8
DIM
 62
0
100
AcDbText
  6
BYLAYER
 62
0
 10
8.54014812229399
 20
30.6661967868159
 40
0.18
  1
φ25.0000
  7
Font_0
 72
1
 11
8.94514812229399
 21
30.7561967868159
100
AcDbText
 73
2
  0
SOLID
  5
41D
100
AcDbEntity
  8
DIM
100
AcDbTrace
 10
9.885562539766
 20
30.6038257109395
 30
0.0
 11
9.83071708718599
 21
30.5794951472122
 31
0.0
 12
9.931131504658
 22
30.4271240713357
 32
0.0
 13
9.931131504658
 23
30.4271240713357
 33
0.0
  0
LINE
  5
41E
100
AcDbEntity
  8
DIM
100
AcDbLine
  6
BYLAYER
 62
0
370
  -2
 10
14.9099989478503
 20
19.0009881171583
 11
15.0899989478503
 21
19.0009881171583
  0
LINE
  5
41F
100
AcDbEntity
  8
DIM
100
AcDbLine
  6
BYLAYER
 62
0
370
  -2
 10
14.9999989478504
 20
18.9109881171583
 11
14.9999989478504
 21
19.0909881171583
  0
LINE
  5
420
100
AcDbEntity
  8
BASE
100
AcDbLine
  6
BYLAYER
 10
56.3497610654588
 20
7.00098811715838
 11
56.3497610654588
 21
10.0009881171584
  0
LINE
  5
421
100
AcDbEntity
  8
BASE
100
AcDbLine
  6
BYLAYER
 10
56.3497610654588
 20
7.00098811715838
 11
56.8497610654588
 21
6.50098811715838
  0
LINE
  5
422
100
AcDbEntity
  8
HIDDEN
100
AcDbLine
  6
BYLAYER
 10
56.3497610654588
 20
11.5009881171584
 11
56.3497610654588
 21
13.0009881171584
  0
LINE
  5
423
100
AcDbEntity
  8
HIDDEN
100
AcDbLine
  6
BYLAYER
 10
56.3497610654588
 20
13.0009881171584
 11
56.8497610654588
 21
13.5009881171584
  0
LINE
  5
424
100
AcDbEntity
  8
BASE
100
AcDbLine
  6
BYLAYER
 10
52.3497610654588
 20
10.5009881171584
 11
52.3497610654588
 21
10.773047648626
  0
LINE
  5
425
100
AcDbEntity
  8
BASE
100
AcDbLine
  6
BYLAYER
 10
52.8497610654588
 20
10.0009881171584
 11
52.3497610654588
 21
10.5009881171584
  0
LINE
  5
426
100
AcDbEntity
  8
HIDDEN
100
AcDbLine
  6
BYLAYER
 10
54.3497610654588
 20
11.5009881171584
 11
52.3497610654588
 21
10.773047648626
  0
LINE
  5
427
100
AcDbEntity
  8
BASE
100
AcDbLine
  6
BYLAYER
 10
52.8497610654588
 20
10.0009881171584
 11
56.3497610654588
 21
10.0009881171584
  0
LINE
  5
428
100
AcDbEntity
  8
HIDDEN
100
AcDbLine
  6
BYLAYER
 10
54.3497610654587
 20
11.5009881171584
 11
56.3497610654588
 21
11.5009881171584
  0
TEXT
  5
429
100
AcDbEntity
  8
DIM
100
AcDbText
  6
BYLAYER
 10
39.4059876884986
 20
36.6122833856465
 40
2
  1
M6x1.0x10L､ｺ､ｻｨ､ﾁｳｵｷ
  7
Font_0
 72
2
 11
59.4059876884986
 21
36.6122833856465
100
AcDbText
  0
LINE
  5
42A
100
AcDbEntity
  8
CEN
100
AcDbLine
  6
BYLAYER
 10
-1.0521496279E-6
 20
19.0009881171584
 11
29.9999989478504
 21
19.0009881171584
  0
LINE
  5
42B
100
AcDbEntity
  8
HIDDEN
100
AcDbLine
  6
BYLAYER
 10
14.9999989478504
 20
24.5009881171584
 11
14.9999989478504
 21
31.5009881171584
  0
LINE
  5
42C
100
AcDbEntity
  8
HIDDEN
100
AcDbLine
  6
BYLAYER
 10
12.7999989478504
 20
24.0418213816098
 11
12.7999989478504
 21
31.3058651990313
  0
LINE
  5
42D
100
AcDbEntity
  8
HIDDEN
100
AcDbLine
  6
BYLAYER
 10
11.9999989478504
 20
23.6107603458048
 11
11.9999989478504
 21
31.13564921667
  0
LINE
  5
42E
100
AcDbEntity
  8
HIDDEN
100
AcDbLine
  6
BYLAYER
 10
17.1999989478504
 20
24.0418213816098
 11
17.1999989478504
 21
31.3058651990313
  0
LINE
  5
42F
100
AcDbEntity
  8
HIDDEN
100
AcDbLine
  6
BYLAYER
 10
17.9999989478504
 20
23.6107603458048
 11
17.9999989478504
 21
31.13564921667
  0
LINE
  5
430
100
AcDbEntity
  8
CEN
100
AcDbLine
  6
BYLAYER
 10
65.3497610654588
 20
31.5009881171584
 11
65.3497610654588
 21
24.5009881171584
  0
LINE
  5
431
100
AcDbEntity
  8
BASE
100
AcDbLine
  6
BYLAYER
 10
62.3497610654588
 20
31.5009881171584
 11
62.3497610654588
 21
24.5009881171584
  0
LINE
  5
432
100
AcDbEntity
  8
BASE
100
AcDbLine
  6
BYLAYER
 10
68.3497610654588
 20
31.5009881171584
 11
68.3497610654588
 21
24.5009881171584
  0
LINE
  5
433
100
AcDbEntity
  8
BASE
100
AcDbLine
  6
BYLAYER
 10
56.8497610654588
 20
24.5009881171584
 11
56.3497610654588
 21
25.0009881171584
  0
LINE
  5
434
100
AcDbEntity
  8
DIM
100
AcDbLine
  6
BYLAYER
 62
0
370
  -2
 10
52.3497610654587
 20
27.1664285856907
 11
52.3497610654587
 21
23.0349796425414
  0
LINE
  5
435
100
AcDbEntity
  8
DIM
100
AcDbLine
  6
BYLAYER
 62
0
370
  -2
 10
56.3497610654587
 20
26.4384881171583
 11
56.3497610654587
 21
23.0349796425414
  0
LINE
  5
436
100
AcDbEntity
  8
DIM
100
AcDbLine
  6
BYLAYER
 62
0
370
  -2
 10
52.5297610654587
 20
23.2149796425414
 11
53.8697610654587
 21
23.2149796425414
  0
LINE
  5
437
100
AcDbEntity
  8
DIM
100
AcDbLine
  6
BYLAYER
 62
0
370
  -2
 10
56.1697610654587
 20
23.2149796425414
 11
54.8297610654587
 21
23.2149796425414
  0
SOLID
  5
438
100
AcDbEntity
  8
DIM
100
AcDbTrace
 10
52.3497610654587
 20
23.2149796425414
 30
0.0
 11
52.5297610654587
 21
23.1849796425414
 31
0.0
 12
52.5297610654587
 22
23.2449796425414
 32
0.0
 13
52.5297610654587
 23
23.2449796425414
 33
0.0
  0
SOLID
  5
439
100
AcDbEntity
  8
DIM
100
AcDbTrace
 10
56.1697610654587
 20
23.2449796425414
 30
0.0
 11
56.1697610654587
 21
23.1849796425414
 31
0.0
 12
56.3497610654587
 22
23.2149796425414
 32
0.0
 13
56.3497610654587
 23
23.2149796425414
 33
0.0
  0
TEXT
  5
43A
100
AcDbEntity
  8
DIM
 62
0
100
AcDbText
  6
BYLAYER
 62
0
 10
54.0797610654587
 20
23.1249796425414
 40
0.18
  1
4.0000
  7
Font_0
 72
1
 11
54.3497610654587
 21
23.2149796425414
100
AcDbText
 73
2
  0
LINE
  5
43B
100
AcDbEntity
  8
BASE
100
AcDbLine
  6
BYLAYER
 10
56.3497610654588
 20
31.0009881171584
 11
56.3497610654588
 21
28.0009881171584
  0
LINE
  5
43C
100
AcDbEntity
  8
BASE
100
AcDbLine
  6
BYLAYER
 10
56.3497610654588
 20
31.0009881171584
 11
56.8497610654588
 21
31.5009881171584
  0
LINE
  5
43D
100
AcDbEntity
  8
BASE
100
AcDbLine
  6
BYLAYER
 10
52.3497610654588
 20
27.5009881171584
 11
52.3497610654588
 21
27.2289285856908
  0
LINE
  5
43E
100
AcDbEntity
  8
BASE
100
AcDbLine
  6
BYLAYER
 10
52.8497610654588
 20
28.0009881171584
 11
52.3497610654588
 21
27.5009881171584
  0
LINE
  5
43F
100
AcDbEntity
  8
BASE
100
AcDbLine
  6
BYLAYER
 10
52.8497610654588
 20
28.0009881171584
 11
56.3497610654588
 21
28.0009881171584
  0
LINE
  5
440
100
AcDbEntity
  8
BASE
100
AcDbLine
  6
BYLAYER
 10
56.3497610654588
 20
26.5009881171584
 11
56.3497610654588
 21
25.0009881171584
  0
LINE
  5
441
100
AcDbEntity
  8
BASE
100
AcDbLine
  6
BYLAYER
 10
54.3497610654587
 20
26.5009881171584
 11
56.3497610654588
 21
26.5009881171584
  0
LINE
  5
442
100
AcDbEntity
  8
BASE
100
AcDbLine
  6
BYLAYER
 10
54.3497610654588
 20
26.5009881171584
 11
52.3497610654588
 21
27.2289285856908
  0
LINE
  5
443
100
AcDbEntity
  8
BASE
100
AcDbLine
  6
BYLAYER
 10
73.3497610654588
 20
25.0009881171584
 11
73.3497610654588
 21
13.0009881171584
  0
LINE
  5
444
100
AcDbEntity
  8
BASE
100
AcDbLine
  6
BYLAYER
 10
73.3497610654588
 20
7.00098811715838
 11
73.3497610654588
 21
13.0009881171584
  0
LINE
  5
445
100
AcDbEntity
  8
BASE
100
AcDbLine
  6
BYLAYER
 10
72.8497610654588
 20
6.50098811715838
 11
73.3497610654588
 21
7.00098811715838
  0
LINE
  5
446
100
AcDbEntity
  8
HIDDEN
100
AcDbLine
  6
BYLAYER
 10
72.8497610654588
 20
13.5009881171584
 11
73.3497610654588
 21
13.0009881171584
  0
LINE
  5
447
100
AcDbEntity
  8
BASE
100
AcDbLine
  6
BYLAYER
 10
72.8497610654588
 20
24.5009881171584
 11
73.3497610654588
 21
25.0009881171584
  0
LINE
  5
448
100
AcDbEntity
  8
BASE
100
AcDbLine
  6
BYLAYER
 10
72.8497610654588
 20
31.5009881171584
 11
73.3497610654588
 21
31.0009881171584
  0
LINE
  5
449
100
AcDbEntity
  8
BASE
100
AcDbLine
  6
BYLAYER
 10
73.3497610654588
 20
31.0009881171584
 11
73.3497610654588
 21
25.0009881171584
  0
ENDBLK
  5
44A
100
AcDbEntity
  8
0
 67
     1
100
AcDbBlockEnd
  0
BLOCK
  5
44B
100
AcDbEntity
  8
0
100
AcDbBlockBegin
  2
A
 70
    0
 10
0
 20
0
 30
0.0
  3
A
  1

  0
TEXT
  5
44C
100
AcDbEntity
  8
0
100
AcDbText
  6
BYLAYER
 10
127.674651975441
 20
244.795661972877
 40
2.5
  1
a
  7
Font_0
100
AcDbText
  0
LWPOLYLINE
  5
44D
100
AcDbEntity
  8
0
100
AcDbPolyline
  6
BYLAYER
370
0
 90
     3
 70
     1
 10
126.71643944311
  20
244.632620693086
 10
129.71643944311
  20
244.632620693086
 10
128.21643944311
  20
247.230696904439
  0
ENDBLK
  5
44E
100
AcDbEntity
  8
0
 67
     1
100
AcDbBlockEnd
  0
BLOCK
  5
44F
100
AcDbEntity
  8
0
100
AcDbBlockBegin
  2
B
 70
    0
 10
0
 20
0
 30
0.0
  3
B
  1

  0
LWPOLYLINE
  5
450
100
AcDbEntity
  8
0
100
AcDbPolyline
  6
BYLAYER
370
0
 90
     3
 70
     1
 10
131.70249874082
  20
244.288443720077
 10
135.28174293015
  20
244.288443720077
 10
133.492120835485
  20
247.388160114384
  0
TEXT
  5
451
100
AcDbEntity
  8
0
100
AcDbText
  6
BYLAYER
 10
132.758464625955
 20
244.383450143826
 40
2.5
  1
b
  7
Font_0
100
AcDbText
  0
ENDBLK
  5
452
100
AcDbEntity
  8
0
 67
     1
100
AcDbBlockEnd
  0
BLOCK
  5
453
100
AcDbEntity
  8
0
100
AcDbBlockBegin
  2
C
 70
    0
 10
0
 20
0
 30
0.0
  3
C
  1

  0
LWPOLYLINE
  5
454
100
AcDbEntity
  8
0
100
AcDbPolyline
  6
BYLAYER
370
0
 90
     3
 70
     1
 10
135.509916074992
  20
244.473484482901
 10
139.001038434513
  20
244.473484482901
 10
137.255477254752
  20
247.496885133966
  0
TEXT
  5
455
100
AcDbEntity
  8
0
100
AcDbText
  6
BYLAYER
 10
136.382181305809
 20
244.594791834341
 40
2.5
  1
c
  7
Font_0
100
AcDbText
  0
ENDBLK
  5
456
100
AcDbEntity
  8
0
 67
     1
100
AcDbBlockEnd
  0
BLOCK
  5
457
100
AcDbEntity
  8
0
100
AcDbBlockBegin
  2
D
 70
    0
 10
0
 20
0
 30
0.0
  3
D
  1

  0
LWPOLYLINE
  5
458
100
AcDbEntity
  8
0
100
AcDbPolyline
  6
BYLAYER
370
0
 90
     3
 70
     1
 10
140.763374439689
  20
244.465698913845
 10
144.291976798415
  20
244.465698913845
 10
142.527675619052
  20
247.521558196355
  0
TEXT
  5
459
100
AcDbEntity
  8
0
100
AcDbText
  6
BYLAYER
 10
141.593202675708
 20
244.519464650768
 40
2.5
  1
d
  7
Font_0
100
AcDbText
  0
ENDBLK
  5
45A
100
AcDbEntity
  8
0
 67
     1
100
AcDbBlockEnd
  0
BLOCK
  5
45B
100
AcDbEntity
  8
0
100
AcDbBlockBegin
  2
A4ｹﾏｮﾘ_JAME_
 70
    0
 10
0
 20
0
 30
0.0
  3
A4ｹﾏｮﾘ_JAME_
  1

  0
POINT
  5
45C
100
AcDbEntity
  8
7475A
100
AcDbPoint
 10
289
 20
0
  0
TEXT
  5
45D
100
AcDbEntity
  8
0
100
AcDbText
  6
BYLAYER
 10
3.82484782096731
 20
38.4479746826859
 40
5
  1
ｦCｦL､魘ﾁ :
  7
Font_0
100
AcDbText
  0
LINE
  5
45E
100
AcDbEntity
  8
0
100
AcDbLine
  6
BYLAYER
 10
49.4
 20
12
 11
49.4
 21
6
  0
TEXT
  5
45F
100
AcDbEntity
  8
TEXT
100
AcDbText
  6
BYLAYER
 10
129
 20
19
 40
3.5
  1
JAME
  7
Font_0
100
AcDbText
  0
TEXT
  5
460
100
AcDbEntity
  8
TEXT
100
AcDbText
  6
BYLAYER
 10
179
 20
7
 40
3.5
 41
0.8
  1
20020101
  7
Font_0
100
AcDbText
  0
TEXT
  5
461
100
AcDbEntity
  8
TEXT
100
AcDbText
  6
BYLAYER
 10
179
 20
19
 40
3.5
  1
M/M
  7
Font_0
100
AcDbText
  0
TEXT
  5
462
100
AcDbEntity
  8
TEXT
100
AcDbText
  6
BYLAYER
 10
179
 20
25
 40
3.5
  1
1
  7
Font_0
100
AcDbText
  0
INSERT
  5
463
100
AcDbEntity
  8
0
100
AcDbBlockReference
  6
CONTINUOUS
  2
JAME
 10
0
 20
0
 30
0.0
  0
ENDBLK
  5
464
100
AcDbEntity
  8
0
 67
     1
100
AcDbBlockEnd
  0
BLOCK
  5
465
100
AcDbEntity
  8
0
100
AcDbBlockBegin
  2
A$C232243C3
 70
    0
 10
0
 20
0
 30
0.0
  3
A$C232243C3
  1

  0
LINE
  5
466
100
AcDbEntity
  8
HATCH
100
AcDbLine
  6
BYLAYER
 62
0
370
  -2
 10
1077.75523185997
 20
283.938843176564
 11
1077.75523185997
 21
520.444597086082
  0
LINE
  5
467
100
AcDbEntity
  8
HATCH
100
AcDbLine
  6
BYLAYER
 62
0
370
  -2
 10
587.193152610175
 20
304.349407323449
 11
587.193152610175
 21
520.444597086082
  0
LINE
  5
468
100
AcDbEntity
  8
HATCH
100
AcDbLine
  6
BYLAYER
 62
0
370
  -2
 10
1065.25523185997
 20
517.944597086082
 11
846.532335877919
 21
517.944597086082
  0
LINE
  5
469
100
AcDbEntity
  8
HATCH
100
AcDbLine
  6
BYLAYER
 62
0
370
  -2
 10
599.693152610175
 20
517.944597086082
 11
790.699002544586
 21
517.944597086082
  0
SOLID
  5
46A
100
AcDbEntity
  8
HATCH
100
AcDbTrace
 10
1065.25523185997
 20
520.027930419415
 30
0.0
 11
1065.25523185997
 21
515.861263752749
 31
0.0
 12
1077.75523185997
 22
517.944597086082
 32
0.0
 13
1077.75523185997
 23
517.944597086082
 33
0.0
  0
SOLID
  5
46B
100
AcDbEntity
  8
HATCH
100
AcDbTrace
 10
587.193152610175
 20
517.944597086082
 30
0.0
 11
599.693152610175
 21
515.861263752749
 31
0.0
 12
599.693152610175
 22
520.027930419415
 32
0.0
 13
599.693152610175
 23
520.027930419415
 33
0.0
  0
TEXT
  5
46C
100
AcDbEntity
  8
HATCH
 62
0
100
AcDbText
  6
BYLAYER
 62
0
 10
805.490669211252
 20
509.194597086082
 40
17.5
  1
491
  7
Font_0
 72
1
 11
818.615669211252
 21
517.944597086082
100
AcDbText
 73
2
  0
LINE
  5
46D
100
AcDbEntity
  8
HATCH
100
AcDbLine
  6
BYLAYER
 62
0
370
  -2
 10
1055.19315752893
 20
54.3494082725776
 11
1055.19315752893
 21
6.24999914067394
  0
LINE
  5
46E
100
AcDbEntity
  8
HATCH
100
AcDbLine
  6
BYLAYER
 62
0
370
  -2
 10
715.193157528928
 20
54.3494082725777
 11
715.193157528928
 21
6.24999914067394
  0
LINE
  5
46F
100
AcDbEntity
  8
HATCH
100
AcDbLine
  6
BYLAYER
 62
0
370
  -2
 10
1042.69315752893
 20
8.74999914067394
 11
914.568157528928
 21
8.74999914067394
  0
LINE
  5
470
100
AcDbEntity
  8
HATCH
100
AcDbLine
  6
BYLAYER
 62
0
370
  -2
 10
727.693157528928
 20
8.74999914067394
 11
855.818157528928
 21
8.74999914067394
  0
SOLID
  5
471
100
AcDbEntity
  8
HATCH
100
AcDbTrace
 10
1042.69315752893
 20
10.8333324740073
 30
0.0
 11
1042.69315752893
 21
6.66666580734061
 31
0.0
 12
1055.19315752893
 22
8.74999914067394
 32
0.0
 13
1055.19315752893
 23
8.74999914067394
 33
0.0
  0
SOLID
  5
472
100
AcDbEntity
  8
HATCH
100
AcDbTrace
 10
715.193157528928
 20
8.74999914067394
 30
0.0
 11
727.693157528928
 21
6.66666580734061
 31
0.0
 12
727.693157528928
 22
10.8333324740073
 32
0.0
 13
727.693157528928
 23
10.8333324740073
 33
0.0
  0
TEXT
  5
473
100
AcDbEntity
  8
HATCH
 62
0
100
AcDbText
  6
BYLAYER
 62
0
 10
872.068157528928
 20
-8.59326064528432E-7
 40
17.5
  1
340
  7
Font_0
 72
1
 11
885.193157528928
 21
8.74999914067394
100
AcDbText
 73
2
  0
LINE
  5
474
100
AcDbEntity
  8
HATCH
100
AcDbLine
  6
BYLAYER
 62
0
370
  -2
 10
1039.19315752893
 20
54.3494082725776
 11
1039.19315752893
 21
36.1990043204336
  0
LINE
  5
475
100
AcDbEntity
  8
HATCH
100
AcDbLine
  6
BYLAYER
 62
0
370
  -2
 10
731.193157528928
 20
54.3494082725768
 11
731.193157528928
 21
36.1990043204336
  0
LINE
  5
476
100
AcDbEntity
  8
HATCH
100
AcDbLine
  6
BYLAYER
 62
0
370
  -2
 10
1026.69315752893
 20
38.6990043204336
 11
914.568157528928
 21
38.6990043204336
  0
LINE
  5
477
100
AcDbEntity
  8
HATCH
100
AcDbLine
  6
BYLAYER
 62
0
370
  -2
 10
743.693157528928
 20
38.6990043204336
 11
855.818157528928
 21
38.6990043204336
  0
SOLID
  5
478
100
AcDbEntity
  8
HATCH
100
AcDbTrace
 10
1026.69315752893
 20
40.7823376537669
 30
0.0
 11
1026.69315752893
 21
36.6156709871002
 31
0.0
 12
1039.19315752893
 22
38.6990043204336
 32
0.0
 13
1039.19315752893
 23
38.6990043204336
 33
0.0
  0
SOLID
  5
479
100
AcDbEntity
  8
HATCH
100
AcDbTrace
 10
731.193157528928
 20
38.6990043204336
 30
0.0
 11
743.693157528928
 21
36.6156709871002
 31
0.0
 12
743.693157528928
 22
40.7823376537669
 32
0.0
 13
743.693157528928
 23
40.7823376537669
 33
0.0
  0
TEXT
  5
47A
100
AcDbEntity
  8
HATCH
 62
0
100
AcDbText
  6
BYLAYER
 62
0
 10
872.068157528928
 20
29.9490043204336
 40
17.5
  1
308
  7
Font_0
 72
1
 11
885.193157528928
 21
38.6990043204336
100
AcDbText
 73
2
  0
LINE
  5
47B
100
AcDbEntity
  8
HATCH
100
AcDbLine
  6
BYLAYER
 62
0
370
  -2
 10
900.645993538187
 20
465.484437948058
 11
1127.23855872248
 21
465.484437948058
  0
LINE
  5
47C
100
AcDbEntity
  8
HATCH
100
AcDbLine
  6
BYLAYER
 62
0
370
  -2
 10
1057.69315752893
 20
56.8494082725776
 11
1127.23855872248
 21
56.8494082725776
  0
LINE
  5
47D
100
AcDbEntity
  8
HATCH
100
AcDbLine
  6
BYLAYER
 62
0
370
  -2
 10
1124.73855872248
 20
452.984437948058
 11
1124.73855872248
 21
290.541923110319
  0
LINE
  5
47E
100
AcDbEntity
  8
HATCH
100
AcDbLine
  6
BYLAYER
 62
0
370
  -2
 10
1124.73855872248
 20
69.3494082725776
 11
1124.73855872248
 21
231.791923110319
  0
SOLID
  5
47F
100
AcDbEntity
  8
HATCH
100
AcDbTrace
 10
1122.65522538914
 20
452.984437948058
 30
0.0
 11
1126.82189205581
 21
452.984437948058
 31
0.0
 12
1124.73855872248
 22
465.484437948058
 32
0.0
 13
1124.73855872248
 23
465.484437948058
 33
0.0
  0
SOLID
  5
480
100
AcDbEntity
  8
HATCH
100
AcDbTrace
 10
1124.73855872248
 20
56.8494082725776
 30
0.0
 11
1126.82189205581
 21
69.3494082725776
 31
0.0
 12
1122.65522538914
 22
69.3494082725776
 32
0.0
 13
1122.65522538914
 23
69.3494082725776
 33
0.0
  0
TEXT
  5
481
100
AcDbEntity
  8
HATCH
 62
0
100
AcDbText
  6
BYLAYER
 62
0
 10
1133.48855872248
 20
248.041923110319
 40
17.5
  1
409
  7
Font_0
 50
90
 72
1
 11
1124.73855872248
 21
261.166923110319
100
AcDbText
 73
2
  0
CIRCLE
  5
482
100
AcDbEntity
  8
0
100
AcDbCircle
  6
BYLAYER
 10
885.193157528928
 20
296.849408272578
 40
140
  0
CIRCLE
  5
483
100
AcDbEntity
  8
0
100
AcDbCircle
  6
BYLAYER
 10
885.193157528928
 20
296.849408272578
 40
141.5
  0
CIRCLE
  5
484
100
AcDbEntity
  8
0
100
AcDbCircle
  6
BYLAYER
 10
885.193157528928
 20
296.849408272578
 40
100
  0
CIRCLE
  5
485
100
AcDbEntity
  8
0
100
AcDbCircle
  6
BYLAYER
 10
885.193157528928
 20
296.849408272578
 40
101
  0
LINE
  5
486
100
AcDbEntity
  8
0
100
AcDbLine
  6
BYLAYER
370
0
 10
700.193157528928
 20
322.849408272578
 11
739.293059149309
 21
322.849408272578
  0
ARC
  5
487
100
AcDbEntity
  8
0
100
AcDbCircle
  6
BYLAYER
370
0
 10
889.16192763317
 20
309.253536505805
 40
150.484303067566
100
AcDbArc
 50
148.965648313151
 51
-185.183595453595
  0
ARC
  5
488
100
AcDbEntity
  8
0
100
AcDbCircle
  6
BYLAYER
370
0
 10
899.295290451237
 20
303.156525967338
 40
162.310485017324
100
AcDbArc
 50
94.0987686919542
 51
-211.03435168685
  0
ARC
  5
489
100
AcDbEntity
  8
0
100
AcDbCircle
  6
BYLAYER
370
0
 10
900.085484102697
 20
292.129433099738
 40
173.365853989795
100
AcDbArc
 50
49.8093671327703
 51
-265.901231308045
  0
ARC
  5
48A
100
AcDbEntity
  8
0
100
AcDbCircle
  6
BYLAYER
370
0
 10
892.320937851022
 20
282.938285858883
 40
185.397701981582
100
AcDbArc
 50
4.5159292908768
 51
-310.19063286723
  0
ARC
  5
48B
100
AcDbEntity
  8
0
100
AcDbCircle
  6
BYLAYER
370
0
 10
880.323178665167
 20
281.990685398893
 40
197.432824420243
100
AcDbArc
 50
2.81669922590409E-11
 51
-355.484070709121
  0
ARC
  5
48C
100
AcDbEntity
  8
0
100
AcDbCircle
  6
BYLAYER
370
0
 10
880.323178667086
 20
281.990685398999
 40
197.432824418323
100
AcDbArc
 50
-40.7485631739288
 51
-360.000000000003
  0
ARC
  5
48D
100
AcDbEntity
  8
0
100
AcDbCircle
  6
BYLAYER
370
0
 10
871.208294214212
 20
289.844174039932
 40
209.464383021535
100
AcDbArc
 50
-84.6663698283707
 51
-400.748563173928
  0
ARC
  5
48E
100
AcDbEntity
  8
0
100
AcDbCircle
  6
BYLAYER
370
0
 10
881.290603032047
 20
181.849408270766
 40
100.999999998189
100
AcDbArc
 50
-89.9999999999997
 51
-444.66636982837
  0
LINE
  5
48F
100
AcDbEntity
  8
0
100
AcDbLine
  6
BYLAYER
370
0
 10
881.290603032048
 20
80.8494082725777
 11
700.193157528928
 21
80.8494082725777
  0
LINE
  5
490
100
AcDbEntity
  8
0
100
AcDbLine
  6
BYLAYER
 10
1007.69315752893
 20
70.0494082725775
 11
762.693157528928
 21
70.0494082725775
  0
LINE
  5
491
100
AcDbEntity
  8
0
100
AcDbLine
  6
BYLAYER
 10
1007.69315752893
 20
68.449408272578
 11
762.693157528928
 21
68.449408272578
  0
LINE
  5
492
100
AcDbEntity
  8
HATCH
100
AcDbLine
  6
BYLAYER
 62
0
370
  -2
 10
887.693157528928
 20
296.849408272578
 11
1098.18983854949
 21
296.849408272578
  0
LINE
  5
493
100
AcDbEntity
  8
HATCH
100
AcDbLine
  6
BYLAYER
 62
0
370
  -2
 10
1057.69315752893
 20
56.8494082725776
 11
1098.18983854949
 21
56.8494082725776
  0
LINE
  5
494
100
AcDbEntity
  8
HATCH
100
AcDbLine
  6
BYLAYER
 62
0
370
  -2
 10
1095.68983854949
 20
284.349408272578
 11
1095.68983854949
 21
198.422734422445
  0
LINE
  5
495
100
AcDbEntity
  8
HATCH
100
AcDbLine
  6
BYLAYER
 62
0
370
  -2
 10
1095.68983854949
 20
69.3494082725776
 11
1095.68983854949
 21
139.672734422445
  0
SOLID
  5
496
100
AcDbEntity
  8
HATCH
100
AcDbTrace
 10
1093.60650521615
 20
284.349408272578
 30
0.0
 11
1097.77317188282
 21
284.349408272578
 31
0.0
 12
1095.68983854949
 22
296.849408272578
 32
0.0
 13
1095.68983854949
 23
296.849408272578
 33
0.0
  0
SOLID
  5
497
100
AcDbEntity
  8
HATCH
100
AcDbTrace
 10
1095.68983854949
 20
56.8494082725776
 30
0.0
 11
1097.77317188282
 21
69.3494082725776
 31
0.0
 12
1093.60650521615
 22
69.3494082725776
 32
0.0
 13
1093.60650521615
 23
69.3494082725776
 33
0.0
  0
TEXT
  5
498
100
AcDbEntity
  8
HATCH
 62
0
100
AcDbText
  6
BYLAYER
 62
0
 10
1104.43983854949
 20
155.922734422445
 40
17.5
  1
240
  7
Font_0
 50
90
 72
1
 11
1095.68983854949
 21
169.047734422445
100
AcDbText
 73
2
  0
LINE
  5
499
100
AcDbEntity
  8
0
100
AcDbLine
  6
BYLAYER
 10
1026.79315752893
 20
74.949408272578
 11
1026.79315752893
 21
149.599109734861
  0
LINE
  5
49A
100
AcDbEntity
  8
0
100
AcDbLine
  6
BYLAYER
 10
1025.19315752893
 20
58.6494082725769
 11
1010.09315752893
 21
73.7494082725773
  0
LINE
  5
49B
100
AcDbEntity
  8
0
100
AcDbLine
  6
BYLAYER
 10
1025.18929810541
 20
74.949408272578
 11
1007.69315752893
 21
74.949408272578
  0
LINE
  5
49C
100
AcDbEntity
  8
0
100
AcDbLine
  6
BYLAYER
 10
1055.19315752893
 20
56.8494082725776
 11
1055.19315752893
 21
58.449408272578
  0
LINE
  5
49D
100
AcDbEntity
  8
HIDDEN
100
AcDbLine
  6
BYLAYER
 10
1043.44315752893
 20
56.8494082725776
 11
1043.44315752893
 21
58.449408272578
  0
LINE
  5
49E
100
AcDbEntity
  8
CEN
100
AcDbLine
  6
BYLAYER
 10
1039.19315752893
 20
56.8494082725776
 11
1039.19315752893
 21
58.449408272578
  0
LWPOLYLINE
  5
49F
100
AcDbEntity
  8
0
100
AcDbPolyline
  6
BYLAYER
370
0
 90
     2
 10
1025.19315752893
  20
58.449408272578
 10
1025.19315752893
  20
74.949408272578
  0
LWPOLYLINE
  5
4A0
100
AcDbEntity
  8
0
100
AcDbPolyline
  6
BYLAYER
370
0
 90
     2
 10
1023.59315752893
  20
56.8494082725776
 10
1023.59315752893
  20
60.2494082725773
  0
LINE
  5
4A1
100
AcDbEntity
  8
HIDDEN
100
AcDbLine
  6
BYLAYER
 10
1034.94315752893
 20
56.8494082725776
 11
1034.94315752893
 21
58.449408272578
  0
LINE
  5
4A2
100
AcDbEntity
  8
0
100
AcDbLine
  6
BYLAYER
 10
1025.19315752893
 20
58.449408272578
 11
1055.19315752893
 21
58.449408272578
  0
LINE
  5
4A3
100
AcDbEntity
  8
0
100
AcDbLine
  6
BYLAYER
 10
1023.59315752893
 20
56.8494082725776
 11
1055.19315752893
 21
56.8494082725776
  0
LINE
  5
4A4
100
AcDbEntity
  8
0
100
AcDbLine
  6
BYLAYER
 10
1025.19315752893
 20
74.949408272578
 11
1025.18929810541
 21
74.949408272578
  0
LINE
  5
4A5
100
AcDbEntity
  8
0
100
AcDbLine
  6
BYLAYER
 10
1026.79315752893
 20
74.949408272578
 11
1025.19315752893
 21
74.949408272578
  0
LWPOLYLINE
  5
4A6
100
AcDbEntity
  8
0
100
AcDbPolyline
  6
BYLAYER
370
0
 90
     2
 10
1010.09315752893
  20
73.7494082725773
 10
1010.09315752893
  20
74.949408272578
  0
LINE
  5
4A7
100
AcDbEntity
  8
0
100
AcDbLine
  6
BYLAYER
 10
1007.69315752893
 20
68.449408272578
 11
1007.69315752893
 21
70.0494082725775
  0
LINE
  5
4A8
100
AcDbEntity
  8
0
100
AcDbLine
  6
BYLAYER
 10
1007.69315752893
 20
70.0494082725775
 11
1007.69315752893
 21
74.949408272578
  0
CIRCLE
  5
4A9
100
AcDbEntity
  8
0
100
AcDbCircle
  6
BYLAYER
 10
976.409932301992
 20
205.632633499513
 40
3.5
  0
CIRCLE
  5
4AA
100
AcDbEntity
  8
0
100
AcDbCircle
  6
BYLAYER
 10
976.409932301993
 20
205.632633499513
 40
3.5
  0
CIRCLE
  5
4AB
100
AcDbEntity
  8
0
100
AcDbCircle
  6
HIDDEN
 10
976.409932301992
 20
205.632633499514
 40
3
  0
CIRCLE
  5
4AC
100
AcDbEntity
  8
0
100
AcDbCircle
  6
BYLAYER
 10
1014.19315752893
 20
296.849408272578
 40
3.5
  0
CIRCLE
  5
4AD
100
AcDbEntity
  8
0
100
AcDbCircle
  6
BYLAYER
 10
1014.19315752893
 20
296.849408272578
 40
3.5
  0
CIRCLE
  5
4AE
100
AcDbEntity
  8
0
100
AcDbCircle
  6
HIDDEN
 10
1014.19315752893
 20
296.849408272578
 40
3
  0
CIRCLE
  5
4AF
100
AcDbEntity
  8
0
100
AcDbCircle
  6
BYLAYER
 10
976.409932301992
 20
388.066183045642
 40
3.5
  0
CIRCLE
  5
4B0
100
AcDbEntity
  8
0
100
AcDbCircle
  6
BYLAYER
 10
976.409932301993
 20
388.066183045642
 40
3.5
  0
CIRCLE
  5
4B1
100
AcDbEntity
  8
0
100
AcDbCircle
  6
HIDDEN
 10
976.409932301992
 20
388.066183045642
 40
3
  0
LINE
  5
4B2
100
AcDbEntity
  8
HATCH
100
AcDbLine
  6
BYLAYER
 62
0
370
  -2
 10
432.900000205109
 20
400.349408272576
 11
432.900000205109
 21
520.444597086082
  0
LINE
  5
4B3
100
AcDbEntity
  8
HATCH
100
AcDbLine
  6
BYLAYER
 62
0
370
  -2
 10
2.05107880901778E-7
 20
366.849408272579
 11
2.05107880901778E-7
 21
520.444597086082
  0
LINE
  5
4B4
100
AcDbEntity
  8
HATCH
100
AcDbLine
  6
BYLAYER
 62
0
370
  -2
 10
420.400000205109
 20
517.944597086082
 11
243.283333538442
 21
517.944597086082
  0
LINE
  5
4B5
100
AcDbEntity
  8
HATCH
100
AcDbLine
  6
BYLAYER
 62
0
370
  -2
 10
12.5000002051079
 20
517.944597086082
 11
181.616666871775
 21
517.944597086082
  0
SOLID
  5
4B6
100
AcDbEntity
  8
HATCH
100
AcDbTrace
 10
420.400000205109
 20
520.027930419415
 30
0.0
 11
420.400000205109
 21
515.861263752749
 31
0.0
 12
432.900000205109
 22
517.944597086082
 32
0.0
 13
432.900000205109
 23
517.944597086082
 33
0.0
  0
SOLID
  5
4B7
100
AcDbEntity
  8
HATCH
100
AcDbTrace
 10
2.05107880901778E-7
 20
517.944597086082
 30
0.0
 11
12.5000002051079
 21
515.861263752749
 31
0.0
 12
12.5000002051079
 22
520.027930419415
 32
0.0
 13
12.5000002051079
 23
520.027930419415
 33
0.0
  0
TEXT
  5
4B8
100
AcDbEntity
  8
HATCH
 62
0
100
AcDbText
  6
BYLAYER
 62
0
 10
199.325000205108
 20
509.194597086082
 40
17.5
  1
433
  7
Font_0
 72
1
 11
212.450000205108
 21
517.944597086082
100
AcDbText
 73
2
  0
LINE
  5
4B9
100
AcDbEntity
  8
HATCH
100
AcDbLine
  6
BYLAYER
 62
0
370
  -2
 10
213.700000205109
 20
54.3494082725778
 11
213.700000205109
 21
6.24999914067396
  0
LINE
  5
4BA
100
AcDbEntity
  8
HATCH
100
AcDbLine
  6
BYLAYER
 62
0
370
  -2
 10
33.7000002051091
 20
54.3494082725778
 11
33.7000002051091
 21
6.24999914067396
  0
LINE
  5
4BB
100
AcDbEntity
  8
HATCH
100
AcDbLine
  6
BYLAYER
 62
0
370
  -2
 10
201.200000205109
 20
8.74999914067396
 11
150.158333538443
 21
8.74999914067396
  0
LINE
  5
4BC
100
AcDbEntity
  8
HATCH
100
AcDbLine
  6
BYLAYER
 62
0
370
  -2
 10
46.2000002051091
 20
8.74999914067396
 11
97.241666871776
 21
8.74999914067396
  0
SOLID
  5
4BD
100
AcDbEntity
  8
HATCH
100
AcDbTrace
 10
201.200000205109
 20
10.8333324740073
 30
0.0
 11
201.200000205109
 21
6.66666580734062
 31
0.0
 12
213.700000205109
 22
8.74999914067396
 32
0.0
 13
213.700000205109
 23
8.74999914067396
 33
0.0
  0
SOLID
  5
4BE
100
AcDbEntity
  8
HATCH
100
AcDbTrace
 10
33.7000002051091
 20
8.74999914067396
 30
0.0
 11
46.2000002051091
 21
6.66666580734062
 31
0.0
 12
46.2000002051091
 22
10.8333324740073
 32
0.0
 13
46.2000002051091
 23
10.8333324740073
 33
0.0
  0
TEXT
  5
4BF
100
AcDbEntity
  8
HATCH
 62
0
100
AcDbText
  6
BYLAYER
 62
0
 10
110.575000205109
 20
-8.5932604321215E-7
 40
17.5
  1
180
  7
Font_0
 72
1
 11
123.700000205109
 21
8.74999914067396
100
AcDbText
 73
2
  0
LINE
  5
4C0
100
AcDbEntity
  8
HATCH
100
AcDbLine
  6
BYLAYER
 62
0
370
  -2
 10
189.200000205109
 20
55.149408272578
 11
189.200000205109
 21
36.1990043204336
  0
LINE
  5
4C1
100
AcDbEntity
  8
HATCH
100
AcDbLine
  6
BYLAYER
 62
0
370
  -2
 10
54.2000002051091
 20
55.149408272578
 11
54.2000002051091
 21
36.1990043204336
  0
LINE
  5
4C2
100
AcDbEntity
  8
HATCH
100
AcDbLine
  6
BYLAYER
 62
0
370
  -2
 10
176.700000205109
 20
38.6990043204336
 11
149.616666871776
 21
38.6990043204336
  0
LINE
  5
4C3
100
AcDbEntity
  8
HATCH
100
AcDbLine
  6
BYLAYER
 62
0
370
  -2
 10
66.7000002051091
 20
38.6990043204336
 11
93.7833335384419
 21
38.6990043204336
  0
SOLID
  5
4C4
100
AcDbEntity
  8
HATCH
100
AcDbTrace
 10
176.700000205109
 20
40.7823376537669
 30
0.0
 11
176.700000205109
 21
36.6156709871003
 31
0.0
 12
189.200000205109
 22
38.6990043204336
 32
0.0
 13
189.200000205109
 23
38.6990043204336
 33
0.0
  0
SOLID
  5
4C5
100
AcDbEntity
  8
HATCH
100
AcDbTrace
 10
54.2000002051091
 20
38.6990043204336
 30
0.0
 11
66.7000002051091
 21
36.6156709871003
 31
0.0
 12
66.7000002051091
 22
40.7823376537669
 32
0.0
 13
66.7000002051091
 23
40.7823376537669
 33
0.0
  0
TEXT
  5
4C6
100
AcDbEntity
  8
HATCH
 62
0
100
AcDbText
  6
BYLAYER
 62
0
 10
108.575000205109
 20
29.9490043204336
 40
17.5
  1
135
  7
Font_0
 72
1
 11
121.700000205109
 21
38.6990043204336
100
AcDbText
 73
2
  0
LINE
  5
4C7
100
AcDbEntity
  8
0
100
AcDbLine
  6
BYLAYER
 10
213.700000205109
 20
58.4494082725772
 11
33.7000002051091
 21
58.4494082725782
  0
LINE
  5
4C8
100
AcDbEntity
  8
0
100
AcDbLine
  6
BYLAYER
 10
213.700000205109
 20
56.8494082725778
 11
33.7000002051091
 21
56.8494082725778
  0
LINE
  5
4C9
100
AcDbEntity
  8
0
100
AcDbLine
  6
BYLAYER
 10
33.7000002051091
 20
216.849408272578
 11
200.668591769016
 21
216.849408272578
  0
LINE
  5
4CA
100
AcDbEntity
  8
0
100
AcDbLine
  6
BYLAYER
 10
78.5000002051083
 20
218.795656358805
 11
11.3940695851261
 21
218.795656358805
  0
LINE
  5
4CB
100
AcDbEntity
  8
0
100
AcDbLine
  6
BYLAYER
 10
234.100000205109
 20
384.349408272579
 11
20.0000002051083
 21
384.349408272579
  0
LINE
  5
4CC
100
AcDbEntity
  8
0
100
AcDbLine
  6
BYLAYER
 10
587.193152610175
 20
101.84940732345
 11
587.193152610175
 21
301.849407323449
  0
LINE
  5
4CD
100
AcDbEntity
  8
0
100
AcDbLine
  6
BYLAYER
 10
667.193152610175
 20
80.8494073234499
 11
667.193152610175
 21
322.84940732345
  0
LINE
  5
4CE
100
AcDbEntity
  8
0
100
AcDbLine
  6
BYLAYER
 10
617.193152610175
 20
101.84940732345
 11
617.193152610175
 21
301.849407323449
  0
LINE
  5
4CF
100
AcDbEntity
  8
0
100
AcDbLine
  6
BYLAYER
 10
698.693152610175
 20
346.84940732345
 11
698.693152610175
 21
56.84940732345
  0
LINE
  5
4D0
100
AcDbEntity
  8
0
100
AcDbLine
  6
BYLAYER
 10
697.193152610175
 20
346.84940732345
 11
697.193152610175
 21
56.84940732345
  0
LINE
  5
4D1
100
AcDbEntity
  8
0
100
AcDbLine
  6
BYLAYER
 10
697.193152610175
 20
80.8494073234499
 11
697.193152610175
 21
322.84940732345
  0
LINE
  5
4D2
100
AcDbEntity
  8
HATCH
100
AcDbLine
  6
BYLAYER
 62
0
370
  -2
 10
401.600000205108
 20
346.849408272578
 11
505.615587724525
 21
346.849408272578
  0
LINE
  5
4D3
100
AcDbEntity
  8
HATCH
100
AcDbLine
  6
BYLAYER
 62
0
370
  -2
 10
401.600000205109
 20
56.8494082725777
 11
505.615587724525
 21
56.8494082725777
  0
LINE
  5
4D4
100
AcDbEntity
  8
HATCH
100
AcDbLine
  6
BYLAYER
 62
0
370
  -2
 10
503.115587724525
 20
334.349408272578
 11
503.115587724525
 21
231.224408272578
  0
LINE
  5
4D5
100
AcDbEntity
  8
HATCH
100
AcDbLine
  6
BYLAYER
 62
0
370
  -2
 10
503.115587724525
 20
69.3494082725777
 11
503.115587724525
 21
172.474408272578
  0
SOLID
  5
4D6
100
AcDbEntity
  8
HATCH
100
AcDbTrace
 10
501.032254391192
 20
334.349408272578
 30
0.0
 11
505.198921057858
 21
334.349408272578
 31
0.0
 12
503.115587724525
 22
346.849408272578
 32
0.0
 13
503.115587724525
 23
346.849408272578
 33
0.0
  0
SOLID
  5
4D7
100
AcDbEntity
  8
HATCH
100
AcDbTrace
 10
503.115587724525
 20
56.8494082725777
 30
0.0
 11
505.198921057858
 21
69.3494082725777
 31
0.0
 12
501.032254391192
 22
69.3494082725777
 32
0.0
 13
501.032254391192
 23
69.3494082725777
 33
0.0
  0
TEXT
  5
4D8
100
AcDbEntity
  8
HATCH
 62
0
100
AcDbText
  6
BYLAYER
 62
0
 10
511.865587724525
 20
188.724408272578
 40
17.5
  1
290
  7
Font_0
 50
90
 72
1
 11
503.115587724525
 21
201.849408272578
100
AcDbText
 73
2
  0
LINE
  5
4D9
100
AcDbEntity
  8
HATCH
100
AcDbLine
  6
BYLAYER
 62
0
370
  -2
 10
401.600000205109
 20
336.849408272578
 11
481.249499667306
 21
336.849408272578
  0
LINE
  5
4DA
100
AcDbEntity
  8
HATCH
100
AcDbLine
  6
BYLAYER
 62
0
370
  -2
 10
401.600000205109
 20
66.8494082725778
 11
481.249499667306
 21
66.8494082725777
  0
LINE
  5
4DB
100
AcDbEntity
  8
HATCH
100
AcDbLine
  6
BYLAYER
 62
0
370
  -2
 10
478.749499667306
 20
324.349408272578
 11
478.749499667306
 21
231.224408272578
  0
LINE
  5
4DC
100
AcDbEntity
  8
HATCH
100
AcDbLine
  6
BYLAYER
 62
0
370
  -2
 10
478.749499667306
 20
79.3494082725777
 11
478.749499667306
 21
172.474408272578
  0
SOLID
  5
4DD
100
AcDbEntity
  8
HATCH
100
AcDbTrace
 10
476.666166333973
 20
324.349408272578
 30
0.0
 11
480.832833000639
 21
324.349408272578
 31
0.0
 12
478.749499667306
 22
336.849408272578
 32
0.0
 13
478.749499667306
 23
336.849408272578
 33
0.0
  0
SOLID
  5
4DE
100
AcDbEntity
  8
HATCH
100
AcDbTrace
 10
478.749499667306
 20
66.8494082725777
 30
0.0
 11
480.832833000639
 21
79.3494082725777
 31
0.0
 12
476.666166333973
 22
79.3494082725777
 32
0.0
 13
476.666166333973
 23
79.3494082725777
 33
0.0
  0
TEXT
  5
4DF
100
AcDbEntity
  8
HATCH
 62
0
100
AcDbText
  6
BYLAYER
 62
0
 10
487.499499667306
 20
188.724408272578
 40
17.5
  1
270
  7
Font_0
 50
90
 72
1
 11
478.749499667306
 21
201.849408272578
100
AcDbText
 73
2
  0
LINE
  5
4E0
100
AcDbEntity
  8
HATCH
100
AcDbLine
  6
BYLAYER
 62
0
370
  -2
 10
337.715255647821
 20
136.117465320107
 11
350.215255647822
 21
136.117465320107
  0
LINE
  5
4E1
100
AcDbEntity
  8
HATCH
100
AcDbLine
  6
BYLAYER
 62
0
370
  -2
 10
350.215255647822
 20
136.117465320107
 11
356.234464888274
 21
125.162141494694
  0
TEXT
  5
4E2
100
AcDbEntity
  8
HATCH
 62
0
100
AcDbText
  6
BYLAYER
 62
0
 10
279.175467895809
 20
127.362769495248
 40
17.5
  1
φ200
  7
Font_0
 50
0.0123000000000003
 72
1
 11
301.048588981155
 21
136.117465320106
100
AcDbText
 73
2
  0
SOLID
  5
4E3
100
AcDbEntity
  8
HATCH
100
AcDbTrace
 10
358.06035219251
 20
126.16534303477
 30
0.0
 11
354.408577584039
 21
124.158939954619
 31
0.0
 12
362.253674128727
 22
114.206817669282
 32
0.0
 13
362.253674128727
 23
114.206817669282
 33
0.0
  0
LINE
  5
4E4
100
AcDbEntity
  8
HATCH
100
AcDbLine
  6
BYLAYER
 62
0
370
  -2
 10
813.119264258535
 20
151.741385977219
 11
825.619264258535
 21
151.741385977219
  0
LINE
  5
4E5
100
AcDbEntity
  8
HATCH
100
AcDbLine
  6
BYLAYER
 62
0
370
  -2
 10
825.619264258535
 20
151.741385977219
 11
842.087254715247
 21
191.853545770204
  0
TEXT
  5
4E6
100
AcDbEntity
  8
HATCH
 62
0
100
AcDbText
  6
BYLAYER
 62
0
 10
753.121143173189
 20
142.98669015236
 40
17.5
  1
φ202
  7
Font_0
 50
0.0123000000000003
 72
1
 11
774.994264258535
 21
151.741385977219
100
AcDbText
 73
2
  0
SOLID
  5
4E7
100
AcDbEntity
  8
HATCH
100
AcDbTrace
 10
840.160017885174
 20
192.644770124347
 30
0.0
 11
844.01449154532
 21
191.062321416062
 31
0.0
 12
846.834600840102
 22
203.416966750642
 32
0.0
 13
846.834600840102
 23
203.416966750642
 33
0.0
  0
LINE
  5
4E8
100
AcDbEntity
  8
HATCH
100
AcDbLine
  6
BYLAYER
 62
0
370
  -2
 10
884.968157528928
 20
296.849408272577
 11
885.418157528928
 21
296.849408272577
  0
LINE
  5
4E9
100
AcDbEntity
  8
HATCH
100
AcDbLine
  6
BYLAYER
 62
0
370
  -2
 10
885.193157528928
 20
296.624408272578
 11
885.193157528928
 21
297.074408272577
  0
LINE
  5
4EA
100
AcDbEntity
  8
0
100
AcDbLine
  6
BYLAYER
 10
700.193157528928
 20
322.849408272578
 11
700.193157528928
 21
80.8494082725777
  0
LINE
  5
4EB
100
AcDbEntity
  8
0
100
AcDbLine
  6
BYLAYER
 10
700.193157528928
 20
346.849408272578
 11
700.193157528928
 21
56.8494082725777
  0
LINE
  5
4EC
100
AcDbEntity
  8
0
100
AcDbLine
  6
BYLAYER
 10
698.693157528928
 20
346.849408272578
 11
698.693157528928
 21
56.8494082725777
  0
LINE
  5
4ED
100
AcDbEntity
  8
0
100
AcDbLine
  6
BYLAYER
 10
409.100000205109
 20
233.07439826456
 11
409.100000205109
 21
336.849408272578
  0
LINE
  5
4EE
100
AcDbEntity
  8
0
100
AcDbLine
  6
BYLAYER
 10
219.100000205109
 20
336.849408272578
 11
219.100000205109
 21
233.074398264564
  0
LINE
  5
4EF
100
AcDbEntity
  8
0
100
AcDbLine
  6
BYLAYER
 10
380.500000205108
 20
128.418896902985
 11
380.500000205108
 21
275.27991964217
  0
LINE
  5
4F0
100
AcDbEntity
  8
0
100
AcDbLine
  6
BYLAYER
 10
247.700000205109
 20
128.418896902986
 11
247.700000205109
 21
275.27991964217
  0
LINE
  5
4F1
100
AcDbEntity
  8
0
100
AcDbLine
  6
BYLAYER
 10
409.100000205109
 20
336.849408272578
 11
409.100000205109
 21
233.074398264563
  0
ARC
  5
4F2
100
AcDbEntity
  8
0
100
AcDbCircle
  6
BYLAYER
370
0
 10
314.100000205106
 20
201.849408272577
 40
100
100
AcDbArc
 50
-87.1340160173995
 51
-267.707557224046
  0
LINE
  5
4F3
100
AcDbEntity
  8
0
100
AcDbLine
  6
BYLAYER
370
0
 10
319.100000205109
 20
101.974486495387
 11
318.100000205109
 21
102.930249359857
  0
ARC
  5
4F4
100
AcDbEntity
  8
0
100
AcDbCircle
  6
BYLAYER
370
0
 10
314.100000205106
 20
201.849408272578
 40
99.0000000000001
100
AcDbArc
 50
267.105042147493
 51
-87.6843886838834
  0
LINE
  5
4F5
100
AcDbEntity
  8
0
100
AcDbLine
  6
BYLAYER
370
0
 10
309.100000205109
 20
102.975751518111
 11
309.150505255614
 21
103.974475323712
  0
ARC
  5
4F6
100
AcDbEntity
  8
0
100
AcDbCircle
  6
BYLAYER
370
0
 10
314.100000205113
 20
201.849408272576
 40
97.9999999999981
100
AcDbArc
 50
-92.8949578525107
 51
-87.0754762102739
  0
LINE
  5
4F7
100
AcDbEntity
  8
0
100
AcDbLine
  6
BYLAYER
370
0
 10
319.100000205109
 20
103.977042407641
 11
320.100000205109
 21
103.031393720574
  0
ARC
  5
4F8
100
AcDbEntity
  8
0
100
AcDbCircle
  6
BYLAYER
370
0
 10
314.100000205108
 20
201.849408272577
 40
98.9999999999996
100
AcDbArc
 50
-86.5253992069274
 51
92.3156113161147
  0
LINE
  5
4F9
100
AcDbEntity
  8
0
100
AcDbLine
  6
BYLAYER
370
0
 10
310.100000205109
 20
300.768567185297
 11
310.100000205109
 21
301.769376246952
  0
LINE
  5
4FA
100
AcDbEntity
  8
0
100
AcDbLine
  6
BYLAYER
 10
247.700000205108
 20
275.27991964217
 11
247.700000205109
 21
128.418896902984
  0
LINE
  5
4FB
100
AcDbEntity
  8
0
100
AcDbLine
  6
BYLAYER
 10
380.500000205108
 20
275.279919642169
 11
380.500000205108
 21
128.418896902985
  0
ARC
  5
4FC
100
AcDbEntity
  8
0
100
AcDbCircle
  6
BYLAYER
370
0
 10
314.100000205112
 20
201.849408272577
 40
100
100
AcDbArc
 50
92.8659839826005
 51
-87.7075572240458
  0
LINE
  5
4FD
100
AcDbEntity
  8
0
100
AcDbLine
  6
BYLAYER
370
0
 10
309.100000205109
 20
301.724330049768
 11
310.100000205109
 21
300.768567185297
  0
ARC
  5
4FE
100
AcDbEntity
  8
0
100
AcDbCircle
  6
BYLAYER
370
0
 10
314.100000205121
 20
201.849408272577
 40
99
100
AcDbArc
 50
87.1050421474988
 51
-267.684388683878
  0
LINE
  5
4FF
100
AcDbEntity
  8
0
100
AcDbLine
  6
BYLAYER
370
0
 10
319.100000205109
 20
300.723065027044
 11
319.049495154603
 21
299.724341221443
  0
ARC
  5
500
100
AcDbEntity
  8
0
100
AcDbCircle
  6
BYLAYER
370
0
 10
314.100000205105
 20
201.84940827258
 40
97.9999999999981
100
AcDbArc
 50
-272.894957852511
 51
-267.075476210274
  0
LINE
  5
501
100
AcDbEntity
  8
0
100
AcDbLine
  6
BYLAYER
370
0
 10
309.100000205109
 20
299.721774137515
 11
308.100000205109
 21
300.667422824581
  0
ARC
  5
502
100
AcDbEntity
  8
0
100
AcDbCircle
  6
BYLAYER
370
0
 10
314.100000205109
 20
201.849408272577
 40
98.9999999999996
100
AcDbArc
 50
-266.525399206927
 51
-87.6843886838853
  0
LINE
  5
503
100
AcDbEntity
  8
0
100
AcDbLine
  6
BYLAYER
370
0
 10
318.100000205109
 20
102.930249359857
 11
318.100000205109
 21
101.929440298203
  0
LINE
  5
504
100
AcDbEntity
  8
0
100
AcDbLine
  6
BYLAYER
 10
244.100000205109
 20
322.849408272577
 11
217.794574941409
 21
228.780153987789
  0
LINE
  5
505
100
AcDbEntity
  8
0
100
AcDbLine
  6
BYLAYER
 10
219.100000205109
 20
233.074398264559
 11
219.100000205108
 21
336.849408272578
  0
LINE
  5
506
100
AcDbEntity
  8
0
100
AcDbLine
  6
BYLAYER
 10
384.100000205109
 20
322.849408272577
 11
410.405425468809
 21
228.780153987789
  0
ARC
  5
507
100
AcDbEntity
  8
0
100
AcDbCircle
  6
BYLAYER
 10
-36.8349772948632
 20
294.901023771038
 40
250
100
AcDbArc
 50
335.656483141318
 51
354.709443999866
  0
LINE
  5
508
100
AcDbEntity
  8
0
100
AcDbLine
  6
BYLAYER
 10
78.5000002051083
 20
384.349408272578
 11
78.5000002051083
 21
218.795656358805
  0
LINE
  5
509
100
AcDbEntity
  8
0
100
AcDbLine
  6
BYLAYER
 10
432.900000205109
 20
195.849408272576
 11
432.900000205109
 21
397.849408272576
  0
LINE
  5
50A
100
AcDbEntity
  8
0
100
AcDbLine
  6
BYLAYER
 10
745.193157528928
 20
58.649408272577
 11
760.293157528928
 21
73.7494082725773
  0
LINE
  5
50B
100
AcDbEntity
  8
0
100
AcDbLine
  6
BYLAYER
 10
715.193157528928
 20
56.8494082725777
 11
746.793157528928
 21
56.8494082725777
  0
LINE
  5
50C
100
AcDbEntity
  8
0
100
AcDbLine
  6
BYLAYER
 10
762.693157528928
 20
74.949408272578
 11
745.193157528928
 21
74.949408272578
  0
CIRCLE
  5
50D
100
AcDbEntity
  8
0
100
AcDbCircle
  6
BYLAYER
 10
885.193157528928
 20
167.849408272578
 40
3.5
  0
CIRCLE
  5
50E
100
AcDbEntity
  8
0
100
AcDbCircle
  6
BYLAYER
 10
885.193157528928
 20
167.849408272578
 40
3.5
  0
CIRCLE
  5
50F
100
AcDbEntity
  8
0
100
AcDbCircle
  6
HIDDEN
 10
885.193157528928
 20
167.849408272578
 40
3
  0
LWPOLYLINE
  5
510
100
AcDbEntity
  8
0
100
AcDbPolyline
  6
BYLAYER
370
0
 90
     2
 10
760.293157528928
  20
74.949408272578
 10
760.293157528928
  20
73.7494082725773
  0
LWPOLYLINE
  5
511
100
AcDbEntity
  8
0
100
AcDbPolyline
  6
BYLAYER
370
0
 90
     2
 10
746.793157528928
  20
60.2494082725773
 10
746.793157528928
  20
56.8494082725777
  0
LINE
  5
512
100
AcDbEntity
  8
0
100
AcDbLine
  6
BYLAYER
 10
762.693157528928
 20
70.0494082725775
 11
762.693157528928
 21
68.449408272578
  0
LINE
  5
513
100
AcDbEntity
  8
0
100
AcDbLine
  6
BYLAYER
 10
762.693157528928
 20
74.949408272578
 11
762.693157528928
 21
70.0494082725775
  0
CIRCLE
  5
514
100
AcDbEntity
  8
0
100
AcDbCircle
  6
BYLAYER
 10
793.976382755863
 20
205.632633499513
 40
3.5
  0
CIRCLE
  5
515
100
AcDbEntity
  8
0
100
AcDbCircle
  6
BYLAYER
 10
793.976382755864
 20
205.632633499513
 40
3.5
  0
CIRCLE
  5
516
100
AcDbEntity
  8
0
100
AcDbCircle
  6
HIDDEN
 10
793.976382755863
 20
205.632633499513
 40
3
  0
LINE
  5
517
100
AcDbEntity
  8
0
100
AcDbLine
  6
BYLAYER
 10
617.193152610175
 20
101.84940732345
 11
667.193152610175
 21
80.8494073234499
  0
LINE
  5
518
100
AcDbEntity
  8
0
100
AcDbLine
  6
BYLAYER
 10
667.193152610175
 20
80.8494073234499
 11
697.193152610175
 21
80.8494073234499
  0
LINE
  5
519
100
AcDbEntity
  8
0
100
AcDbLine
  6
BYLAYER
 10
697.193152610175
 20
56.84940732345
 11
698.693152610175
 21
56.84940732345
  0
LINE
  5
51A
100
AcDbEntity
  8
0
100
AcDbLine
  6
BYLAYER
 10
700.193157528928
 20
56.8494082725777
 11
698.693157528928
 21
56.8494082725777
  0
LINE
  5
51B
100
AcDbEntity
  8
0
100
AcDbLine
  6
BYLAYER
 10
743.593157528927
 20
74.949408272578
 11
743.593157528927
 21
80.8494082725777
  0
LINE
  5
51C
100
AcDbEntity
  8
0
100
AcDbLine
  6
BYLAYER
 10
715.193157528928
 20
58.4494082725781
 11
715.193157528928
 21
56.8494082725777
  0
LINE
  5
51D
100
AcDbEntity
  8
HIDDEN
100
AcDbLine
  6
BYLAYER
 10
735.443157528928
 20
58.4494082725762
 11
735.443157528928
 21
56.8494082725759
  0
LINE
  5
51E
100
AcDbEntity
  8
CEN
100
AcDbLine
  6
BYLAYER
 10
731.193157528928
 20
58.4494082725762
 11
731.193157528928
 21
56.8494082725768
  0
LINE
  5
51F
100
AcDbEntity
  8
HIDDEN
100
AcDbLine
  6
BYLAYER
 10
726.943157528928
 20
58.4494082725772
 11
726.943157528928
 21
56.8494082725768
  0
LINE
  5
520
100
AcDbEntity
  8
0
100
AcDbLine
  6
BYLAYER
 10
715.193157528928
 20
58.4494082725781
 11
745.193157528928
 21
58.449408272578
  0
LINE
  5
521
100
AcDbEntity
  8
0
100
AcDbLine
  6
BYLAYER
 10
743.593157528927
 20
74.949408272578
 11
745.193157528928
 21
74.949408272578
  0
LWPOLYLINE
  5
522
100
AcDbEntity
  8
0
100
AcDbPolyline
  6
BYLAYER
370
0
 90
     2
 10
745.193157528928
  20
74.949408272578
 10
745.193157528928
  20
58.449408272578
  0
LINE
  5
523
100
AcDbEntity
  8
0
100
AcDbLine
  6
BYLAYER
 10
587.193152610175
 20
101.84940732345
 11
617.193152610175
 21
101.84940732345
  0
LINE
  5
524
100
AcDbEntity
  8
HATCH
100
AcDbLine
  6
BYLAYER
 62
0
370
  -2
 10
409.100000205109
 20
64.3494082725778
 11
409.100000205109
 21
6.24999914067394
  0
LINE
  5
525
100
AcDbEntity
  8
HATCH
100
AcDbLine
  6
BYLAYER
 62
0
370
  -2
 10
219.100000205109
 20
64.3494082725778
 11
219.100000205109
 21
6.24999914067394
  0
LINE
  5
526
100
AcDbEntity
  8
HATCH
100
AcDbLine
  6
BYLAYER
 62
0
370
  -2
 10
396.600000205109
 20
8.74999914067394
 11
341.671343161246
 21
8.74999914067394
  0
LINE
  5
527
100
AcDbEntity
  8
HATCH
100
AcDbLine
  6
BYLAYER
 62
0
370
  -2
 10
231.600000205109
 20
8.74999914067394
 11
288.754676494579
 21
8.74999914067394
  0
SOLID
  5
528
100
AcDbEntity
  8
HATCH
100
AcDbTrace
 10
396.600000205109
 20
10.8333324740073
 30
0.0
 11
396.600000205109
 21
6.66666580734061
 31
0.0
 12
409.100000205109
 22
8.74999914067394
 32
0.0
 13
409.100000205109
 23
8.74999914067394
 33
0.0
  0
SOLID
  5
529
100
AcDbEntity
  8
HATCH
100
AcDbTrace
 10
219.100000205109
 20
8.74999914067394
 30
0.0
 11
231.600000205109
 21
6.66666580734061
 31
0.0
 12
231.600000205109
 22
10.8333324740073
 32
0.0
 13
231.600000205109
 23
10.8333324740073
 33
0.0
  0
TEXT
  5
52A
100
AcDbEntity
  8
HATCH
 62
0
100
AcDbText
  6
BYLAYER
 62
0
 10
302.088009827912
 20
-8.59326064528432E-7
 40
17.5
  1
190
  7
Font_0
 72
1
 11
315.213009827912
 21
8.74999914067394
100
AcDbText
 73
2
  0
LINE
  5
52B
100
AcDbEntity
  8
HATCH
100
AcDbLine
  6
BYLAYER
 62
0
370
  -2
 10
399.100000205109
 20
64.3494082725778
 11
399.100000205109
 21
36.1990043204336
  0
LINE
  5
52C
100
AcDbEntity
  8
HATCH
100
AcDbLine
  6
BYLAYER
 62
0
370
  -2
 10
229.100000205109
 20
64.3494082725778
 11
229.100000205109
 21
36.1990043204336
  0
LINE
  5
52D
100
AcDbEntity
  8
HATCH
100
AcDbLine
  6
BYLAYER
 62
0
370
  -2
 10
386.600000205109
 20
38.6990043204336
 11
341.671343161246
 21
38.6990043204336
  0
LINE
  5
52E
100
AcDbEntity
  8
HATCH
100
AcDbLine
  6
BYLAYER
 62
0
370
  -2
 10
241.600000205109
 20
38.6990043204336
 11
288.754676494579
 21
38.6990043204336
  0
SOLID
  5
52F
100
AcDbEntity
  8
HATCH
100
AcDbTrace
 10
386.600000205109
 20
40.7823376537669
 30
0.0
 11
386.600000205109
 21
36.6156709871002
 31
0.0
 12
399.100000205109
 22
38.6990043204336
 32
0.0
 13
399.100000205109
 23
38.6990043204336
 33
0.0
  0
SOLID
  5
530
100
AcDbEntity
  8
HATCH
100
AcDbTrace
 10
229.100000205109
 20
38.6990043204336
 30
0.0
 11
241.600000205109
 21
36.6156709871002
 31
0.0
 12
241.600000205109
 22
40.7823376537669
 32
0.0
 13
241.600000205109
 23
40.7823376537669
 33
0.0
  0
TEXT
  5
531
100
AcDbEntity
  8
HATCH
 62
0
100
AcDbText
  6
BYLAYER
 62
0
 10
302.088009827912
 20
29.9490043204336
 40
17.5
  1
170
  7
Font_0
 72
1
 11
315.213009827912
 21
38.6990043204336
100
AcDbText
 73
2
  0
LINE
  5
532
100
AcDbEntity
  8
0
100
AcDbLine
  6
BYLAYER
 10
247.700000205109
 20
231.29755323306
 11
380.500000205108
 21
231.29755323306
  0
LINE
  5
533
100
AcDbEntity
  8
0
100
AcDbLine
  6
BYLAYER
 10
247.700000205109
 20
235.903756408828
 11
380.500000205108
 21
235.903756408829
  0
LINE
  5
534
100
AcDbEntity
  8
0
100
AcDbLine
  6
BYLAYER
 10
229.100000205109
 20
56.8494082725778
 11
399.100000205109
 21
56.8494082725777
  0
LINE
  5
535
100
AcDbEntity
  8
0
100
AcDbLine
  6
BYLAYER
 10
399.100000205109
 20
56.8494082725777
 11
229.100000205109
 21
56.8494082725778
  0
LINE
  5
536
100
AcDbEntity
  8
0
100
AcDbLine
  6
BYLAYER
 10
318.100000205109
 20
80.8494082725778
 11
244.100000205109
 21
80.8494082725778
  0
LINE
  5
537
100
AcDbEntity
  8
0
100
AcDbLine
  6
BYLAYER
 10
358.83000020511
 20
184.098423317191
 11
269.57000020511
 21
184.098423317191
  0
LINE
  5
538
100
AcDbEntity
  8
0
100
AcDbLine
  6
BYLAYER
 10
358.83000020511
 20
184.875898451424
 11
269.57000020511
 21
184.875898451424
  0
LINE
  5
539
100
AcDbEntity
  8
0
100
AcDbLine
  6
BYLAYER
 10
358.83000020511
 20
185.636860984622
 11
269.57000020511
 21
185.636860984622
  0
LINE
  5
53A
100
AcDbEntity
  8
0
100
AcDbLine
  6
BYLAYER
 10
358.83000020511
 20
186.434758523975
 11
269.57000020511
 21
186.434758523975
  0
LINE
  5
53B
100
AcDbEntity
  8
0
100
AcDbLine
  6
BYLAYER
 10
358.83000020511
 20
190.208887032593
 11
269.57000020511
 21
190.208887032593
  0
LINE
  5
53C
100
AcDbEntity
  8
0
100
AcDbLine
  6
BYLAYER
 10
358.830000205109
 20
191.005442412158
 11
269.57000020511
 21
191.005442412158
  0
LINE
  5
53D
100
AcDbEntity
  8
0
100
AcDbLine
  6
BYLAYER
 10
358.83000020511
 20
197.308639200271
 11
269.57000020511
 21
197.308639200272
  0
LINE
  5
53E
100
AcDbEntity
  8
0
100
AcDbLine
  6
BYLAYER
 10
358.83000020511
 20
198.463273774387
 11
269.57000020511
 21
198.463273774387
  0
LINE
  5
53F
100
AcDbEntity
  8
0
100
AcDbLine
  6
BYLAYER
 10
358.83000020511
 20
206.148994860764
 11
269.57000020511
 21
206.148994860764
  0
LINE
  5
540
100
AcDbEntity
  8
0
100
AcDbLine
  6
BYLAYER
 10
358.83000020511
 20
206.859430461837
 11
269.57000020511
 21
206.859430461837
  0
LINE
  5
541
100
AcDbEntity
  8
0
100
AcDbLine
  6
BYLAYER
 10
358.83000020511
 20
208.604822412214
 11
269.57000020511
 21
208.604822412214
  0
LINE
  5
542
100
AcDbEntity
  8
0
100
AcDbLine
  6
BYLAYER
 10
358.83000020511
 20
213.801655328877
 11
269.57000020511
 21
213.801655328877
  0
LINE
  5
543
100
AcDbEntity
  8
0
100
AcDbLine
  6
BYLAYER
 10
358.83000020511
 20
221.153453315847
 11
269.57000020511
 21
221.153453315847
  0
LINE
  5
544
100
AcDbEntity
  8
0
100
AcDbLine
  6
BYLAYER
 10
358.83000020511
 20
218.551223709978
 11
269.57000020511
 21
218.551223709978
  0
LINE
  5
545
100
AcDbEntity
  8
0
100
AcDbLine
  6
BYLAYER
 10
384.100000205109
 20
80.8494082725777
 11
410.405425468809
 21
174.918662557367
  0
LINE
  5
546
100
AcDbEntity
  8
0
100
AcDbLine
  6
BYLAYER
 10
409.100000205109
 20
66.8494082725777
 11
409.100000205109
 21
170.624418280595
  0
LINE
  5
547
100
AcDbEntity
  8
0
100
AcDbLine
  6
BYLAYER
 10
409.100000205109
 20
170.624418280592
 11
409.100000205109
 21
66.8494082725777
  0
CIRCLE
  5
548
100
AcDbEntity
  8
0
100
AcDbCircle
  6
BYLAYER
 10
399.100000205109
 20
66.8494082725777
 40
4.25
  0
ARC
  5
549
100
AcDbEntity
  8
0
100
AcDbCircle
  6
BYLAYER
 10
399.100000205109
 20
66.8494082725777
 40
10
100
AcDbArc
 50
270
 51
0
  0
CIRCLE
  5
54A
100
AcDbEntity
  8
0
100
AcDbCircle
  6
BYLAYER
 10
399.100000205109
 20
66.8494082725777
 40
4.25
  0
ARC
  5
54B
100
AcDbEntity
  8
0
100
AcDbCircle
  6
BYLAYER
 10
399.100000205109
 20
66.8494082725777
 40
10
100
AcDbArc
 50
270
 51
0
  0
LINE
  5
54C
100
AcDbEntity
  8
0
100
AcDbLine
  6
BYLAYER
 10
413.919837912847
 20
195.849408272576
 11
432.900000205109
 21
195.849408272576
  0
LINE
  5
54D
100
AcDbEntity
  8
0
100
AcDbLine
  6
BYLAYER
 10
319.100000205109
 20
80.8494082725778
 11
384.100000205109
 21
80.8494082725777
  0
LINE
  5
54E
100
AcDbEntity
  8
0
100
AcDbLine
  6
BYLAYER
 10
319.100000205109
 20
80.8494082725778
 11
318.100000205109
 21
81.8494082725778
  0
LINE
  5
54F
100
AcDbEntity
  8
0
100
AcDbLine
  6
BYLAYER
 10
318.100000205109
 20
101.929440298203
 11
318.100000205109
 21
80.8494082725778
  0
LINE
  5
550
100
AcDbEntity
  8
0
100
AcDbLine
  6
BYLAYER
 10
377.800000205109
 20
176.849408272578
 11
380.600000205109
 21
176.849408272578
  0
LINE
  5
551
100
AcDbEntity
  8
0
100
AcDbLine
  6
BYLAYER
 10
377.800000205109
 20
176.849408272578
 11
377.800000205109
 21
231.29755323306
  0
LINE
  5
552
100
AcDbEntity
  8
0
100
AcDbLine
  6
BYLAYER
 10
382.100000205109
 20
128.528197153286
 11
382.100000205109
 21
128.509446450934
  0
ARC
  5
553
100
AcDbEntity
  8
0
100
AcDbCircle
  6
BYLAYER
370
0
 10
360.830330337545
 20
170.401682081547
 40
23.9999999999989
100
AcDbArc
 50
45.0030144529066
 51
-288.133748118949
  0
LINE
  5
554
100
AcDbEntity
  8
0
100
AcDbLine
  6
BYLAYER
 10
367.30000020511
 20
231.297553233061
 11
367.300000205109
 21
191.849408272578
  0
LINE
  5
555
100
AcDbEntity
  8
0
100
AcDbLine
  6
BYLAYER
 10
368.30000020511
 20
231.297553233061
 11
368.300000205109
 21
191.849408272578
  0
LINE
  5
556
100
AcDbEntity
  8
0
100
AcDbLine
  6
BYLAYER
 10
365.70009145184
 20
231.29755323306
 11
365.70009145184
 21
186.849408272578
  0
LINE
  5
557
100
AcDbEntity
  8
0
100
AcDbLine
  6
BYLAYER
 10
358.83000020511
 20
221.153453315847
 11
365.70009145184
 21
223.904438271234
  0
LINE
  5
558
100
AcDbEntity
  8
0
100
AcDbLine
  6
BYLAYER
 10
358.83000020511
 20
218.551223709978
 11
365.70009145184
 21
221.302208665364
  0
LINE
  5
559
100
AcDbEntity
  8
0
100
AcDbLine
  6
BYLAYER
 10
358.83000020511
 20
208.604822412214
 11
365.70009145184
 21
211.355807367602
  0
LINE
  5
55A
100
AcDbEntity
  8
0
100
AcDbLine
  6
BYLAYER
 10
358.83000020511
 20
206.859430461837
 11
365.70009145184
 21
209.610415417223
  0
LINE
  5
55B
100
AcDbEntity
  8
0
100
AcDbLine
  6
BYLAYER
 10
358.83000020511
 20
206.148994860764
 11
365.70009145184
 21
208.899979816151
  0
LINE
  5
55C
100
AcDbEntity
  8
0
100
AcDbLine
  6
BYLAYER
 10
358.83000020511
 20
213.801655328877
 11
365.70009145184
 21
216.552640284263
  0
LINE
  5
55D
100
AcDbEntity
  8
0
100
AcDbLine
  6
BYLAYER
 10
358.83000020511
 20
198.463273774387
 11
365.70009145184
 21
201.214258729773
  0
LINE
  5
55E
100
AcDbEntity
  8
0
100
AcDbLine
  6
BYLAYER
 10
358.83000020511
 20
197.308639200271
 11
365.70009145184
 21
200.059624155658
  0
LINE
  5
55F
100
AcDbEntity
  8
0
100
AcDbLine
  6
BYLAYER
 10
358.83000020511
 20
186.434758523975
 11
365.70009145184
 21
189.185743479361
  0
LINE
  5
560
100
AcDbEntity
  8
0
100
AcDbLine
  6
BYLAYER
 10
358.83000020511
 20
185.636860984622
 11
365.70009145184
 21
188.387845940008
  0
LINE
  5
561
100
AcDbEntity
  8
0
100
AcDbLine
  6
BYLAYER
 10
358.83000020511
 20
184.875898451424
 11
365.70009145184
 21
187.626883406811
  0
LINE
  5
562
100
AcDbEntity
  8
0
100
AcDbLine
  6
BYLAYER
 10
358.83000020511
 20
184.098423317191
 11
365.70009145184
 21
186.849408272578
  0
LINE
  5
563
100
AcDbEntity
  8
0
100
AcDbLine
  6
BYLAYER
 10
358.830000205109
 20
191.005442412158
 11
365.70009145184
 21
193.756427367545
  0
LINE
  5
564
100
AcDbEntity
  8
0
100
AcDbLine
  6
BYLAYER
 10
358.83000020511
 20
190.208887032593
 11
365.70009145184
 21
192.959871987979
  0
LINE
  5
565
100
AcDbEntity
  8
0
100
AcDbLine
  6
BYLAYER
 10
373.10000020511
 20
182.699408272577
 11
373.10000020511
 21
186.849408272578
  0
LINE
  5
566
100
AcDbEntity
  8
0
100
AcDbLine
  6
BYLAYER
 10
370.60000020511
 20
182.699408272577
 11
370.60000020511
 21
185.849408272578
  0
ARC
  5
567
100
AcDbEntity
  8
0
100
AcDbCircle
  6
BYLAYER
 10
372.10000020511
 20
182.699408272577
 40
1
100
AcDbArc
 50
270
 51
0
  0
ARC
  5
568
100
AcDbEntity
  8
0
100
AcDbCircle
  6
BYLAYER
 10
371.60000020511
 20
182.699408272577
 40
1
100
AcDbArc
 50
180
 51
270
  0
LINE
  5
569
100
AcDbEntity
  8
0
100
AcDbLine
  6
BYLAYER
 10
372.10000020511
 20
181.699408272577
 11
371.60000020511
 21
181.699408272577
  0
ARC
  5
56A
100
AcDbEntity
  8
0
100
AcDbCircle
  6
BYLAYER
 10
372.10000020511
 20
186.849408272578
 40
1
100
AcDbArc
 50
0
 51
90
  0
LINE
  5
56B
100
AcDbEntity
  8
0
100
AcDbLine
  6
BYLAYER
 10
368.300000205109
 20
186.849408272578
 11
365.70009145184
 21
186.849408272578
  0
LINE
  5
56C
100
AcDbEntity
  8
0
100
AcDbLine
  6
BYLAYER
 10
367.300000205109
 20
191.849408272578
 11
368.300000205109
 21
191.849408272578
  0
ARC
  5
56D
100
AcDbEntity
  8
0
100
AcDbCircle
  6
BYLAYER
 10
368.300000205109
 20
187.849408272578
 40
1
100
AcDbArc
 50
180
 51
270
  0
ARC
  5
56E
100
AcDbEntity
  8
0
100
AcDbCircle
  6
BYLAYER
 10
369.300000205109
 20
188.849408272578
 40
1
100
AcDbArc
 50
180
 51
270
  0
ARC
  5
56F
100
AcDbEntity
  8
0
100
AcDbCircle
  6
BYLAYER
 10
369.60000020511
 20
185.849408272578
 40
1
100
AcDbArc
 50
0
 51
90
  0
LINE
  5
570
100
AcDbEntity
  8
0
100
AcDbLine
  6
BYLAYER
 10
372.10000020511
 20
187.849408272578
 11
369.300000205109
 21
187.849408272578
  0
LINE
  5
571
100
AcDbEntity
  8
0
100
AcDbLine
  6
BYLAYER
 10
369.60000020511
 20
186.849408272578
 11
368.300000205109
 21
186.849408272578
  0
LINE
  5
572
100
AcDbEntity
  8
0
100
AcDbLine
  6
BYLAYER
 10
367.300000205109
 20
187.849408272578
 11
367.300000205109
 21
191.849408272578
  0
LINE
  5
573
100
AcDbEntity
  8
0
100
AcDbLine
  6
BYLAYER
 10
368.300000205109
 20
188.849408272578
 11
368.300000205109
 21
191.849408272578
  0
LINE
  5
574
100
AcDbEntity
  8
0
100
AcDbLine
  6
BYLAYER
 10
203.439603959694
 20
225.849408272577
 11
80.5000002051083
 21
225.849408272578
  0
LINE
  5
575
100
AcDbEntity
  8
0
100
AcDbLine
  6
BYLAYER
 10
200.668591769016
 20
216.849408272578
 11
80.5000002051083
 21
216.849408272579
  0
LINE
  5
576
100
AcDbEntity
  8
0
100
AcDbLine
  6
BYLAYER
 10
219.100000205109
 20
170.624418280592
 11
219.100000205109
 21
66.8494082725778
  0
LINE
  5
577
100
AcDbEntity
  8
0
100
AcDbLine
  6
BYLAYER
 10
219.100000205109
 20
66.8494082725778
 11
219.100000205109
 21
170.624418280596
  0
LINE
  5
578
100
AcDbEntity
  8
0
100
AcDbLine
  6
BYLAYER
 10
244.100000205109
 20
80.8494082725778
 11
217.794574941409
 21
174.918662557367
  0
LINE
  5
579
100
AcDbEntity
  8
0
100
AcDbLine
  6
BYLAYER
 10
187.100000205108
 20
74.9494082725781
 11
190.937638581492
 21
191.849408272578
  0
LINE
  5
57A
100
AcDbEntity
  8
0
100
AcDbLine
  6
BYLAYER
 10
217.100000205108
 20
177.538916710303
 11
217.100000205108
 21
74.9494082725781
  0
CIRCLE
  5
57B
100
AcDbEntity
  8
0
100
AcDbCircle
  6
BYLAYER
 10
229.100000205109
 20
66.8494082725778
 40
4.25
  0
ARC
  5
57C
100
AcDbEntity
  8
0
100
AcDbCircle
  6
BYLAYER
 10
229.100000205109
 20
66.8494082725778
 40
10
100
AcDbArc
 50
180
 51
270
  0
CIRCLE
  5
57D
100
AcDbEntity
  8
0
100
AcDbCircle
  6
BYLAYER
 10
229.100000205109
 20
66.8494082725778
 40
4.25
  0
ARC
  5
57E
100
AcDbEntity
  8
0
100
AcDbCircle
  6
BYLAYER
 10
229.100000205109
 20
66.8494082725778
 40
10
100
AcDbArc
 50
180
 51
270
  0
LINE
  5
57F
100
AcDbEntity
  8
0
100
AcDbLine
  6
BYLAYER
 10
215.500000205108
 20
74.9456894961034
 11
215.500000205108
 21
70.0494082725776
  0
LINE
  5
580
100
AcDbEntity
  8
0
100
AcDbLine
  6
BYLAYER
 10
215.500000205108
 20
70.0494082725776
 11
213.700000205109
 21
70.0494082725776
  0
LINE
  5
581
100
AcDbEntity
  8
0
100
AcDbLine
  6
BYLAYER
 10
213.700000205109
 20
68.4494082725781
 11
217.100000205109
 21
68.4494082725781
  0
LINE
  5
582
100
AcDbEntity
  8
0
100
AcDbLine
  6
BYLAYER
 10
217.100000205109
 20
68.4494082725781
 11
217.100000205109
 21
74.9494082725781
  0
LINE
  5
583
100
AcDbEntity
  8
0
100
AcDbLine
  6
BYLAYER
 10
217.100000205109
 20
74.9494082725781
 11
187.100000205108
 21
74.949408272579
  0
LINE
  5
584
100
AcDbEntity
  8
0
100
AcDbLine
  6
BYLAYER
 10
198.600000205109
 20
91.9494082725782
 11
203.600000205109
 21
91.9494082725782
  0
ARC
  5
585
100
AcDbEntity
  8
0
100
AcDbCircle
  6
BYLAYER
 10
203.600000205109
 20
87.6994082725782
 40
4.25
100
AcDbArc
 50
270
 51
90
  0
LINE
  5
586
100
AcDbEntity
  8
0
100
AcDbLine
  6
BYLAYER
 10
203.600000205109
 20
83.4494082725781
 11
198.600000205109
 21
83.4494082725782
  0
ARC
  5
587
100
AcDbEntity
  8
0
100
AcDbCircle
  6
BYLAYER
 10
198.600000205109
 20
87.6994082725782
 40
4.25
100
AcDbArc
 50
90
 51
270
  0
LINE
  5
588
100
AcDbEntity
  8
0
100
AcDbLine
  6
BYLAYER
 10
215.500000205108
 20
74.9494082725781
 11
215.500000205108
 21
74.9456894961034
  0
LINE
  5
589
100
AcDbEntity
  8
HIDDEN
100
AcDbLine
  6
BYLAYER
 10
195.950000205109
 20
58.4494082725781
 11
195.950000205109
 21
56.8494082725778
  0
LINE
  5
58A
100
AcDbEntity
  8
HIDDEN
100
AcDbLine
  6
BYLAYER
 10
182.450000205109
 20
58.4494082725781
 11
182.450000205109
 21
56.8494082725778
  0
LINE
  5
58B
100
AcDbEntity
  8
0
100
AcDbLine
  6
BYLAYER
 10
213.700000205109
 20
74.9494082725781
 11
213.700000205109
 21
56.8494082725778
  0
LWPOLYLINE
  5
58C
100
AcDbEntity
  8
0
100
AcDbPolyline
  6
BYLAYER
370
0
 90
     2
 10
194.850000205109
  20
85.6994082725782
 10
194.850000205109
  20
89.6994082725781
  0
ARC
  5
58D
100
AcDbEntity
  8
0
100
AcDbCircle
  6
BYLAYER
370
0
 10
199.100000205109
 20
73.8494082725777
 40
4.25
100
AcDbArc
 50
179.999999999999
 51
-1.06866637297174E-12
  0
LINE
  5
58E
100
AcDbEntity
  8
0
100
AcDbLine
  6
BYLAYER
370
0
 10
194.850000205109
 20
73.8494082725778
 11
194.850000205109
 21
74.949408272579
  0
LWPOLYLINE
  5
58F
100
AcDbEntity
  8
0
100
AcDbPolyline
  6
BYLAYER
370
0
 90
     2
 10
203.350000205109
  20
91.9494082725782
 10
203.350000205109
  20
83.4494082725781
  0
LINE
  5
590
100
AcDbEntity
  8
0
100
AcDbLine
  6
BYLAYER
 10
250.400000205109
 20
176.849408272578
 11
247.700000205109
 21
176.849408272578
  0
LINE
  5
591
100
AcDbEntity
  8
0
100
AcDbLine
  6
BYLAYER
 10
250.400000205109
 20
176.849408272578
 11
250.400000205109
 21
231.29755323306
  0
LINE
  5
592
100
AcDbEntity
  8
0
100
AcDbLine
  6
BYLAYER
 10
255.10000020511
 20
216.951281117638
 11
258.053644464167
 21
231.29755323306
  0
LINE
  5
593
100
AcDbEntity
  8
0
100
AcDbLine
  6
BYLAYER
 10
256.10000020511
 20
216.849408272578
 11
259.074618285208
 21
231.29755323306
  0
LINE
  5
594
100
AcDbEntity
  8
0
100
AcDbLine
  6
BYLAYER
 10
262.699908958379
 20
231.29755323306
 11
262.699908958379
 21
186.849408272578
  0
LINE
  5
595
100
AcDbEntity
  8
0
100
AcDbLine
  6
BYLAYER
 10
260.10000020511
 20
196.283217893609
 11
255.10000020511
 21
199.283217893609
  0
ARC
  5
596
100
AcDbEntity
  8
0
100
AcDbCircle
  6
BYLAYER
 10
256.10000020511
 20
186.849408272578
 40
1
100
AcDbArc
 50
90
 51
180
  0
ARC
  5
597
100
AcDbEntity
  8
0
100
AcDbCircle
  6
BYLAYER
 10
256.10000020511
 20
182.699408272577
 40
1
100
AcDbArc
 50
180
 51
270
  0
LINE
  5
598
100
AcDbEntity
  8
0
100
AcDbLine
  6
BYLAYER
 10
257.60000020511
 20
185.849408272578
 11
257.60000020511
 21
182.699408272577
  0
LINE
  5
599
100
AcDbEntity
  8
0
100
AcDbLine
  6
BYLAYER
 10
269.57000020511
 20
184.098423317191
 11
262.699908958379
 21
186.849408272578
  0
LINE
  5
59A
100
AcDbEntity
  8
0
100
AcDbLine
  6
BYLAYER
 10
269.57000020511
 20
184.875898451424
 11
262.699908958379
 21
187.626883406811
  0
LINE
  5
59B
100
AcDbEntity
  8
0
100
AcDbLine
  6
BYLAYER
 10
256.60000020511
 20
181.699408272577
 11
256.10000020511
 21
181.699408272577
  0
ARC
  5
59C
100
AcDbEntity
  8
0
100
AcDbCircle
  6
BYLAYER
 10
256.60000020511
 20
182.699408272577
 40
1
100
AcDbArc
 50
270
 51
0
  0
LINE
  5
59D
100
AcDbEntity
  8
0
100
AcDbLine
  6
BYLAYER
 10
269.57000020511
 20
213.801655328877
 11
262.699908958379
 21
216.552640284263
  0
LINE
  5
59E
100
AcDbEntity
  8
0
100
AcDbLine
  6
BYLAYER
 10
256.10000020511
 20
199.849408272578
 11
256.10000020511
 21
216.849408272578
  0
LINE
  5
59F
100
AcDbEntity
  8
0
100
AcDbLine
  6
BYLAYER
 10
261.10000020511
 20
187.849408272578
 11
261.10000020511
 21
231.297553233061
  0
LINE
  5
5A0
100
AcDbEntity
  8
0
100
AcDbLine
  6
BYLAYER
 10
269.57000020511
 20
198.463273774387
 11
262.699908958379
 21
201.214258729773
  0
LINE
  5
5A1
100
AcDbEntity
  8
0
100
AcDbLine
  6
BYLAYER
 10
269.57000020511
 20
190.208887032593
 11
262.699908958379
 21
192.959871987979
  0
LINE
  5
5A2
100
AcDbEntity
  8
0
100
AcDbLine
  6
BYLAYER
 10
269.57000020511
 20
191.005442412158
 11
262.699908958379
 21
193.756427367545
  0
LINE
  5
5A3
100
AcDbEntity
  8
0
100
AcDbLine
  6
BYLAYER
 10
269.57000020511
 20
197.308639200271
 11
262.699908958379
 21
200.059624155658
  0
LINE
  5
5A4
100
AcDbEntity
  8
0
100
AcDbLine
  6
BYLAYER
 10
269.57000020511
 20
185.636860984622
 11
262.699908958379
 21
188.387845940008
  0
LINE
  5
5A5
100
AcDbEntity
  8
0
100
AcDbLine
  6
BYLAYER
 10
269.57000020511
 20
186.434758523975
 11
262.699908958379
 21
189.185743479361
  0
LINE
  5
5A6
100
AcDbEntity
  8
0
100
AcDbLine
  6
BYLAYER
 10
260.10000020511
 20
188.849408272578
 11
260.10000020511
 21
196.283217893609
  0
LINE
  5
5A7
100
AcDbEntity
  8
0
100
AcDbLine
  6
BYLAYER
 10
262.699908958379
 20
186.849408272578
 11
260.10000020511
 21
186.849408272578
  0
ARC
  5
5A8
100
AcDbEntity
  8
0
100
AcDbCircle
  6
BYLAYER
 10
260.10000020511
 20
187.849408272578
 40
1
100
AcDbArc
 50
270
 51
0
  0
ARC
  5
5A9
100
AcDbEntity
  8
0
100
AcDbCircle
  6
BYLAYER
 10
259.10000020511
 20
188.849408272578
 40
1
100
AcDbArc
 50
270
 51
0
  0
LINE
  5
5AA
100
AcDbEntity
  8
0
100
AcDbLine
  6
BYLAYER
 10
258.60000020511
 20
186.849408272578
 11
260.10000020511
 21
186.849408272578
  0
LINE
  5
5AB
100
AcDbEntity
  8
0
100
AcDbLine
  6
BYLAYER
 10
256.10000020511
 20
187.849408272578
 11
259.10000020511
 21
187.849408272578
  0
ARC
  5
5AC
100
AcDbEntity
  8
0
100
AcDbCircle
  6
BYLAYER
 10
258.60000020511
 20
185.849408272578
 40
1
100
AcDbArc
 50
90
 51
180
  0
LINE
  5
5AD
100
AcDbEntity
  8
0
100
AcDbLine
  6
BYLAYER
 10
261.10000020511
 20
196.849408272578
 11
256.10000020511
 21
199.849408272578
  0
LINE
  5
5AE
100
AcDbEntity
  8
0
100
AcDbLine
  6
BYLAYER
 10
269.57000020511
 20
206.148994860764
 11
262.699908958379
 21
208.899979816151
  0
LINE
  5
5AF
100
AcDbEntity
  8
0
100
AcDbLine
  6
BYLAYER
 10
269.57000020511
 20
206.859430461837
 11
262.699908958379
 21
209.610415417223
  0
LINE
  5
5B0
100
AcDbEntity
  8
0
100
AcDbLine
  6
BYLAYER
 10
269.57000020511
 20
208.604822412214
 11
262.699908958379
 21
211.355807367602
  0
LINE
  5
5B1
100
AcDbEntity
  8
0
100
AcDbLine
  6
BYLAYER
 10
269.57000020511
 20
218.551223709978
 11
262.699908958379
 21
221.302208665364
  0
LINE
  5
5B2
100
AcDbEntity
  8
0
100
AcDbLine
  6
BYLAYER
 10
269.57000020511
 20
221.153453315847
 11
262.699908958379
 21
223.904438271234
  0
LINE
  5
5B3
100
AcDbEntity
  8
0
100
AcDbLine
  6
BYLAYER
 10
255.10000020511
 20
186.849408272578
 11
255.10000020511
 21
182.699408272577
  0
LINE
  5
5B4
100
AcDbEntity
  8
0
100
AcDbLine
  6
BYLAYER
 10
255.10000020511
 20
199.283217893609
 11
255.10000020511
 21
216.951281117638
  0
LINE
  5
5B5
100
AcDbEntity
  8
0
100
AcDbLine
  6
BYLAYER
 10
219.100000205108
 20
124.235122558291
 11
217.100000205109
 21
121.849408272578
  0
CIRCLE
  5
5B6
100
AcDbEntity
  8
0
100
AcDbCircle
  6
BYLAYER
 10
199.100000205109
 20
137.699408272578
 40
4.25
  0
LINE
  5
5B7
100
AcDbEntity
  8
0
100
AcDbLine
  6
BYLAYER
 10
190.500000205108
 20
225.849408272578
 11
190.500000205108
 21
216.849408272579
  0
LINE
  5
5B8
100
AcDbEntity
  8
0
100
AcDbLine
  6
BYLAYER
 10
200.500000205108
 20
225.849408272578
 11
200.500000205108
 21
216.849408272579
  0
LINE
  5
5B9
100
AcDbEntity
  8
0
100
AcDbLine
  6
BYLAYER
 10
80.5000002051083
 20
222.849408272578
 11
78.5000002051083
 21
222.849408272578
  0
LINE
  5
5BA
100
AcDbEntity
  8
0
100
AcDbLine
  6
BYLAYER
 10
90.5000002051083
 20
225.849408272578
 11
90.5000002051083
 21
216.849408272579
  0
LINE
  5
5BB
100
AcDbEntity
  8
0
100
AcDbLine
  6
BYLAYER
 10
100.500000205108
 20
225.849408272578
 11
100.500000205108
 21
216.849408272579
  0
LINE
  5
5BC
100
AcDbEntity
  8
0
100
AcDbLine
  6
BYLAYER
 10
80.5000002051083
 20
216.849408272579
 11
80.5000002051083
 21
225.849408272578
  0
CIRCLE
  5
5BD
100
AcDbEntity
  8
0
100
AcDbCircle
  6
BYLAYER
 10
885.193157528928
 20
425.849408272578
 40
3.5
  0
CIRCLE
  5
5BE
100
AcDbEntity
  8
0
100
AcDbCircle
  6
BYLAYER
 10
885.193157528928
 20
425.849408272578
 40
3.5
  0
CIRCLE
  5
5BF
100
AcDbEntity
  8
0
100
AcDbCircle
  6
HIDDEN
 10
885.193157528928
 20
425.849408272578
 40
3
  0
CIRCLE
  5
5C0
100
AcDbEntity
  8
0
100
AcDbCircle
  6
BYLAYER
 10
756.193157528928
 20
296.849408272578
 40
3.5
  0
CIRCLE
  5
5C1
100
AcDbEntity
  8
0
100
AcDbCircle
  6
BYLAYER
 10
793.976382755863
 20
388.066183045642
 40
3.5
  0
CIRCLE
  5
5C2
100
AcDbEntity
  8
0
100
AcDbCircle
  6
BYLAYER
 10
756.193157528928
 20
296.849408272578
 40
3.5
  0
CIRCLE
  5
5C3
100
AcDbEntity
  8
0
100
AcDbCircle
  6
BYLAYER
 10
793.976382755864
 20
388.066183045642
 40
3.5
  0
CIRCLE
  5
5C4
100
AcDbEntity
  8
0
100
AcDbCircle
  6
HIDDEN
 10
793.976382755863
 20
388.066183045642
 40
3
  0
CIRCLE
  5
5C5
100
AcDbEntity
  8
0
100
AcDbCircle
  6
HIDDEN
 10
756.193157528928
 20
296.849408272578
 40
3
  0
LINE
  5
5C6
100
AcDbEntity
  8
HATCH
100
AcDbLine
  6
BYLAYER
 62
0
370
  -2
 10
698.693152610175
 20
349.34940732345
 11
698.693152610175
 21
492.307910321076
  0
LINE
  5
5C7
100
AcDbEntity
  8
HATCH
100
AcDbLine
  6
BYLAYER
 62
0
370
  -2
 10
587.193152610175
 20
304.349407323449
 11
587.193152610175
 21
492.307910321076
  0
LINE
  5
5C8
100
AcDbEntity
  8
HATCH
100
AcDbLine
  6
BYLAYER
 62
0
370
  -2
 10
686.193152610175
 20
489.807910321076
 11
667.943152610175
 21
489.807910321076
  0
LINE
  5
5C9
100
AcDbEntity
  8
HATCH
100
AcDbLine
  6
BYLAYER
 62
0
370
  -2
 10
599.693152610175
 20
489.807910321076
 11
617.943152610175
 21
489.807910321076
  0
SOLID
  5
5CA
100
AcDbEntity
  8
HATCH
100
AcDbTrace
 10
686.193152610175
 20
491.891243654409
 30
0.0
 11
686.193152610175
 21
487.724576987742
 31
0.0
 12
698.693152610175
 22
489.807910321076
 32
0.0
 13
698.693152610175
 23
489.807910321076
 33
0.0
  0
SOLID
  5
5CB
100
AcDbEntity
  8
HATCH
100
AcDbTrace
 10
587.193152610175
 20
489.807910321076
 30
0.0
 11
599.693152610175
 21
487.724576987742
 31
0.0
 12
599.693152610175
 22
491.891243654409
 32
0.0
 13
599.693152610175
 23
491.891243654409
 33
0.0
  0
TEXT
  5
5CC
100
AcDbEntity
  8
HATCH
 62
0
100
AcDbText
  6
BYLAYER
 62
0
 10
629.818152610175
 20
481.057910321076
 40
17.5
  1
112
  7
Font_0
 72
1
 11
642.943152610175
 21
489.807910321076
100
AcDbText
 73
2
  0
LINE
  5
5CD
100
AcDbEntity
  8
0
100
AcDbLine
  6
BYLAYER
 10
617.193152610175
 20
301.849407323449
 11
667.193152610175
 21
322.84940732345
  0
LINE
  5
5CE
100
AcDbEntity
  8
0
100
AcDbLine
  6
BYLAYER
 10
667.193152610175
 20
322.84940732345
 11
697.193152610175
 21
322.84940732345
  0
LINE
  5
5CF
100
AcDbEntity
  8
0
100
AcDbLine
  6
BYLAYER
 10
697.193152610175
 20
346.84940732345
 11
698.693152610175
 21
346.84940732345
  0
LINE
  5
5D0
100
AcDbEntity
  8
0
100
AcDbLine
  6
BYLAYER
 10
700.193157528928
 20
346.849408272578
 11
698.693157528928
 21
346.849408272578
  0
LINE
  5
5D1
100
AcDbEntity
  8
0
100
AcDbLine
  6
BYLAYER
 10
587.193152610175
 20
301.849407323449
 11
617.193152610175
 21
301.849407323449
  0
LINE
  5
5D2
100
AcDbEntity
  8
HATCH
100
AcDbLine
  6
BYLAYER
 62
0
370
  -2
 10
383.100000205109
 20
467.995287089533
 11
383.100000205109
 21
492.307910321076
  0
LINE
  5
5D3
100
AcDbEntity
  8
HATCH
100
AcDbLine
  6
BYLAYER
 62
0
370
  -2
 10
245.100000205109
 20
467.995287089533
 11
245.100000205109
 21
492.307910321076
  0
LINE
  5
5D4
100
AcDbEntity
  8
HATCH
100
AcDbLine
  6
BYLAYER
 62
0
370
  -2
 10
370.600000205109
 20
489.807910321076
 11
342.016666871776
 21
489.807910321076
  0
LINE
  5
5D5
100
AcDbEntity
  8
HATCH
100
AcDbLine
  6
BYLAYER
 62
0
370
  -2
 10
257.600000205109
 20
489.807910321076
 11
286.183333538442
 21
489.807910321076
  0
SOLID
  5
5D6
100
AcDbEntity
  8
HATCH
100
AcDbTrace
 10
370.600000205109
 20
491.891243654409
 30
0.0
 11
370.600000205109
 21
487.724576987742
 31
0.0
 12
383.100000205109
 22
489.807910321076
 32
0.0
 13
383.100000205109
 23
489.807910321076
 33
0.0
  0
SOLID
  5
5D7
100
AcDbEntity
  8
HATCH
100
AcDbTrace
 10
245.100000205109
 20
489.807910321076
 30
0.0
 11
257.600000205109
 21
487.724576987742
 31
0.0
 12
257.600000205109
 22
491.891243654409
 32
0.0
 13
257.600000205109
 23
491.891243654409
 33
0.0
  0
TEXT
  5
5D8
100
AcDbEntity
  8
HATCH
 62
0
100
AcDbText
  6
BYLAYER
 62
0
 10
300.975000205109
 20
481.057910321076
 40
17.5
  1
138
  7
Font_0
 72
1
 11
314.100000205109
 21
489.807910321076
100
AcDbText
 73
2
  0
LINE
  5
5D9
100
AcDbEntity
  8
0
100
AcDbLine
  6
BYLAYER
 10
399.100000205109
 20
346.849408272578
 11
229.100000205109
 21
346.849408272578
  0
LINE
  5
5DA
100
AcDbEntity
  8
0
100
AcDbLine
  6
BYLAYER
 10
254.10000020511
 20
464.495287089533
 11
374.100000205109
 21
464.495287089533
  0
LINE
  5
5DB
100
AcDbEntity
  8
0
100
AcDbLine
  6
BYLAYER
 10
229.100000205108
 20
346.849408272578
 11
399.100000205108
 21
346.849408272578
  0
LINE
  5
5DC
100
AcDbEntity
  8
0
100
AcDbLine
  6
BYLAYER
 10
309.100000205109
 20
322.849408272578
 11
244.100000205109
 21
322.849408272577
  0
LINE
  5
5DD
100
AcDbEntity
  8
HATCH
100
AcDbLine
  6
BYLAYER
 62
0
370
  -2
 10
432.900000205109
 20
400.349408272576
 11
432.900000205109
 21
492.307910321076
  0
LINE
  5
5DE
100
AcDbEntity
  8
HATCH
100
AcDbLine
  6
BYLAYER
 62
0
370
  -2
 10
383.100000205109
 20
467.995287089533
 11
383.100000205109
 21
492.307910321076
  0
LINE
  5
5DF
100
AcDbEntity
  8
HATCH
100
AcDbLine
  6
BYLAYER
 62
0
370
  -2
 10
445.400000205109
 20
489.807910321076
 11
457.900000205109
 21
489.807910321076
  0
LINE
  5
5E0
100
AcDbEntity
  8
HATCH
100
AcDbLine
  6
BYLAYER
 62
0
370
  -2
 10
370.600000205109
 20
489.807910321076
 11
358.100000205109
 21
489.807910321076
  0
SOLID
  5
5E1
100
AcDbEntity
  8
HATCH
100
AcDbTrace
 10
432.900000205109
 20
489.807910321076
 30
0.0
 11
445.400000205109
 21
487.724576987742
 31
0.0
 12
445.400000205109
 22
491.891243654409
 32
0.0
 13
445.400000205109
 23
491.891243654409
 33
0.0
  0
SOLID
  5
5E2
100
AcDbEntity
  8
HATCH
100
AcDbTrace
 10
370.600000205109
 20
491.891243654409
 30
0.0
 11
370.600000205109
 21
487.724576987742
 31
0.0
 12
383.100000205109
 22
489.807910321076
 32
0.0
 13
383.100000205109
 23
489.807910321076
 33
0.0
  0
TEXT
  5
5E3
100
AcDbEntity
  8
HATCH
 62
0
100
AcDbText
  6
BYLAYER
 62
0
 10
398.859909668739
 20
481.057910321076
 40
17.5
  1
50
  7
Font_0
 72
1
 11
407.609909668739
 21
489.807910321076
100
AcDbText
 73
2
  0
LINE
  5
5E4
100
AcDbEntity
  8
0
100
AcDbLine
  6
BYLAYER
 10
388.100000205109
 20
397.849408272576
 11
432.900000205109
 21
397.849408272576
  0
CIRCLE
  5
5E5
100
AcDbEntity
  8
0
100
AcDbCircle
  6
BYLAYER
 10
399.100000205109
 20
336.849408272578
 40
4.25
  0
ARC
  5
5E6
100
AcDbEntity
  8
0
100
AcDbCircle
  6
BYLAYER
 10
399.100000205109
 20
336.849408272578
 40
10
100
AcDbArc
 50
0
 51
90
  0
CIRCLE
  5
5E7
100
AcDbEntity
  8
0
100
AcDbCircle
  6
BYLAYER
 10
399.100000205109
 20
336.849408272578
 40
4.25
  0
ARC
  5
5E8
100
AcDbEntity
  8
0
100
AcDbCircle
  6
BYLAYER
 10
399.100000205109
 20
336.849408272578
 40
10
100
AcDbArc
 50
0
 51
90
  0
LINE
  5
5E9
100
AcDbEntity
  8
0
100
AcDbLine
  6
BYLAYER
 10
383.100000205109
 20
346.849408272578
 11
383.100000205109
 21
465.495287089534
  0
LINE
  5
5EA
100
AcDbEntity
  8
0
100
AcDbLine
  6
BYLAYER
 10
374.100000205109
 20
346.849408272578
 11
374.100000205109
 21
465.495287089534
  0
LINE
  5
5EB
100
AcDbEntity
  8
0
100
AcDbLine
  6
BYLAYER
 10
388.100000205109
 20
437.349408272578
 11
388.100000205109
 21
346.849408272579
  0
LINE
  5
5EC
100
AcDbEntity
  8
0
100
AcDbLine
  6
BYLAYER
 10
310.100000205109
 20
322.849408272577
 11
384.100000205109
 21
322.849408272577
  0
LINE
  5
5ED
100
AcDbEntity
  8
0
100
AcDbLine
  6
BYLAYER
 10
382.100000205109
 20
275.18937009422
 11
382.100000205109
 21
275.170619391868
  0
LINE
  5
5EE
100
AcDbEntity
  8
0
100
AcDbLine
  6
BYLAYER
 10
309.100000205109
 20
322.849408272578
 11
310.100000205109
 21
321.849408272578
  0
LINE
  5
5EF
100
AcDbEntity
  8
0
100
AcDbLine
  6
BYLAYER
 10
310.100000205109
 20
301.769376246952
 11
310.100000205109
 21
322.849408272577
  0
LINE
  5
5F0
100
AcDbEntity
  8
0
100
AcDbLine
  6
BYLAYER
 10
374.100000205109
 20
465.495287089534
 11
383.100000205109
 21
465.495287089534
  0
LINE
  5
5F1
100
AcDbEntity
  8
0
100
AcDbLine
  6
BYLAYER
 10
383.100000205109
 20
438.349408272578
 11
388.100000205109
 21
438.349408272578
  0
LINE
  5
5F2
100
AcDbEntity
  8
0
100
AcDbLine
  6
BYLAYER
 10
388.100000205109
 20
437.349408272578
 11
388.100000205109
 21
438.349408272578
  0
LINE
  5
5F3
100
AcDbEntity
  8
0
100
AcDbLine
  6
BYLAYER
 10
245.100000205109
 20
346.849408272578
 11
245.100000205109
 21
465.495287089534
  0
LINE
  5
5F4
100
AcDbEntity
  8
0
100
AcDbLine
  6
BYLAYER
 10
254.100000205109
 20
346.849408272578
 11
254.100000205109
 21
465.495287089534
  0
LINE
  5
5F5
100
AcDbEntity
  8
0
100
AcDbLine
  6
BYLAYER
 10
234.100000205109
 20
346.849408272578
 11
234.100000205109
 21
438.449408272578
  0
LINE
  5
5F6
100
AcDbEntity
  8
0
100
AcDbLine
  6
BYLAYER
 10
245.100000205109
 20
438.449408272578
 11
245.100000205109
 21
346.849408272578
  0
CIRCLE
  5
5F7
100
AcDbEntity
  8
0
100
AcDbCircle
  6
BYLAYER
 10
229.100000205109
 20
336.849408272578
 40
4.25
  0
ARC
  5
5F8
100
AcDbEntity
  8
0
100
AcDbCircle
  6
BYLAYER
 10
229.100000205109
 20
336.849408272578
 40
10
100
AcDbArc
 50
90
 51
180
  0
ARC
  5
5F9
100
AcDbEntity
  8
0
100
AcDbCircle
  6
BYLAYER
 10
229.100000205108
 20
336.849408272578
 40
10
100
AcDbArc
 50
90
 51
180
  0
CIRCLE
  5
5FA
100
AcDbEntity
  8
0
100
AcDbCircle
  6
BYLAYER
 10
229.100000205108
 20
336.849408272578
 40
4.25
  0
ARC
  5
5FB
100
AcDbEntity
  8
0
100
AcDbCircle
  6
BYLAYER
 10
84.1354932716295
 20
350.112330306398
 40
150
100
AcDbArc
 50
328.55009962757
 51
334.126981945971
  0
LINE
  5
5FC
100
AcDbEntity
  8
0
100
AcDbLine
  6
BYLAYER
 10
254.100000205109
 20
465.495287089534
 11
245.100000205109
 21
465.495287089534
  0
LINE
  5
5FD
100
AcDbEntity
  8
0
100
AcDbLine
  6
BYLAYER
 10
234.100000205109
 20
438.449408272578
 11
245.100000205109
 21
438.449408272578
  0
LINE
  5
5FE
100
AcDbEntity
  8
0
100
AcDbLine
  6
BYLAYER
 10
2.051083356E-7
 20
364.349408272579
 11
2.051083356E-7
 21
236.849408272579
  0
LINE
  5
5FF
100
AcDbEntity
  8
0
100
AcDbLine
  6
BYLAYER
 10
33.7000002051091
 20
56.8494082725778
 11
33.7000002051091
 21
216.849408272578
  0
LINE
  5
600
100
AcDbEntity
  8
HIDDEN
100
AcDbLine
  6
BYLAYER
 10
60.9500002051091
 20
58.4494082725782
 11
60.9500002051091
 21
56.8494082725778
  0
LINE
  5
601
100
AcDbEntity
  8
HIDDEN
100
AcDbLine
  6
BYLAYER
 10
47.4500002051091
 20
58.4494082725782
 11
47.4500002051091
 21
56.8494082725778
  0
ARC
  5
602
100
AcDbEntity
  8
0
100
AcDbCircle
  6
BYLAYER
 10
20.0000002051083
 20
236.849408272579
 40
20
100
AcDbArc
 50
180
 51
244.513619786108
  0
ARC
  5
603
100
AcDbEntity
  8
0
100
AcDbCircle
  6
BYLAYER
 10
20.0000002051083
 20
364.349408272579
 40
20
100
AcDbArc
 50
90
 51
180
  0
ARC
  5
604
100
AcDbEntity
  8
BASE
100
AcDbCircle
  6
BYLAYER
 10
189.075916664016
 20
360.100557266461
 40
5
100
AcDbArc
 50
0
 51
90
  0
ARC
  5
605
100
AcDbEntity
  8
BASE
100
AcDbCircle
  6
BYLAYER
 10
189.075916664016
 20
268.851996455502
 40
5
100
AcDbArc
 50
270
 51
0
  0
ARC
  5
606
100
AcDbEntity
  8
BASE
100
AcDbCircle
  6
BYLAYER
 10
111.075916664016
 20
268.851996455502
 40
5
100
AcDbArc
 50
180
 51
270
  0
ARC
  5
607
100
AcDbEntity
  8
BASE
100
AcDbCircle
  6
BYLAYER
 10
111.075916664016
 20
360.100557266461
 40
5
100
AcDbArc
 50
90
 51
180
  0
LINE
  5
608
100
AcDbEntity
  8
BASE
100
AcDbLine
  6
BYLAYER
 10
194.075916664016
 20
360.100557266461
 11
194.075916664016
 21
268.851996455502
  0
LINE
  5
609
100
AcDbEntity
  8
BASE
100
AcDbLine
  6
BYLAYER
 10
106.075916664016
 20
360.100557266461
 11
106.075916664016
 21
268.851996455502
  0
ARC
  5
60A
100
AcDbEntity
  8
BASE
100
AcDbCircle
  6
BYLAYER
 10
182.575916664016
 20
276.849408272579
 40
5
100
AcDbArc
 50
270
 51
0
  0
ARC
  5
60B
100
AcDbEntity
  8
BASE
100
AcDbCircle
  6
BYLAYER
 10
182.575916664016
 20
351.849408272579
 40
5
100
AcDbArc
 50
0
 51
90
  0
ARC
  5
60C
100
AcDbEntity
  8
BASE
100
AcDbCircle
  6
BYLAYER
 10
117.575916664016
 20
351.849408272579
 40
5
100
AcDbArc
 50
90
 51
180
  0
ARC
  5
60D
100
AcDbEntity
  8
BASE
100
AcDbCircle
  6
BYLAYER
 10
117.575916664016
 20
276.849408272579
 40
5
100
AcDbArc
 50
180
 51
270
  0
LINE
  5
60E
100
AcDbEntity
  8
BASE
100
AcDbLine
  6
BYLAYER
 10
187.575916664016
 20
351.849408272579
 11
187.575916664016
 21
276.849408272579
  0
LINE
  5
60F
100
AcDbEntity
  8
BASE
100
AcDbLine
  6
BYLAYER
 10
112.575916664016
 20
351.849408272579
 11
112.575916664016
 21
276.849408272579
  0
LINE
  5
610
100
AcDbEntity
  8
BASE
100
AcDbLine
  6
BYLAYER
 10
189.075916664016
 20
263.851996455502
 11
111.075916664016
 21
263.851996455502
  0
LINE
  5
611
100
AcDbEntity
  8
BASE
100
AcDbLine
  6
BYLAYER
 10
189.075916664016
 20
365.100557266461
 11
111.075916664016
 21
365.100557266461
  0
LINE
  5
612
100
AcDbEntity
  8
BASE
100
AcDbLine
  6
BYLAYER
 10
182.575916664016
 20
271.849408272579
 11
117.575916664016
 21
271.849408272579
  0
LINE
  5
613
100
AcDbEntity
  8
BASE
100
AcDbLine
  6
BYLAYER
 10
182.575916664016
 20
356.849408272579
 11
117.575916664016
 21
356.849408272579
  0
LINE
  5
614
100
AcDbEntity
  8
0
100
AcDbLine
  6
BYLAYER
 10
203.350000205109
 20
73.8494082725776
 11
203.350000205109
 21
74.9494082725785
  0
LINE
  5
615
100
AcDbEntity
  8
HATCH
100
AcDbLine
  6
BYLAYER
 62
0
370
  -2
 10
584.693152610175
 20
301.849407323449
 11
559.685202395466
 21
301.849407323449
  0
LINE
  5
616
100
AcDbEntity
  8
HATCH
100
AcDbLine
  6
BYLAYER
 62
0
370
  -2
 10
584.693152610175
 20
101.84940732345
 11
559.685202395466
 21
101.84940732345
  0
LINE
  5
617
100
AcDbEntity
  8
HATCH
100
AcDbLine
  6
BYLAYER
 62
0
370
  -2
 10
562.185202395466
 20
289.349407323449
 11
562.185202395466
 21
238.516073990116
  0
LINE
  5
618
100
AcDbEntity
  8
HATCH
100
AcDbLine
  6
BYLAYER
 62
0
370
  -2
 10
562.185202395466
 20
114.34940732345
 11
562.185202395466
 21
165.182740656783
  0
SOLID
  5
619
100
AcDbEntity
  8
HATCH
100
AcDbTrace
 10
560.101869062133
 20
289.349407323449
 30
0.0
 11
564.268535728799
 21
289.349407323449
 31
0.0
 12
562.185202395466
 22
301.849407323449
 32
0.0
 13
562.185202395466
 23
301.849407323449
 33
0.0
  0
SOLID
  5
61A
100
AcDbEntity
  8
HATCH
100
AcDbTrace
 10
562.185202395466
 20
101.84940732345
 30
0.0
 11
564.268535728799
 21
114.34940732345
 31
0.0
 12
560.101869062133
 22
114.34940732345
 32
0.0
 13
560.101869062133
 23
114.34940732345
 33
0.0
  0
TEXT
  5
61B
100
AcDbEntity
  8
HATCH
 62
0
100
AcDbText
  6
BYLAYER
 62
0
 10
570.935202395466
 20
179.974407323449
 40
17.5
  1
Φ200
  7
Font_0
 50
90
 72
1
 11
562.185202395466
 21
201.849407323449
100
AcDbText
 73
2
  0
LINE
  5
61C
100
AcDbEntity
  8
HATCH
100
AcDbLine
  6
BYLAYER
 62
0
370
  -2
 10
887.693157528928
 20
296.849408272578
 11
1098.25748218248
 21
296.849408272578
  0
LINE
  5
61D
100
AcDbEntity
  8
HATCH
100
AcDbLine
  6
BYLAYER
 62
0
370
  -2
 10
902.585484102697
 20
465.495287089534
 11
1098.25748218248
 21
465.495287089534
  0
LINE
  5
61E
100
AcDbEntity
  8
HATCH
100
AcDbLine
  6
BYLAYER
 62
0
370
  -2
 10
1095.75748218248
 20
309.349408272578
 11
1095.75748218248
 21
353.255681014389
  0
LINE
  5
61F
100
AcDbEntity
  8
HATCH
100
AcDbLine
  6
BYLAYER
 62
0
370
  -2
 10
1095.75748218248
 20
452.995287089534
 11
1095.75748218248
 21
409.089014347722
  0
SOLID
  5
620
100
AcDbEntity
  8
HATCH
100
AcDbTrace
 10
1095.75748218248
 20
296.849408272578
 30
0.0
 11
1097.84081551582
 21
309.349408272578
 31
0.0
 12
1093.67414884915
 22
309.349408272578
 32
0.0
 13
1093.67414884915
 23
309.349408272578
 33
0.0
  0
SOLID
  5
621
100
AcDbEntity
  8
HATCH
100
AcDbTrace
 10
1093.67414884915
 20
452.995287089534
 30
0.0
 11
1097.84081551582
 21
452.995287089534
 31
0.0
 12
1095.75748218248
 22
465.495287089534
 32
0.0
 13
1095.75748218248
 23
465.495287089534
 33
0.0
  0
TEXT
  5
622
100
AcDbEntity
  8
HATCH
 62
0
100
AcDbText
  6
BYLAYER
 62
0
 10
1104.50748218248
 20
368.047347681056
 40
17.5
  1
169
  7
Font_0
 50
90
 72
1
 11
1095.75748218248
 21
381.172347681056
100
AcDbText
 73
2
  0
LINE
  5
623
100
AcDbEntity
  8
HATCH
100
AcDbLine
  6
BYLAYER
 62
0
370
  -2
 10
885.193157528928
 20
299.349408272578
 11
885.193157528928
 21
492.307910321076
  0
LINE
  5
624
100
AcDbEntity
  8
HATCH
100
AcDbLine
  6
BYLAYER
 62
0
370
  -2
 10
1077.75600308541
 20
284.490685398999
 11
1077.75600308541
 21
492.307910321076
  0
LINE
  5
625
100
AcDbEntity
  8
HATCH
100
AcDbLine
  6
BYLAYER
 62
0
370
  -2
 10
897.693157528928
 20
489.807910321076
 11
953.557913640502
 21
489.807910321076
  0
LINE
  5
626
100
AcDbEntity
  8
HATCH
100
AcDbLine
  6
BYLAYER
 62
0
370
  -2
 10
1065.25600308541
 20
489.807910321076
 11
1009.39124697384
 21
489.807910321076
  0
SOLID
  5
627
100
AcDbEntity
  8
HATCH
100
AcDbTrace
 10
885.193157528928
 20
489.807910321076
 30
0.0
 11
897.693157528928
 21
487.724576987742
 31
0.0
 12
897.693157528928
 22
491.891243654409
 32
0.0
 13
897.693157528928
 23
491.891243654409
 33
0.0
  0
SOLID
  5
628
100
AcDbEntity
  8
HATCH
100
AcDbTrace
 10
1065.25600308541
 20
491.891243654409
 30
0.0
 11
1065.25600308541
 21
487.724576987742
 31
0.0
 12
1077.75600308541
 22
489.807910321076
 32
0.0
 13
1077.75600308541
 23
489.807910321076
 33
0.0
  0
TEXT
  5
629
100
AcDbEntity
  8
HATCH
 62
0
100
AcDbText
  6
BYLAYER
 62
0
 10
968.349580307169
 20
481.057910321076
 40
17.5
  1
193
  7
Font_0
 72
1
 11
981.474580307169
 21
489.807910321076
100
AcDbText
 73
2
  0
LINE
  5
62A
100
AcDbEntity
  8
HATCH
100
AcDbLine
  6
BYLAYER
 62
0
370
  -2
 10
885.193157528928
 20
299.349408272578
 11
885.193157528928
 21
492.307910321076
  0
LINE
  5
62B
100
AcDbEntity
  8
HATCH
100
AcDbLine
  6
BYLAYER
 62
0
370
  -2
 10
698.693157528928
 20
349.349408272578
 11
698.693157528928
 21
492.307910321076
  0
LINE
  5
62C
100
AcDbEntity
  8
HATCH
100
AcDbLine
  6
BYLAYER
 62
0
370
  -2
 10
872.693157528928
 20
489.807910321076
 11
819.859824195594
 21
489.807910321076
  0
LINE
  5
62D
100
AcDbEntity
  8
HATCH
100
AcDbLine
  6
BYLAYER
 62
0
370
  -2
 10
711.193157528928
 20
489.807910321076
 11
764.026490862261
 21
489.807910321076
  0
SOLID
  5
62E
100
AcDbEntity
  8
HATCH
100
AcDbTrace
 10
872.693157528928
 20
491.891243654409
 30
0.0
 11
872.693157528928
 21
487.724576987742
 31
0.0
 12
885.193157528928
 22
489.807910321076
 32
0.0
 13
885.193157528928
 23
489.807910321076
 33
0.0
  0
SOLID
  5
62F
100
AcDbEntity
  8
HATCH
100
AcDbTrace
 10
698.693157528928
 20
489.807910321076
 30
0.0
 11
711.193157528928
 21
487.724576987742
 31
0.0
 12
711.193157528928
 22
491.891243654409
 32
0.0
 13
711.193157528928
 23
491.891243654409
 33
0.0
  0
TEXT
  5
630
100
AcDbEntity
  8
HATCH
 62
0
100
AcDbText
  6
BYLAYER
 62
0
 10
778.818157528928
 20
481.057910321076
 40
17.5
  1
187
  7
Font_0
 72
1
 11
791.943157528928
 21
489.807910321076
100
AcDbText
 73
2
  0
LINE
  5
631
100
AcDbEntity
  8
HATCH
100
AcDbLine
  6
BYLAYER
 62
0
370
  -2
 10
434.130215566776
 20
31.9369005668831
 11
421.630215566776
 21
31.9369005668831
  0
LINE
  5
632
100
AcDbEntity
  8
HATCH
100
AcDbLine
  6
BYLAYER
 62
0
370
  -2
 10
421.630215566776
 20
31.9369005668831
 11
408.182337847708
 21
52.7755444482459
  0
TEXT
  5
633
100
AcDbEntity
  8
HATCH
 62
0
100
AcDbText
  6
BYLAYER
 62
0
 10
454.757094683054
 20
23.1803263314319
 40
17.5
  1
6-φ8.5
  7
Font_0
 50
0.0123000000000003
 72
1
 11
485.380215566776
 21
31.9369005668831
100
AcDbText
 73
2
  0
SOLID
  5
634
100
AcDbEntity
  8
HATCH
100
AcDbTrace
 10
401.404473935321
 20
63.2784278992396
 30
0.0
 11
406.431857272542
 21
51.645900462848
 31
0.0
 12
409.932818422874
 22
53.9051884336438
 32
0.0
 13
409.932818422874
 23
53.9051884336438
 33
0.0
  0
LINE
  5
635
100
AcDbEntity
  8
HATCH
100
AcDbLine
  6
BYLAYER
 62
0
370
  -2
 10
398.875000205109
 20
66.8494082725776
 11
399.325000205109
 21
66.8494082725775
  0
LINE
  5
636
100
AcDbEntity
  8
HATCH
100
AcDbLine
  6
BYLAYER
 62
0
370
  -2
 10
399.100000205109
 20
66.6244082725776
 11
399.100000205109
 21
67.0744082725776
  0
CIRCLE
  5
637
100
AcDbEntity
  8
HIDDEN
100
AcDbCircle
  6
BYLAYER
 10
229.100000205109
 20
201.849408272578
 40
4.25
  0
CIRCLE
  5
638
100
AcDbEntity
  8
HIDDEN
100
AcDbCircle
  6
BYLAYER
 10
399.100000205109
 20
201.849408272578
 40
4.25
  0
LINE
  5
639
100
AcDbEntity
  8
HATCH
100
AcDbLine
  6
BYLAYER
 62
0
370
  -2
 10
401.600000205109
 20
336.849408272578
 11
458.96511010938
 21
336.849408272578
  0
LINE
  5
63A
100
AcDbEntity
  8
HATCH
100
AcDbLine
  6
BYLAYER
 62
0
370
  -2
 10
401.600000205109
 20
201.849408272578
 11
458.96511010938
 21
201.849408272578
  0
LINE
  5
63B
100
AcDbEntity
  8
HATCH
100
AcDbLine
  6
BYLAYER
 62
0
370
  -2
 10
456.46511010938
 20
324.349408272578
 11
456.46511010938
 21
297.266074939244
  0
LINE
  5
63C
100
AcDbEntity
  8
HATCH
100
AcDbLine
  6
BYLAYER
 62
0
370
  -2
 10
456.46511010938
 20
214.349408272578
 11
456.46511010938
 21
241.432741605911
  0
SOLID
  5
63D
100
AcDbEntity
  8
HATCH
100
AcDbTrace
 10
454.381776776047
 20
324.349408272578
 30
0.0
 11
458.548443442713
 21
324.349408272578
 31
0.0
 12
456.46511010938
 22
336.849408272578
 32
0.0
 13
456.46511010938
 23
336.849408272578
 33
0.0
  0
SOLID
  5
63E
100
AcDbEntity
  8
HATCH
100
AcDbTrace
 10
456.46511010938
 20
201.849408272578
 30
0.0
 11
458.548443442713
 21
214.349408272578
 31
0.0
 12
454.381776776047
 22
214.349408272578
 32
0.0
 13
454.381776776047
 23
214.349408272578
 33
0.0
  0
TEXT
  5
63F
100
AcDbEntity
  8
HATCH
 62
0
100
AcDbText
  6
BYLAYER
 62
0
 10
465.21511010938
 20
256.224408272578
 40
17.5
  1
135
  7
Font_0
 50
90
 72
1
 11
456.46511010938
 21
269.349408272578
100
AcDbText
 73
2
  0
LINE
  5
640
100
AcDbEntity
  8
HATCH
100
AcDbLine
  6
BYLAYER
 62
0
370
  -2
 10
401.600000205109
 20
201.849408272578
 11
458.96511010938
 21
201.849408272578
  0
LINE
  5
641
100
AcDbEntity
  8
HATCH
100
AcDbLine
  6
BYLAYER
 62
0
370
  -2
 10
401.600000205109
 20
66.8494082725777
 11
458.96511010938
 21
66.8494082725777
  0
LINE
  5
642
100
AcDbEntity
  8
HATCH
100
AcDbLine
  6
BYLAYER
 62
0
370
  -2
 10
456.46511010938
 20
189.349408272578
 11
456.46511010938
 21
162.266074939244
  0
LINE
  5
643
100
AcDbEntity
  8
HATCH
100
AcDbLine
  6
BYLAYER
 62
0
370
  -2
 10
456.46511010938
 20
79.3494082725777
 11
456.46511010938
 21
106.432741605911
  0
SOLID
  5
644
100
AcDbEntity
  8
HATCH
100
AcDbTrace
 10
454.381776776047
 20
189.349408272578
 30
0.0
 11
458.548443442713
 21
189.349408272578
 31
0.0
 12
456.46511010938
 22
201.849408272578
 32
0.0
 13
456.46511010938
 23
201.849408272578
 33
0.0
  0
SOLID
  5
645
100
AcDbEntity
  8
HATCH
100
AcDbTrace
 10
456.46511010938
 20
66.8494082725777
 30
0.0
 11
458.548443442713
 21
79.3494082725777
 31
0.0
 12
454.381776776047
 22
79.3494082725777
 32
0.0
 13
454.381776776047
 23
79.3494082725777
 33
0.0
  0
TEXT
  5
646
100
AcDbEntity
  8
HATCH
 62
0
100
AcDbText
  6
BYLAYER
 62
0
 10
465.21511010938
 20
121.224408272578
 40
17.5
  1
135
  7
Font_0
 50
90
 72
1
 11
456.46511010938
 21
134.349408272578
100
AcDbText
 73
2
  0
LINE
  5
647
100
AcDbEntity
  8
CEN
100
AcDbLine
  6
BYLAYER
 10
189.200000205109
 20
58.4494082725774
 11
189.200000205109
 21
56.8494082725778
  0
LINE
  5
648
100
AcDbEntity
  8
CEN
100
AcDbLine
  6
BYLAYER
 10
54.2000002051091
 20
58.4494082725778
 11
54.2000002051091
 21
56.8494082725782
  0
ENDBLK
  5
649
100
AcDbEntity
  8
0
 67
     1
100
AcDbBlockEnd
  0
ENDSEC
  0
SECTION
  2
ENTITIES
  0
LINE
  5
64A
100
AcDbEntity
  8
BASE
100
AcDbLine
  6
BYLAYER
 10
3113.15845003793
 20
-146.626269033101
 11
3113.15845003793
 21
95.3737309668993
  0
LINE
  5
64B
100
AcDbEntity
  8
BASE
100
AcDbLine
  6
BYLAYER
 10
3114.65845003793
 20
119.373730966899
 11
3114.65845003793
 21
-170.6262690331
  0
LINE
  5
64C
100
AcDbEntity
  8
BASE
100
AcDbLine
  6
BYLAYER
 10
3113.15845003793
 20
119.373730966899
 11
3113.15845003793
 21
-170.6262690331
  0
LINE
  5
64D
100
AcDbEntity
  8
BASE
100
AcDbLine
  6
BYLAYER
 10
3116.15845003793
 20
119.3737309669
 11
3116.15845003793
 21
-170.6262690331
  0
LINE
  5
64E
100
AcDbEntity
  8
BASE
100
AcDbLine
  6
BYLAYER
 10
3114.65845003793
 20
119.3737309669
 11
3114.65845003793
 21
-170.6262690331
  0
LINE
  5
64F
100
AcDbEntity
  8
BASE
100
AcDbLine
  6
BYLAYER
 10
3116.15845003793
 20
95.3737309668995
 11
3116.15845003793
 21
-146.626269033101
  0
LINE
  5
650
100
AcDbEntity
  8
BASE
100
AcDbLine
  6
BYLAYER
 10
3113.15845003793
 20
-170.6262690331
 11
3114.65845003793
 21
-170.6262690331
  0
LINE
  5
651
100
AcDbEntity
  8
BASE
100
AcDbLine
  6
BYLAYER
 10
3116.15845003793
 20
-170.6262690331
 11
3114.65845003793
 21
-170.6262690331
  0
CIRCLE
  5
652
100
AcDbEntity
  8
BASE
100
AcDbCircle
  6
BYLAYER
 10
3301.15845003793
 20
69.3737309668995
 40
7
  0
LINE
  5
653
100
AcDbEntity
  8
BASE
100
AcDbLine
  6
BYLAYER
 10
3113.15845003793
 20
119.373730966899
 11
3114.65845003793
 21
119.373730966899
  0
LINE
  5
654
100
AcDbEntity
  8
BASE
100
AcDbLine
  6
BYLAYER
 10
3116.15845003793
 20
119.3737309669
 11
3114.65845003793
 21
119.3737309669
  0
LINE
  5
655
100
AcDbEntity
  8
BASE
100
AcDbLine
  6
BYLAYER
 10
2811.23551916051
 20
-170.6262690331
 11
2641.23551916051
 21
-170.6262690331
  0
LINE
  5
656
100
AcDbEntity
  8
BASE
100
AcDbLine
  6
BYLAYER
 10
2641.23551916051
 20
119.373730966899
 11
2811.23551916051
 21
119.3737309669
  0
LINE
  5
657
100
AcDbEntity
  8
BASE
100
AcDbLine
  6
BYLAYER
 10
2641.23551916051
 20
119.373730966899
 11
2811.23551916051
 21
119.3737309669
  0
LINE
  5
658
100
AcDbEntity
  8
BASE
100
AcDbLine
  6
BYLAYER
 10
2811.23551916051
 20
-170.6262690331
 11
2641.23551916051
 21
-170.626269033101
  0
LINE
  5
659
100
AcDbEntity
  8
BASE
100
AcDbLine
  6
BYLAYER
 10
2786.23551916051
 20
237.019609783856
 11
2666.23551916051
 21
237.019609783856
  0
LINE
  5
65A
100
AcDbEntity
  8
BASE
100
AcDbLine
  6
BYLAYER
 10
2821.23551916051
 20
-57.2252677740564
 11
2821.23551916051
 21
-160.6262690331
  0
LINE
  5
65B
100
AcDbEntity
  8
BASE
100
AcDbLine
  6
BYLAYER
 10
2821.23551916051
 20
109.3737309669
 11
2821.23551916051
 21
5.97272970785783
  0
LINE
  5
65C
100
AcDbEntity
  8
BASE
100
AcDbLine
  6
BYLAYER
 10
2821.23551916051
 20
-57.2252677740583
 11
2821.23551916051
 21
-160.6262690331
  0
CIRCLE
  5
65D
100
AcDbEntity
  8
BASE
100
AcDbCircle
  6
BYLAYER
 10
2811.23551916051
 20
-160.6262690331
 40
4.25
  0
CIRCLE
  5
65E
100
AcDbEntity
  8
BASE
100
AcDbCircle
  6
BYLAYER
 10
2811.23551916051
 20
-160.6262690331
 40
4.25
  0
ARC
  5
65F
100
AcDbEntity
  8
BASE
100
AcDbCircle
  6
BYLAYER
 10
2811.23551916051
 20
-160.6262690331
 40
10
100
AcDbArc
 50
270
 51
0
  0
ARC
  5
660
100
AcDbEntity
  8
BASE
100
AcDbCircle
  6
BYLAYER
 10
2811.23551916051
 20
-160.6262690331
 40
10
100
AcDbArc
 50
270
 51
0
  0
LINE
  5
661
100
AcDbEntity
  8
BASE
100
AcDbLine
  6
BYLAYER
 10
2821.23551916051
 20
109.3737309669
 11
2821.23551916051
 21
5.97272970785651
  0
LINE
  5
662
100
AcDbEntity
  8
BASE
100
AcDbLine
  6
BYLAYER
 10
2795.23551916051
 20
119.3737309669
 11
2795.23551916051
 21
238.019609783855
  0
LINE
  5
663
100
AcDbEntity
  8
BASE
100
AcDbLine
  6
BYLAYER
 10
2786.23551916051
 20
119.3737309669
 11
2786.23551916051
 21
238.019609783855
  0
CIRCLE
  5
664
100
AcDbEntity
  8
BASE
100
AcDbCircle
  6
BYLAYER
 10
2811.23551916051
 20
109.373730966899
 40
4.25
  0
ARC
  5
665
100
AcDbEntity
  8
BASE
100
AcDbCircle
  6
BYLAYER
 10
2811.23551916051
 20
109.3737309669
 40
10
100
AcDbArc
 50
0
 51
90
  0
CIRCLE
  5
666
100
AcDbEntity
  8
BASE
100
AcDbCircle
  6
BYLAYER
 10
2811.23551916051
 20
109.3737309669
 40
4.25
  0
ARC
  5
667
100
AcDbEntity
  8
BASE
100
AcDbCircle
  6
BYLAYER
 10
2811.23551916051
 20
109.3737309669
 40
10
100
AcDbArc
 50
0
 51
90
  0
LINE
  5
668
100
AcDbEntity
  8
BASE
100
AcDbLine
  6
BYLAYER
 10
2786.23551916051
 20
238.019609783856
 11
2795.23551916051
 21
238.019609783856
  0
LINE
  5
669
100
AcDbEntity
  8
BASE
100
AcDbLine
  6
BYLAYER
 10
2631.23551916051
 20
-160.6262690331
 11
2631.23551916051
 21
-57.2252677740536
  0
LINE
  5
66A
100
AcDbEntity
  8
BASE
100
AcDbLine
  6
BYLAYER
 10
2631.23551916051
 20
-160.626269033101
 11
2631.23551916051
 21
-57.2252677740518
  0
LINE
  5
66B
100
AcDbEntity
  8
BASE
100
AcDbLine
  6
BYLAYER
 10
2631.23551916051
 20
5.97272970785094
 11
2631.23551916051
 21
109.373730966899
  0
CIRCLE
  5
66C
100
AcDbEntity
  8
BASE
100
AcDbCircle
  6
BYLAYER
 10
2641.23551916051
 20
-160.6262690331
 40
4.25
  0
CIRCLE
  5
66D
100
AcDbEntity
  8
BASE
100
AcDbCircle
  6
BYLAYER
 10
2641.23551916051
 20
-160.6262690331
 40
4.25
  0
ARC
  5
66E
100
AcDbEntity
  8
BASE
100
AcDbCircle
  6
BYLAYER
 10
2641.23551916051
 20
-160.6262690331
 40
10
100
AcDbArc
 50
180
 51
270
  0
ARC
  5
66F
100
AcDbEntity
  8
BASE
100
AcDbCircle
  6
BYLAYER
 10
2641.23551916051
 20
-160.626269033101
 40
10
100
AcDbArc
 50
180
 51
270
  0
LINE
  5
670
100
AcDbEntity
  8
BASE
100
AcDbLine
  6
BYLAYER
 10
2631.23551916051
 20
5.97272970785098
 11
2631.23551916051
 21
109.373730966899
  0
LINE
  5
671
100
AcDbEntity
  8
BASE
100
AcDbLine
  6
BYLAYER
 10
2657.23551916051
 20
119.373730966899
 11
2657.23551916051
 21
238.019609783855
  0
LINE
  5
672
100
AcDbEntity
  8
BASE
100
AcDbLine
  6
BYLAYER
 10
2654.23551916051
 20
119.373730966899
 11
2654.23551916051
 21
221.564041066944
  0
LINE
  5
673
100
AcDbEntity
  8
BASE
100
AcDbLine
  6
BYLAYER
 10
2666.23551916051
 20
119.3737309669
 11
2666.23551916051
 21
238.019609783855
  0
ARC
  5
674
100
AcDbEntity
  8
BASE
100
AcDbCircle
  6
BYLAYER
 10
2641.23551916051
 20
109.373730966899
 40
10
100
AcDbArc
 50
90
 51
180
  0
CIRCLE
  5
675
100
AcDbEntity
  8
BASE
100
AcDbCircle
  6
BYLAYER
 10
2641.23551916051
 20
109.373730966899
 40
4.25
  0
CIRCLE
  5
676
100
AcDbEntity
  8
BASE
100
AcDbCircle
  6
BYLAYER
 10
2641.23551916051
 20
109.3737309669
 40
4.25
  0
ARC
  5
677
100
AcDbEntity
  8
BASE
100
AcDbCircle
  6
BYLAYER
 10
2641.23551916051
 20
109.3737309669
 40
10
100
AcDbArc
 50
90
 51
180
  0
LINE
  5
678
100
AcDbEntity
  8
BASE
100
AcDbLine
  6
BYLAYER
 10
2657.23551916051
 20
221.564041066944
 11
2654.23551916051
 21
221.564041066944
  0
LINE
  5
679
100
AcDbEntity
  8
BASE
100
AcDbLine
  6
BYLAYER
 10
2666.23551916051
 20
238.019609783856
 11
2657.23551916051
 21
238.019609783856
  0
LINE
  5
67A
100
AcDbEntity
  8
BASE
100
AcDbLine
  6
BYLAYER
 10
2654.23551916051
 20
135.55129488017
 11
2654.23551916051
 21
119.373730966899
  0
LINE
  5
67B
100
AcDbEntity
  8
BASE
100
AcDbLine
  6
BYLAYER
 10
2643.23551916051
 20
135.55129488017
 11
2643.23551916051
 21
119.373730966899
  0
LINE
  5
67C
100
AcDbEntity
  8
BASE
100
AcDbLine
  6
BYLAYER
 10
2505.23551916051
 20
137.55129488017
 11
2505.23551916051
 21
-19.4487051198302
  0
LINE
  5
67D
100
AcDbEntity
  8
BASE
100
AcDbLine
  6
BYLAYER
 10
2654.23551916051
 20
135.55129488017
 11
2643.23551916051
 21
135.55129488017
  0
LINE
  5
67E
100
AcDbEntity
  8
BASE
100
AcDbLine
  6
BYLAYER
 10
2643.23551916051
 20
130.55129488017
 11
2505.23551916051
 21
130.55129488017
  0
LINE
  5
67F
100
AcDbEntity
  8
BASE
100
AcDbLine
  6
BYLAYER
 10
2627.10756241111
 20
-12.4487051198301
 11
2505.23551916051
 21
-12.4487051198301
  0
LINE
  5
680
100
AcDbEntity
  8
BASE
100
AcDbLine
  6
BYLAYER
 10
2435.73551916051
 20
117.55129488017
 11
2435.73551916051
 21
0.551294880169849
  0
LINE
  5
681
100
AcDbEntity
  8
BASE
100
AcDbLine
  6
BYLAYER
 10
2505.23551916051
 20
137.55129488017
 11
2455.73551916051
 21
137.55129488017
  0
LINE
  5
682
100
AcDbEntity
  8
BASE
100
AcDbLine
  6
BYLAYER
 10
2505.23551916051
 20
-19.4487051198302
 11
2455.73551916051
 21
-19.4487051198302
  0
ARC
  5
683
100
AcDbEntity
  8
BASE
100
AcDbCircle
  6
BYLAYER
 10
2455.73551916051
 20
117.55129488017
 40
20
100
AcDbArc
 50
90
 51
180
  0
ARC
  5
684
100
AcDbEntity
  8
BASE
100
AcDbCircle
  6
BYLAYER
 10
2455.73551916051
 20
0.551294880169849
 40
20
100
AcDbArc
 50
180
 51
270
  0
CIRCLE
  5
685
100
AcDbEntity
  8
0
100
AcDbCircle
  6
BYLAYER
 10
3301.15845003793
 20
69.3737309668995
 40
140
  0
CIRCLE
  5
686
100
AcDbEntity
  8
0
100
AcDbCircle
  6
BYLAYER
 10
3301.15845003793
 20
69.3737309668995
 40
141.5
  0
CIRCLE
  5
687
100
AcDbEntity
  8
0
100
AcDbCircle
  6
BYLAYER
 10
3301.15845003793
 20
69.3737309668995
 40
100
  0
CIRCLE
  5
688
100
AcDbEntity
  8
0
100
AcDbCircle
  6
BYLAYER
 10
3301.15845003793
 20
69.3737309668995
 40
101
  0
CIRCLE
  5
689
100
AcDbEntity
  8
0
100
AcDbCircle
  6
BYLAYER
 10
3392.375224811
 20
-21.843043806165
 40
3.5
  0
CIRCLE
  5
68A
100
AcDbEntity
  8
0
100
AcDbCircle
  6
BYLAYER
 10
3392.375224811
 20
-21.843043806165
 40
3.5
  0
CIRCLE
  5
68B
100
AcDbEntity
  8
0
100
AcDbCircle
  6
HIDDEN
 10
3392.375224811
 20
-21.8430438061641
 40
3
  0
CIRCLE
  5
68C
100
AcDbEntity
  8
0
100
AcDbCircle
  6
BYLAYER
 10
3430.15845003793
 20
69.3737309668995
 40
3.5
  0
CIRCLE
  5
68D
100
AcDbEntity
  8
0
100
AcDbCircle
  6
BYLAYER
 10
3430.15845003793
 20
69.3737309668995
 40
3.5
  0
CIRCLE
  5
68E
100
AcDbEntity
  8
0
100
AcDbCircle
  6
HIDDEN
 10
3430.15845003793
 20
69.3737309668995
 40
3
  0
CIRCLE
  5
68F
100
AcDbEntity
  8
0
100
AcDbCircle
  6
BYLAYER
 10
3392.375224811
 20
160.590505739964
 40
3.5
  0
CIRCLE
  5
690
100
AcDbEntity
  8
0
100
AcDbCircle
  6
BYLAYER
 10
3392.375224811
 20
160.590505739964
 40
3.5
  0
CIRCLE
  5
691
100
AcDbEntity
  8
0
100
AcDbCircle
  6
HIDDEN
 10
3392.375224811
 20
160.590505739964
 40
3
  0
LINE
  5
692
100
AcDbEntity
  8
0
100
AcDbLine
  6
BYLAYER
 10
3003.15845003793
 20
-125.6262690331
 11
3003.15845003793
 21
74.3737309668985
  0
LINE
  5
693
100
AcDbEntity
  8
0
100
AcDbLine
  6
BYLAYER
 10
3083.15845003793
 20
-146.626269033101
 11
3083.15845003793
 21
95.3737309668994
  0
LINE
  5
694
100
AcDbEntity
  8
0
100
AcDbLine
  6
BYLAYER
 10
3033.15845003793
 20
-125.6262690331
 11
3033.15845003793
 21
74.3737309668985
  0
LINE
  5
695
100
AcDbEntity
  8
0
100
AcDbLine
  6
BYLAYER
 10
2792.63551916051
 20
-99.0567804026932
 11
2792.63551916051
 21
47.8042423364923
  0
LINE
  5
696
100
AcDbEntity
  8
0
100
AcDbLine
  6
BYLAYER
 10
2659.83551916051
 20
-99.0567804026923
 11
2659.83551916051
 21
47.8042423364914
  0
ARC
  5
697
100
AcDbEntity
  8
0
100
AcDbCircle
  6
BYLAYER
370
0
 10
2726.23551916051
 20
-25.6262690331008
 40
100
100
AcDbArc
 50
-87.1340160173999
 51
-267.707557224046
  0
LINE
  5
698
100
AcDbEntity
  8
0
100
AcDbLine
  6
BYLAYER
370
0
 10
2731.23551916051
 20
-125.501190810291
 11
2730.23551916051
 21
-124.545427945821
  0
ARC
  5
699
100
AcDbEntity
  8
0
100
AcDbCircle
  6
BYLAYER
370
0
 10
2726.23551916051
 20
-25.6262690331006
 40
99.0000000000001
100
AcDbArc
 50
267.105042147493
 51
-87.6843886838835
  0
LINE
  5
69A
100
AcDbEntity
  8
0
100
AcDbLine
  6
BYLAYER
370
0
 10
2721.23551916051
 20
-124.499925787567
 11
2721.28602421102
 21
-123.501201981966
  0
ARC
  5
69B
100
AcDbEntity
  8
0
100
AcDbCircle
  6
BYLAYER
370
0
 10
2726.23551916051
 20
-25.6262690331115
 40
97.9999999999891
100
AcDbArc
 50
-92.8949578525106
 51
-87.0754762102738
  0
LINE
  5
69C
100
AcDbEntity
  8
0
100
AcDbLine
  6
BYLAYER
370
0
 10
2731.23551916051
 20
-123.498634898037
 11
2732.23551916051
 21
-124.444283585104
  0
ARC
  5
69D
100
AcDbEntity
  8
0
100
AcDbCircle
  6
BYLAYER
370
0
 10
2726.23551916051
 20
-25.6262690331009
 40
98.9999999999996
100
AcDbArc
 50
-86.5253992069278
 51
92.3156113161143
  0
LINE
  5
69E
100
AcDbEntity
  8
0
100
AcDbLine
  6
BYLAYER
370
0
 10
2722.23551916051
 20
73.292889879619
 11
2722.23551916051
 21
74.2936989412738
  0
LINE
  5
69F
100
AcDbEntity
  8
0
100
AcDbLine
  6
BYLAYER
 10
2659.83551916051
 20
47.8042423364914
 11
2659.83551916051
 21
-99.0567804026941
  0
LINE
  5
6A0
100
AcDbEntity
  8
0
100
AcDbLine
  6
BYLAYER
 10
2792.63551916051
 20
47.8042423364904
 11
2792.63551916051
 21
-99.0567804026932
  0
ARC
  5
6A1
100
AcDbEntity
  8
0
100
AcDbCircle
  6
BYLAYER
370
0
 10
2726.23551916051
 20
-25.6262690331011
 40
100
100
AcDbArc
 50
92.8659839826005
 51
-87.7075572240458
  0
LINE
  5
6A2
100
AcDbEntity
  8
0
100
AcDbLine
  6
BYLAYER
370
0
 10
2721.23551916051
 20
74.2486527440897
 11
2722.23551916051
 21
73.292889879619
  0
ARC
  5
6A3
100
AcDbEntity
  8
0
100
AcDbCircle
  6
BYLAYER
370
0
 10
2726.23551916052
 20
-25.6262690330858
 40
98.999999999985
100
AcDbArc
 50
87.1050421474984
 51
-267.684388683878
  0
LINE
  5
6A4
100
AcDbEntity
  8
0
100
AcDbLine
  6
BYLAYER
370
0
 10
2731.23551916051
 20
73.2473877213661
 11
2731.18501411
 21
72.2486639157651
  0
ARC
  5
6A5
100
AcDbEntity
  8
0
100
AcDbCircle
  6
BYLAYER
370
0
 10
2726.23551916051
 20
-25.6262690330895
 40
97.9999999999891
100
AcDbArc
 50
-272.89495785251
 51
-267.075476210274
  0
LINE
  5
6A6
100
AcDbEntity
  8
0
100
AcDbLine
  6
BYLAYER
370
0
 10
2721.23551916051
 20
72.2460968318364
 11
2720.23551916051
 21
73.1917455189023
  0
ARC
  5
6A7
100
AcDbEntity
  8
0
100
AcDbCircle
  6
BYLAYER
370
0
 10
2726.23551916051
 20
-25.6262690331009
 40
98.9999999999996
100
AcDbArc
 50
-266.525399206927
 51
-87.6843886838849
  0
LINE
  5
6A8
100
AcDbEntity
  8
0
100
AcDbLine
  6
BYLAYER
370
0
 10
2730.23551916051
 20
-124.545427945821
 11
2730.23551916051
 21
-125.546237007476
  0
LINE
  5
6A9
100
AcDbEntity
  8
0
100
AcDbLine
  6
BYLAYER
 10
2656.23551916051
 20
95.3737309668986
 11
2629.93009389681
 21
1.30447668211036
  0
LINE
  5
6AA
100
AcDbEntity
  8
0
100
AcDbLine
  6
BYLAYER
 10
2796.23551916051
 20
95.3737309668986
 11
2822.54094442421
 21
1.30447668211033
  0
LINE
  5
6AB
100
AcDbEntity
  8
0
100
AcDbLine
  6
BYLAYER
 10
2845.03551916051
 20
-31.626269033102
 11
2845.03551916051
 21
170.373730966898
  0
CIRCLE
  5
6AC
100
AcDbEntity
  8
0
100
AcDbCircle
  6
BYLAYER
 10
3301.15845003793
 20
-59.6262690331004
 40
3.5
  0
CIRCLE
  5
6AD
100
AcDbEntity
  8
0
100
AcDbCircle
  6
BYLAYER
 10
3301.15845003793
 20
-59.6262690331004
 40
3.5
  0
CIRCLE
  5
6AE
100
AcDbEntity
  8
0
100
AcDbCircle
  6
HIDDEN
 10
3301.15845003793
 20
-59.6262690331004
 40
3
  0
CIRCLE
  5
6AF
100
AcDbEntity
  8
0
100
AcDbCircle
  6
BYLAYER
 10
3209.94167526487
 20
-21.843043806165
 40
3.5
  0
CIRCLE
  5
6B0
100
AcDbEntity
  8
0
100
AcDbCircle
  6
BYLAYER
 10
3209.94167526487
 20
-21.843043806165
 40
3.5
  0
CIRCLE
  5
6B1
100
AcDbEntity
  8
0
100
AcDbCircle
  6
HIDDEN
 10
3209.94167526487
 20
-21.843043806165
 40
3
  0
LINE
  5
6B2
100
AcDbEntity
  8
0
100
AcDbLine
  6
BYLAYER
 10
3033.15845003793
 20
-125.6262690331
 11
3083.15845003793
 21
-146.626269033101
  0
LINE
  5
6B3
100
AcDbEntity
  8
0
100
AcDbLine
  6
BYLAYER
 10
3083.15845003793
 20
-146.626269033101
 11
3113.15845003793
 21
-146.626269033101
  0
LINE
  5
6B4
100
AcDbEntity
  8
0
100
AcDbLine
  6
BYLAYER
 10
3003.15845003793
 20
-125.6262690331
 11
3033.15845003793
 21
-125.6262690331
  0
LINE
  5
6B5
100
AcDbEntity
  8
0
100
AcDbLine
  6
BYLAYER
 10
2659.83551916051
 20
3.82187592738137
 11
2792.63551916051
 21
3.82187592738134
  0
LINE
  5
6B6
100
AcDbEntity
  8
0
100
AcDbLine
  6
BYLAYER
 10
2659.83551916051
 20
8.42807910314968
 11
2792.63551916051
 21
8.42807910315057
  0
LINE
  5
6B7
100
AcDbEntity
  8
0
100
AcDbLine
  6
BYLAYER
 10
2730.23551916051
 20
-146.626269033101
 11
2656.23551916051
 21
-146.626269033101
  0
LINE
  5
6B8
100
AcDbEntity
  8
0
100
AcDbLine
  6
BYLAYER
 10
2770.96551916051
 20
-43.3772539884867
 11
2681.70551916051
 21
-43.3772539884867
  0
LINE
  5
6B9
100
AcDbEntity
  8
0
100
AcDbLine
  6
BYLAYER
 10
2770.96551916051
 20
-42.5997788542545
 11
2681.70551916051
 21
-42.5997788542545
  0
LINE
  5
6BA
100
AcDbEntity
  8
0
100
AcDbLine
  6
BYLAYER
 10
2770.96551916051
 20
-41.8388163210566
 11
2681.70551916051
 21
-41.8388163210566
  0
LINE
  5
6BB
100
AcDbEntity
  8
0
100
AcDbLine
  6
BYLAYER
 10
2770.96551916051
 20
-41.0409187817031
 11
2681.70551916051
 21
-41.0409187817031
  0
LINE
  5
6BC
100
AcDbEntity
  8
0
100
AcDbLine
  6
BYLAYER
 10
2770.96551916051
 20
-37.2667902730855
 11
2681.70551916051
 21
-37.2667902730855
  0
LINE
  5
6BD
100
AcDbEntity
  8
0
100
AcDbLine
  6
BYLAYER
 10
2770.96551916051
 20
-36.4702348935198
 11
2681.70551916051
 21
-36.4702348935198
  0
LINE
  5
6BE
100
AcDbEntity
  8
0
100
AcDbLine
  6
BYLAYER
 10
2770.96551916051
 20
-30.1670381054073
 11
2681.70551916051
 21
-30.1670381054064
  0
LINE
  5
6BF
100
AcDbEntity
  8
0
100
AcDbLine
  6
BYLAYER
 10
2770.96551916051
 20
-29.0124035312911
 11
2681.70551916051
 21
-29.0124035312911
  0
LINE
  5
6C0
100
AcDbEntity
  8
0
100
AcDbLine
  6
BYLAYER
 10
2770.96551916051
 20
-21.3266824449138
 11
2681.70551916051
 21
-21.3266824449138
  0
LINE
  5
6C1
100
AcDbEntity
  8
0
100
AcDbLine
  6
BYLAYER
 10
2770.96551916051
 20
-20.6162468438415
 11
2681.70551916051
 21
-20.6162468438415
  0
LINE
  5
6C2
100
AcDbEntity
  8
0
100
AcDbLine
  6
BYLAYER
 10
2770.96551916051
 20
-18.8708548934637
 11
2681.70551916051
 21
-18.8708548934637
  0
LINE
  5
6C3
100
AcDbEntity
  8
0
100
AcDbLine
  6
BYLAYER
 10
2770.96551916051
 20
-13.6740219768017
 11
2681.70551916051
 21
-13.6740219768017
  0
LINE
  5
6C4
100
AcDbEntity
  8
0
100
AcDbLine
  6
BYLAYER
 10
2770.96551916051
 20
-6.3222239898314
 11
2681.70551916051
 21
-6.3222239898314
  0
LINE
  5
6C5
100
AcDbEntity
  8
0
100
AcDbLine
  6
BYLAYER
 10
2770.96551916051
 20
-8.92445359570047
 11
2681.70551916051
 21
-8.92445359570047
  0
LINE
  5
6C6
100
AcDbEntity
  8
0
100
AcDbLine
  6
BYLAYER
 10
2796.23551916051
 20
-146.626269033101
 11
2822.54094442421
 21
-52.5570147483113
  0
LINE
  5
6C7
100
AcDbEntity
  8
0
100
AcDbLine
  6
BYLAYER
 10
2826.05535686825
 20
-31.6262690331019
 11
2845.03551916051
 21
-31.626269033102
  0
LINE
  5
6C8
100
AcDbEntity
  8
0
100
AcDbLine
  6
BYLAYER
 10
2731.23551916051
 20
-146.626269033101
 11
2796.23551916051
 21
-146.626269033101
  0
LINE
  5
6C9
100
AcDbEntity
  8
0
100
AcDbLine
  6
BYLAYER
 10
2731.23551916051
 20
-146.626269033101
 11
2730.23551916051
 21
-145.6262690331
  0
LINE
  5
6CA
100
AcDbEntity
  8
0
100
AcDbLine
  6
BYLAYER
 10
2730.23551916051
 20
-125.546237007476
 11
2730.23551916051
 21
-146.626269033101
  0
LINE
  5
6CB
100
AcDbEntity
  8
0
100
AcDbLine
  6
BYLAYER
 10
2789.93551916051
 20
-50.6262690331005
 11
2792.73551916051
 21
-50.6262690331005
  0
LINE
  5
6CC
100
AcDbEntity
  8
0
100
AcDbLine
  6
BYLAYER
 10
2789.93551916051
 20
-50.6262690331005
 11
2789.93551916051
 21
3.82187592738134
  0
LINE
  5
6CD
100
AcDbEntity
  8
0
100
AcDbLine
  6
BYLAYER
 10
2794.23551916051
 20
-98.947480152392
 11
2794.23551916051
 21
-98.966230854744
  0
ARC
  5
6CE
100
AcDbEntity
  8
0
100
AcDbCircle
  6
BYLAYER
370
0
 10
2772.96584929295
 20
-57.0739952241313
 40
23.9999999999991
100
AcDbArc
 50
45.0030144529061
 51
-288.133748118949
  0
LINE
  5
6CF
100
AcDbEntity
  8
0
100
AcDbLine
  6
BYLAYER
 10
2779.43551916051
 20
3.82187592738228
 11
2779.43551916051
 21
-35.6262690331005
  0
LINE
  5
6D0
100
AcDbEntity
  8
0
100
AcDbLine
  6
BYLAYER
 10
2780.43551916051
 20
3.82187592738228
 11
2780.43551916051
 21
-35.6262690331005
  0
LINE
  5
6D1
100
AcDbEntity
  8
0
100
AcDbLine
  6
BYLAYER
 10
2777.83561040724
 20
3.82187592738137
 11
2777.83561040724
 21
-40.6262690331005
  0
LINE
  5
6D2
100
AcDbEntity
  8
0
100
AcDbLine
  6
BYLAYER
 10
2770.96551916051
 20
-6.3222239898314
 11
2777.83561040724
 21
-3.57123903444426
  0
LINE
  5
6D3
100
AcDbEntity
  8
0
100
AcDbLine
  6
BYLAYER
 10
2770.96551916051
 20
-8.92445359570047
 11
2777.83561040724
 21
-6.17346864031424
  0
LINE
  5
6D4
100
AcDbEntity
  8
0
100
AcDbLine
  6
BYLAYER
 10
2770.96551916051
 20
-18.8708548934637
 11
2777.83561040724
 21
-16.1198699380766
  0
LINE
  5
6D5
100
AcDbEntity
  8
0
100
AcDbLine
  6
BYLAYER
 10
2770.96551916051
 20
-20.6162468438415
 11
2777.83561040724
 21
-17.8652618884553
  0
LINE
  5
6D6
100
AcDbEntity
  8
0
100
AcDbLine
  6
BYLAYER
 10
2770.96551916051
 20
-21.3266824449138
 11
2777.83561040724
 21
-18.5756974895275
  0
LINE
  5
6D7
100
AcDbEntity
  8
0
100
AcDbLine
  6
BYLAYER
 10
2770.96551916051
 20
-13.6740219768017
 11
2777.83561040724
 21
-10.9230370214154
  0
LINE
  5
6D8
100
AcDbEntity
  8
0
100
AcDbLine
  6
BYLAYER
 10
2770.96551916051
 20
-29.0124035312911
 11
2777.83561040724
 21
-26.2614185759048
  0
LINE
  5
6D9
100
AcDbEntity
  8
0
100
AcDbLine
  6
BYLAYER
 10
2770.96551916051
 20
-30.1670381054073
 11
2777.83561040724
 21
-27.4160531500202
  0
LINE
  5
6DA
100
AcDbEntity
  8
0
100
AcDbLine
  6
BYLAYER
 10
2770.96551916051
 20
-41.0409187817031
 11
2777.83561040724
 21
-38.2899338263169
  0
LINE
  5
6DB
100
AcDbEntity
  8
0
100
AcDbLine
  6
BYLAYER
 10
2770.96551916051
 20
-41.8388163210566
 11
2777.83561040724
 21
-39.0878313656704
  0
LINE
  5
6DC
100
AcDbEntity
  8
0
100
AcDbLine
  6
BYLAYER
 10
2770.96551916051
 20
-42.5997788542545
 11
2777.83561040724
 21
-39.8487938988674
  0
LINE
  5
6DD
100
AcDbEntity
  8
0
100
AcDbLine
  6
BYLAYER
 10
2770.96551916051
 20
-43.3772539884867
 11
2777.83561040724
 21
-40.6262690331005
  0
LINE
  5
6DE
100
AcDbEntity
  8
0
100
AcDbLine
  6
BYLAYER
 10
2770.96551916051
 20
-36.4702348935198
 11
2777.83561040724
 21
-33.7192499381335
  0
LINE
  5
6DF
100
AcDbEntity
  8
0
100
AcDbLine
  6
BYLAYER
 10
2770.96551916051
 20
-37.2667902730855
 11
2777.83561040724
 21
-34.5158053176992
  0
LINE
  5
6E0
100
AcDbEntity
  8
0
100
AcDbLine
  6
BYLAYER
 10
2785.23551916051
 20
-44.776269033101
 11
2785.23551916051
 21
-40.6262690331005
  0
LINE
  5
6E1
100
AcDbEntity
  8
0
100
AcDbLine
  6
BYLAYER
 10
2782.73551916051
 20
-44.776269033101
 11
2782.73551916051
 21
-41.6262690331005
  0
ARC
  5
6E2
100
AcDbEntity
  8
0
100
AcDbCircle
  6
BYLAYER
 10
2784.23551916051
 20
-44.776269033101
 40
1
100
AcDbArc
 50
270
 51
0
  0
ARC
  5
6E3
100
AcDbEntity
  8
0
100
AcDbCircle
  6
BYLAYER
 10
2783.73551916051
 20
-44.776269033101
 40
1
100
AcDbArc
 50
180
 51
270
  0
LINE
  5
6E4
100
AcDbEntity
  8
0
100
AcDbLine
  6
BYLAYER
 10
2784.23551916051
 20
-45.776269033101
 11
2783.73551916051
 21
-45.776269033101
  0
ARC
  5
6E5
100
AcDbEntity
  8
0
100
AcDbCircle
  6
BYLAYER
 10
2784.23551916051
 20
-40.6262690331005
 40
1
100
AcDbArc
 50
0
 51
90
  0
LINE
  5
6E6
100
AcDbEntity
  8
0
100
AcDbLine
  6
BYLAYER
 10
2780.43551916051
 20
-40.6262690331005
 11
2777.83561040724
 21
-40.6262690331005
  0
LINE
  5
6E7
100
AcDbEntity
  8
0
100
AcDbLine
  6
BYLAYER
 10
2779.43551916051
 20
-35.6262690331005
 11
2780.43551916051
 21
-35.6262690331005
  0
ARC
  5
6E8
100
AcDbEntity
  8
0
100
AcDbCircle
  6
BYLAYER
 10
2780.43551916051
 20
-39.6262690331005
 40
1
100
AcDbArc
 50
180
 51
270
  0
ARC
  5
6E9
100
AcDbEntity
  8
0
100
AcDbCircle
  6
BYLAYER
 10
2781.43551916051
 20
-38.6262690331005
 40
1
100
AcDbArc
 50
180
 51
270
  0
ARC
  5
6EA
100
AcDbEntity
  8
0
100
AcDbCircle
  6
BYLAYER
 10
2781.73551916051
 20
-41.6262690331005
 40
1
100
AcDbArc
 50
0
 51
90
  0
LINE
  5
6EB
100
AcDbEntity
  8
0
100
AcDbLine
  6
BYLAYER
 10
2784.23551916051
 20
-39.6262690331005
 11
2781.43551916051
 21
-39.6262690331005
  0
LINE
  5
6EC
100
AcDbEntity
  8
0
100
AcDbLine
  6
BYLAYER
 10
2781.73551916051
 20
-40.6262690331005
 11
2780.43551916051
 21
-40.6262690331005
  0
LINE
  5
6ED
100
AcDbEntity
  8
0
100
AcDbLine
  6
BYLAYER
 10
2779.43551916051
 20
-39.6262690331005
 11
2779.43551916051
 21
-35.6262690331005
  0
LINE
  5
6EE
100
AcDbEntity
  8
0
100
AcDbLine
  6
BYLAYER
 10
2780.43551916051
 20
-38.6262690331005
 11
2780.43551916051
 21
-35.6262690331005
  0
LINE
  5
6EF
100
AcDbEntity
  8
0
100
AcDbLine
  6
BYLAYER
 10
2656.23551916051
 20
-146.626269033101
 11
2629.93009389681
 21
-52.5570147483113
  0
LINE
  5
6F0
100
AcDbEntity
  8
0
100
AcDbLine
  6
BYLAYER
 10
2662.53551916051
 20
-50.6262690331005
 11
2659.83551916051
 21
-50.6262690331005
  0
LINE
  5
6F1
100
AcDbEntity
  8
0
100
AcDbLine
  6
BYLAYER
 10
2662.53551916051
 20
-50.6262690331005
 11
2662.53551916051
 21
3.82187592738137
  0
LINE
  5
6F2
100
AcDbEntity
  8
0
100
AcDbLine
  6
BYLAYER
 10
2667.23551916051
 20
-10.5243961880405
 11
2670.18916341957
 21
3.82187592738137
  0
LINE
  5
6F3
100
AcDbEntity
  8
0
100
AcDbLine
  6
BYLAYER
 10
2668.23551916051
 20
-10.6262690331005
 11
2671.21013724061
 21
3.82187592738137
  0
LINE
  5
6F4
100
AcDbEntity
  8
0
100
AcDbLine
  6
BYLAYER
 10
2674.83542791378
 20
3.82187592738137
 11
2674.83542791378
 21
-40.6262690331005
  0
LINE
  5
6F5
100
AcDbEntity
  8
0
100
AcDbLine
  6
BYLAYER
 10
2672.23551916051
 20
-31.1924594120692
 11
2667.23551916051
 21
-28.1924594120692
  0
ARC
  5
6F6
100
AcDbEntity
  8
0
100
AcDbCircle
  6
BYLAYER
 10
2668.23551916051
 20
-40.6262690331005
 40
1
100
AcDbArc
 50
90
 51
180
  0
ARC
  5
6F7
100
AcDbEntity
  8
0
100
AcDbCircle
  6
BYLAYER
 10
2668.23551916051
 20
-44.776269033101
 40
1
100
AcDbArc
 50
180
 51
270
  0
LINE
  5
6F8
100
AcDbEntity
  8
0
100
AcDbLine
  6
BYLAYER
 10
2669.73551916051
 20
-41.6262690331005
 11
2669.73551916051
 21
-44.776269033101
  0
LINE
  5
6F9
100
AcDbEntity
  8
0
100
AcDbLine
  6
BYLAYER
 10
2681.70551916051
 20
-43.3772539884867
 11
2674.83542791378
 21
-40.6262690331005
  0
LINE
  5
6FA
100
AcDbEntity
  8
0
100
AcDbLine
  6
BYLAYER
 10
2681.70551916051
 20
-42.5997788542545
 11
2674.83542791378
 21
-39.8487938988674
  0
LINE
  5
6FB
100
AcDbEntity
  8
0
100
AcDbLine
  6
BYLAYER
 10
2668.73551916051
 20
-45.776269033101
 11
2668.23551916051
 21
-45.776269033101
  0
ARC
  5
6FC
100
AcDbEntity
  8
0
100
AcDbCircle
  6
BYLAYER
 10
2668.73551916051
 20
-44.776269033101
 40
1
100
AcDbArc
 50
270
 51
0
  0
LINE
  5
6FD
100
AcDbEntity
  8
0
100
AcDbLine
  6
BYLAYER
 10
2681.70551916051
 20
-13.6740219768017
 11
2674.83542791378
 21
-10.9230370214154
  0
LINE
  5
6FE
100
AcDbEntity
  8
0
100
AcDbLine
  6
BYLAYER
 10
2668.23551916051
 20
-27.6262690331005
 11
2668.23551916051
 21
-10.6262690331005
  0
LINE
  5
6FF
100
AcDbEntity
  8
0
100
AcDbLine
  6
BYLAYER
 10
2673.23551916051
 20
-39.6262690331005
 11
2673.23551916051
 21
3.82187592738228
  0
LINE
  5
700
100
AcDbEntity
  8
0
100
AcDbLine
  6
BYLAYER
 10
2681.70551916051
 20
-29.0124035312911
 11
2674.83542791378
 21
-26.2614185759048
  0
LINE
  5
701
100
AcDbEntity
  8
0
100
AcDbLine
  6
BYLAYER
 10
2681.70551916051
 20
-37.2667902730855
 11
2674.83542791378
 21
-34.5158053176992
  0
LINE
  5
702
100
AcDbEntity
  8
0
100
AcDbLine
  6
BYLAYER
 10
2681.70551916051
 20
-36.4702348935198
 11
2674.83542791378
 21
-33.7192499381335
  0
LINE
  5
703
100
AcDbEntity
  8
0
100
AcDbLine
  6
BYLAYER
 10
2681.70551916051
 20
-30.1670381054073
 11
2674.83542791378
 21
-27.4160531500202
  0
LINE
  5
704
100
AcDbEntity
  8
0
100
AcDbLine
  6
BYLAYER
 10
2681.70551916051
 20
-41.8388163210566
 11
2674.83542791378
 21
-39.0878313656704
  0
LINE
  5
705
100
AcDbEntity
  8
0
100
AcDbLine
  6
BYLAYER
 10
2681.70551916051
 20
-41.0409187817031
 11
2674.83542791378
 21
-38.2899338263169
  0
LINE
  5
706
100
AcDbEntity
  8
0
100
AcDbLine
  6
BYLAYER
 10
2672.23551916051
 20
-38.6262690331005
 11
2672.23551916051
 21
-31.1924594120692
  0
LINE
  5
707
100
AcDbEntity
  8
0
100
AcDbLine
  6
BYLAYER
 10
2674.83542791378
 20
-40.6262690331005
 11
2672.23551916051
 21
-40.6262690331005
  0
ARC
  5
708
100
AcDbEntity
  8
0
100
AcDbCircle
  6
BYLAYER
 10
2672.23551916051
 20
-39.6262690331005
 40
1
100
AcDbArc
 50
270
 51
0
  0
ARC
  5
709
100
AcDbEntity
  8
0
100
AcDbCircle
  6
BYLAYER
 10
2671.23551916051
 20
-38.6262690331005
 40
1
100
AcDbArc
 50
270
 51
0
  0
LINE
  5
70A
100
AcDbEntity
  8
0
100
AcDbLine
  6
BYLAYER
 10
2670.73551916051
 20
-40.6262690331005
 11
2672.23551916051
 21
-40.6262690331005
  0
LINE
  5
70B
100
AcDbEntity
  8
0
100
AcDbLine
  6
BYLAYER
 10
2668.23551916051
 20
-39.6262690331005
 11
2671.23551916051
 21
-39.6262690331005
  0
ARC
  5
70C
100
AcDbEntity
  8
0
100
AcDbCircle
  6
BYLAYER
 10
2670.73551916051
 20
-41.6262690331005
 40
1
100
AcDbArc
 50
90
 51
180
  0
LINE
  5
70D
100
AcDbEntity
  8
0
100
AcDbLine
  6
BYLAYER
 10
2673.23551916051
 20
-30.6262690331005
 11
2668.23551916051
 21
-27.6262690331005
  0
LINE
  5
70E
100
AcDbEntity
  8
0
100
AcDbLine
  6
BYLAYER
 10
2681.70551916051
 20
-21.3266824449138
 11
2674.83542791378
 21
-18.5756974895275
  0
LINE
  5
70F
100
AcDbEntity
  8
0
100
AcDbLine
  6
BYLAYER
 10
2681.70551916051
 20
-20.6162468438415
 11
2674.83542791378
 21
-17.8652618884553
  0
LINE
  5
710
100
AcDbEntity
  8
0
100
AcDbLine
  6
BYLAYER
 10
2681.70551916051
 20
-18.8708548934637
 11
2674.83542791378
 21
-16.1198699380766
  0
LINE
  5
711
100
AcDbEntity
  8
0
100
AcDbLine
  6
BYLAYER
 10
2681.70551916051
 20
-8.92445359570047
 11
2674.83542791378
 21
-6.17346864031424
  0
LINE
  5
712
100
AcDbEntity
  8
0
100
AcDbLine
  6
BYLAYER
 10
2681.70551916051
 20
-6.3222239898314
 11
2674.83542791378
 21
-3.57123903444426
  0
LINE
  5
713
100
AcDbEntity
  8
0
100
AcDbLine
  6
BYLAYER
 10
2667.23551916051
 20
-40.6262690331005
 11
2667.23551916051
 21
-44.776269033101
  0
LINE
  5
714
100
AcDbEntity
  8
0
100
AcDbLine
  6
BYLAYER
 10
2667.23551916051
 20
-28.1924594120692
 11
2667.23551916051
 21
-10.5243961880405
  0
CIRCLE
  5
715
100
AcDbEntity
  8
0
100
AcDbCircle
  6
BYLAYER
 10
3301.15845003793
 20
198.373730966899
 40
3.5
  0
CIRCLE
  5
716
100
AcDbEntity
  8
0
100
AcDbCircle
  6
BYLAYER
 10
3301.15845003793
 20
198.373730966899
 40
3.5
  0
CIRCLE
  5
717
100
AcDbEntity
  8
0
100
AcDbCircle
  6
HIDDEN
 10
3301.15845003793
 20
198.373730966899
 40
3
  0
CIRCLE
  5
718
100
AcDbEntity
  8
0
100
AcDbCircle
  6
BYLAYER
 10
3172.15845003793
 20
69.3737309668996
 40
3.5
  0
CIRCLE
  5
719
100
AcDbEntity
  8
0
100
AcDbCircle
  6
BYLAYER
 10
3209.94167526487
 20
160.590505739964
 40
3.5
  0
CIRCLE
  5
71A
100
AcDbEntity
  8
0
100
AcDbCircle
  6
BYLAYER
 10
3172.15845003793
 20
69.3737309668996
 40
3.5
  0
CIRCLE
  5
71B
100
AcDbEntity
  8
0
100
AcDbCircle
  6
BYLAYER
 10
3209.94167526487
 20
160.590505739964
 40
3.5
  0
CIRCLE
  5
71C
100
AcDbEntity
  8
0
100
AcDbCircle
  6
HIDDEN
 10
3209.94167526487
 20
160.590505739964
 40
3
  0
CIRCLE
  5
71D
100
AcDbEntity
  8
0
100
AcDbCircle
  6
HIDDEN
 10
3172.15845003793
 20
69.3737309668996
 40
3
  0
LINE
  5
71E
100
AcDbEntity
  8
0
100
AcDbLine
  6
BYLAYER
 10
3033.15845003793
 20
74.3737309668985
 11
3083.15845003793
 21
95.3737309668994
  0
LINE
  5
71F
100
AcDbEntity
  8
0
100
AcDbLine
  6
BYLAYER
 10
3083.15845003793
 20
95.3737309668994
 11
3113.15845003793
 21
95.3737309668994
  0
LINE
  5
720
100
AcDbEntity
  8
0
100
AcDbLine
  6
BYLAYER
 10
3003.15845003793
 20
74.3737309668985
 11
3033.15845003793
 21
74.3737309668985
  0
LINE
  5
721
100
AcDbEntity
  8
0
100
AcDbLine
  6
BYLAYER
 10
2721.23551916051
 20
95.3737309668995
 11
2656.23551916051
 21
95.3737309668986
  0
LINE
  5
722
100
AcDbEntity
  8
0
100
AcDbLine
  6
BYLAYER
 10
2800.23551916051
 20
170.373730966898
 11
2845.03551916051
 21
170.373730966898
  0
LINE
  5
723
100
AcDbEntity
  8
0
100
AcDbLine
  6
BYLAYER
 10
2800.23551916051
 20
209.8737309669
 11
2800.23551916051
 21
119.373730966901
  0
LINE
  5
724
100
AcDbEntity
  8
0
100
AcDbLine
  6
BYLAYER
 10
2722.23551916051
 20
95.3737309668986
 11
2796.23551916051
 21
95.3737309668986
  0
LINE
  5
725
100
AcDbEntity
  8
0
100
AcDbLine
  6
BYLAYER
 10
2794.23551916051
 20
47.7136927885422
 11
2794.23551916051
 21
47.6949420861902
  0
LINE
  5
726
100
AcDbEntity
  8
0
100
AcDbLine
  6
BYLAYER
 10
2721.23551916051
 20
95.3737309668995
 11
2722.23551916051
 21
94.3737309668995
  0
LINE
  5
727
100
AcDbEntity
  8
0
100
AcDbLine
  6
BYLAYER
 10
2722.23551916051
 20
74.2936989412738
 11
2722.23551916051
 21
95.3737309668986
  0
LINE
  5
728
100
AcDbEntity
  8
0
100
AcDbLine
  6
BYLAYER
 10
2795.23551916051
 20
210.8737309669
 11
2800.23551916051
 21
210.8737309669
  0
LINE
  5
729
100
AcDbEntity
  8
0
100
AcDbLine
  6
BYLAYER
 10
2800.23551916051
 20
209.8737309669
 11
2800.23551916051
 21
210.8737309669
  0
CIRCLE
  5
72A
100
AcDbEntity
  8
HIDDEN
100
AcDbCircle
  6
BYLAYER
 10
2641.23551916051
 20
-25.6262690331005
 40
4.25
  0
CIRCLE
  5
72B
100
AcDbEntity
  8
HIDDEN
100
AcDbCircle
  6
BYLAYER
 10
2811.23551916051
 20
-25.6262690331005
 40
4.25
  0
LINE
  5
72C
100
AcDbEntity
  8
DIM
100
AcDbLine
  6
BYLAYER
 62
0
370
  -2
 10
2845.03551916051
 20
173.873730966898
 11
2845.03551916051
 21
269.020370611263
  0
LINE
  5
72D
100
AcDbEntity
  8
DIM
100
AcDbLine
  6
BYLAYER
 62
0
370
  -2
 10
2795.23551916051
 20
241.519609783856
 11
2795.23551916051
 21
269.020370611263
  0
LINE
  5
72E
100
AcDbEntity
  8
DIM
100
AcDbLine
  6
BYLAYER
 62
0
370
  -2
 10
2862.53551916051
 20
265.520370611263
 11
2880.03551916051
 21
265.520370611263
  0
LINE
  5
72F
100
AcDbEntity
  8
DIM
100
AcDbLine
  6
BYLAYER
 62
0
370
  -2
 10
2777.73551916051
 20
265.520370611263
 11
2760.23551916051
 21
265.520370611263
  0
SOLID
  5
730
100
AcDbEntity
  8
DIM
100
AcDbTrace
 10
2845.03551916051
 20
265.520370611263
 30
0.0
 11
2862.53551916051
 21
262.603703944596
 31
0.0
 12
2862.53551916051
 22
268.43703727793
 32
0.0
 13
2862.53551916051
 23
268.43703727793
 33
0.0
  0
SOLID
  5
731
100
AcDbEntity
  8
DIM
100
AcDbTrace
 10
2777.73551916051
 20
268.43703727793
 30
0.0
 11
2777.73551916051
 21
262.603703944596
 31
0.0
 12
2795.23551916051
 22
265.520370611263
 32
0.0
 13
2795.23551916051
 23
265.520370611263
 33
0.0
  0
TEXT
  5
732
100
AcDbEntity
  8
DIM
 62
0
100
AcDbText
  6
BYLAYER
 62
0
 10
2811.38551916051
 20
256.770370611263
 40
17.5
  1
50
  7
Font_0
 72
1
 11
2820.13551916051
 21
265.520370611263
100
AcDbText
 73
2
  0
LINE
  5
733
100
AcDbEntity
  8
DIM
100
AcDbLine
  6
BYLAYER
 62
0
370
  -2
 10
2795.23551916051
 20
241.519609783855
 11
2795.23551916051
 21
269.020370611263
  0
LINE
  5
734
100
AcDbEntity
  8
DIM
100
AcDbLine
  6
BYLAYER
 62
0
370
  -2
 10
2657.23551916051
 20
241.519609783855
 11
2657.23551916051
 21
269.020370611263
  0
LINE
  5
735
100
AcDbEntity
  8
DIM
100
AcDbLine
  6
BYLAYER
 62
0
370
  -2
 10
2777.73551916051
 20
265.520370611263
 11
2750.15218582718
 21
265.520370611263
  0
LINE
  5
736
100
AcDbEntity
  8
DIM
100
AcDbLine
  6
BYLAYER
 62
0
370
  -2
 10
2674.73551916051
 20
265.520370611263
 11
2702.31885249384
 21
265.520370611263
  0
SOLID
  5
737
100
AcDbEntity
  8
DIM
100
AcDbTrace
 10
2777.73551916051
 20
268.43703727793
 30
0.0
 11
2777.73551916051
 21
262.603703944596
 31
0.0
 12
2795.23551916051
 22
265.520370611263
 32
0.0
 13
2795.23551916051
 23
265.520370611263
 33
0.0
  0
SOLID
  5
738
100
AcDbEntity
  8
DIM
100
AcDbTrace
 10
2657.23551916051
 20
265.520370611263
 30
0.0
 11
2674.73551916051
 21
262.603703944596
 31
0.0
 12
2674.73551916051
 22
268.43703727793
 32
0.0
 13
2674.73551916051
 23
268.43703727793
 33
0.0
  0
TEXT
  5
739
100
AcDbEntity
  8
DIM
 62
0
100
AcDbText
  6
BYLAYER
 62
0
 10
2713.11051916051
 20
256.770370611263
 40
17.5
  1
138
  7
Font_0
 72
1
 11
2726.23551916051
 21
265.520370611263
100
AcDbText
 73
2
  0
LINE
  5
73A
100
AcDbEntity
  8
DIM
100
AcDbLine
  6
BYLAYER
 62
0
370
  -2
 10
2434.73551916051
 20
121.05129488017
 11
2434.73551916051
 21
307.054873410582
  0
LINE
  5
73B
100
AcDbEntity
  8
DIM
100
AcDbLine
  6
BYLAYER
 62
0
370
  -2
 10
2845.03551916051
 20
173.873730966898
 11
2845.03551916051
 21
307.054873410582
  0
LINE
  5
73C
100
AcDbEntity
  8
DIM
100
AcDbLine
  6
BYLAYER
 62
0
370
  -2
 10
2452.23551916051
 20
303.554873410582
 11
2620.54715491502
 21
303.554873410582
  0
LINE
  5
73D
100
AcDbEntity
  8
DIM
100
AcDbLine
  6
BYLAYER
 62
0
370
  -2
 10
2827.53551916051
 20
303.554873410582
 11
2665.46382158168
 21
303.554873410582
  0
SOLID
  5
73E
100
AcDbEntity
  8
DIM
100
AcDbTrace
 10
2434.73551916051
 20
303.554873410582
 30
0.0
 11
2452.23551916051
 21
300.638206743915
 31
0.0
 12
2452.23551916051
 22
306.471540077249
 32
0.0
 13
2452.23551916051
 23
306.471540077249
 33
0.0
  0
SOLID
  5
73F
100
AcDbEntity
  8
DIM
100
AcDbTrace
 10
2827.53551916051
 20
306.471540077249
 30
0.0
 11
2827.53551916051
 21
300.638206743915
 31
0.0
 12
2845.03551916051
 22
303.554873410582
 32
0.0
 13
2845.03551916051
 23
303.554873410582
 33
0.0
  0
TEXT
  5
740
100
AcDbEntity
  8
DIM
 62
0
100
AcDbText
  6
BYLAYER
 62
0
 10
2629.88048824835
 20
294.804873410582
 40
17.5
  1
410
  7
Font_0
 72
1
 11
2643.00548824835
 21
303.554873410582
100
AcDbText
 73
2
  0
LINE
  5
741
100
AcDbEntity
  8
DIM
100
AcDbLine
  6
BYLAYER
 62
0
370
  -2
 10
2814.73551916051
 20
109.3737309669
 11
2866.83398971885
 21
109.3737309669
  0
LINE
  5
742
100
AcDbEntity
  8
DIM
100
AcDbLine
  6
BYLAYER
 62
0
370
  -2
 10
2814.73551916051
 20
-25.6262690331005
 11
2866.83398971885
 21
-25.6262690331005
  0
LINE
  5
743
100
AcDbEntity
  8
DIM
100
AcDbLine
  6
BYLAYER
 62
0
370
  -2
 10
2863.33398971885
 20
91.8737309668995
 11
2863.33398971885
 21
65.7903976335662
  0
LINE
  5
744
100
AcDbEntity
  8
DIM
100
AcDbLine
  6
BYLAYER
 62
0
370
  -2
 10
2863.33398971885
 20
-8.12626903310049
 11
2863.33398971885
 21
17.9570643002329
  0
SOLID
  5
745
100
AcDbEntity
  8
DIM
100
AcDbTrace
 10
2860.41732305218
 20
91.8737309668995
 30
0.0
 11
2866.25065638551
 21
91.8737309668995
 31
0.0
 12
2863.33398971885
 22
109.3737309669
 32
0.0
 13
2863.33398971885
 23
109.3737309669
 33
0.0
  0
SOLID
  5
746
100
AcDbEntity
  8
DIM
100
AcDbTrace
 10
2863.33398971885
 20
-25.6262690331005
 30
0.0
 11
2866.25065638551
 21
-8.12626903310049
 31
0.0
 12
2860.41732305218
 22
-8.12626903310049
 32
0.0
 13
2860.41732305218
 23
-8.12626903310049
 33
0.0
  0
TEXT
  5
747
100
AcDbEntity
  8
DIM
 62
0
100
AcDbText
  6
BYLAYER
 62
0
 10
2872.08398971885
 20
28.7487309669
 40
17.5
  1
135
  7
Font_0
 50
90
 72
1
 11
2863.33398971885
 21
41.8737309669
100
AcDbText
 73
2
  0
LINE
  5
748
100
AcDbEntity
  8
DIM
100
AcDbLine
  6
BYLAYER
 62
0
370
  -2
 10
2814.73551916051
 20
-25.6262690331005
 11
2866.83398971885
 21
-25.6262690331005
  0
LINE
  5
749
100
AcDbEntity
  8
DIM
100
AcDbLine
  6
BYLAYER
 62
0
370
  -2
 10
2814.73551916051
 20
-160.6262690331
 11
2866.83398971885
 21
-160.6262690331
  0
LINE
  5
74A
100
AcDbEntity
  8
DIM
100
AcDbLine
  6
BYLAYER
 62
0
370
  -2
 10
2863.33398971885
 20
-43.1262690331005
 11
2863.33398971885
 21
-69.2096023664338
  0
LINE
  5
74B
100
AcDbEntity
  8
DIM
100
AcDbLine
  6
BYLAYER
 62
0
370
  -2
 10
2863.33398971885
 20
-143.1262690331
 11
2863.33398971885
 21
-117.042935699767
  0
SOLID
  5
74C
100
AcDbEntity
  8
DIM
100
AcDbTrace
 10
2860.41732305218
 20
-43.1262690331005
 30
0.0
 11
2866.25065638551
 21
-43.1262690331005
 31
0.0
 12
2863.33398971885
 22
-25.6262690331005
 32
0.0
 13
2863.33398971885
 23
-25.6262690331005
 33
0.0
  0
SOLID
  5
74D
100
AcDbEntity
  8
DIM
100
AcDbTrace
 10
2863.33398971885
 20
-160.6262690331
 30
0.0
 11
2866.25065638551
 21
-143.1262690331
 31
0.0
 12
2860.41732305218
 22
-143.1262690331
 32
0.0
 13
2860.41732305218
 23
-143.1262690331
 33
0.0
  0
TEXT
  5
74E
100
AcDbEntity
  8
DIM
 62
0
100
AcDbText
  6
BYLAYER
 62
0
 10
2872.08398971885
 20
-106.2512690331
 40
17.5
  1
135
  7
Font_0
 50
90
 72
1
 11
2863.33398971885
 21
-93.1262690331
100
AcDbText
 73
2
  0
LINE
  5
74F
100
AcDbEntity
  8
DIM
100
AcDbLine
  6
BYLAYER
 62
0
370
  -2
 10
2814.73551916051
 20
109.3737309669
 11
2896.62355567568
 21
109.3737309669
  0
LINE
  5
750
100
AcDbEntity
  8
DIM
100
AcDbLine
  6
BYLAYER
 62
0
370
  -2
 10
2814.73551916051
 20
-160.6262690331
 11
2896.62355567568
 21
-160.6262690331
  0
LINE
  5
751
100
AcDbEntity
  8
DIM
100
AcDbLine
  6
BYLAYER
 62
0
370
  -2
 10
2893.12355567568
 20
91.8737309668995
 11
2893.12355567568
 21
-0.251269033100491
  0
LINE
  5
752
100
AcDbEntity
  8
DIM
100
AcDbLine
  6
BYLAYER
 62
0
370
  -2
 10
2893.12355567568
 20
-143.1262690331
 11
2893.12355567568
 21
-51.0012690331005
  0
SOLID
  5
753
100
AcDbEntity
  8
DIM
100
AcDbTrace
 10
2890.20688900901
 20
91.8737309668995
 30
0.0
 11
2896.04022234235
 21
91.8737309668995
 31
0.0
 12
2893.12355567568
 22
109.3737309669
 32
0.0
 13
2893.12355567568
 23
109.3737309669
 33
0.0
  0
SOLID
  5
754
100
AcDbEntity
  8
DIM
100
AcDbTrace
 10
2893.12355567568
 20
-160.6262690331
 30
0.0
 11
2896.04022234235
 21
-143.1262690331
 31
0.0
 12
2890.20688900901
 22
-143.1262690331
 32
0.0
 13
2890.20688900901
 23
-143.1262690331
 33
0.0
  0
TEXT
  5
755
100
AcDbEntity
  8
DIM
 62
0
100
AcDbText
  6
BYLAYER
 62
0
 10
2901.87355567568
 20
-38.7512690331
 40
17.5
  1
270
  7
Font_0
 50
90
 72
1
 11
2893.12355567568
 21
-25.6262690331
100
AcDbText
 73
2
  0
LINE
  5
756
100
AcDbEntity
  8
DIM
100
AcDbLine
  6
BYLAYER
 62
0
370
  -2
 10
2814.73551916051
 20
119.3737309669
 11
2925.20789077766
 21
119.3737309669
  0
LINE
  5
757
100
AcDbEntity
  8
DIM
100
AcDbLine
  6
BYLAYER
 62
0
370
  -2
 10
2814.73551916051
 20
-170.6262690331
 11
2925.20789077766
 21
-170.626269033101
  0
LINE
  5
758
100
AcDbEntity
  8
DIM
100
AcDbLine
  6
BYLAYER
 62
0
370
  -2
 10
2921.70789077766
 20
101.8737309669
 11
2921.70789077766
 21
-0.251269033100498
  0
LINE
  5
759
100
AcDbEntity
  8
DIM
100
AcDbLine
  6
BYLAYER
 62
0
370
  -2
 10
2921.70789077766
 20
-153.1262690331
 11
2921.70789077766
 21
-51.0012690331005
  0
SOLID
  5
75A
100
AcDbEntity
  8
DIM
100
AcDbTrace
 10
2918.79122411099
 20
101.8737309669
 30
0.0
 11
2924.62455744433
 21
101.8737309669
 31
0.0
 12
2921.70789077766
 22
119.3737309669
 32
0.0
 13
2921.70789077766
 23
119.3737309669
 33
0.0
  0
SOLID
  5
75B
100
AcDbEntity
  8
DIM
100
AcDbTrace
 10
2921.70789077766
 20
-170.626269033101
 30
0.0
 11
2924.62455744433
 21
-153.1262690331
 31
0.0
 12
2918.79122411099
 22
-153.1262690331
 32
0.0
 13
2918.79122411099
 23
-153.1262690331
 33
0.0
  0
TEXT
  5
75C
100
AcDbEntity
  8
DIM
 62
0
100
AcDbText
  6
BYLAYER
 62
0
 10
2930.45789077766
 20
-38.7512690331
 40
17.5
  1
290
  7
Font_0
 50
90
 72
1
 11
2921.70789077766
 21
-25.6262690331
100
AcDbText
 73
2
  0
LINE
  5
75D
100
AcDbEntity
  8
DIM
100
AcDbLine
  6
BYLAYER
 62
0
370
  -2
 10
2857.82329985508
 20
-194.723348489463
 11
2840.32329985508
 21
-194.723348489463
  0
LINE
  5
75E
100
AcDbEntity
  8
DIM
100
AcDbLine
  6
BYLAYER
 62
0
370
  -2
 10
2840.32329985508
 20
-194.723348489463
 11
2825.35150610074
 21
-177.173214754391
  0
TEXT
  5
75F
100
AcDbEntity
  8
DIM
 62
0
100
AcDbText
  6
BYLAYER
 62
0
 10
2874.44829985508
 20
-203.473348489463
 40
17.5
  1
6-φ8.5
  7
Font_0
 72
1
 11
2905.07329985508
 21
-194.723348489463
100
AcDbText
 73
2
  0
SOLID
  5
760
100
AcDbEntity
  8
DIM
100
AcDbTrace
 10
2813.99381545918
 20
-163.859580265997
 30
0.0
 11
2823.13256701934
 21
-179.066163194652
 31
0.0
 12
2827.57044518214
 22
-175.280266314131
 32
0.0
 13
2827.57044518214
 23
-175.280266314131
 33
0.0
  0
LINE
  5
761
100
AcDbEntity
  8
DIM
100
AcDbLine
  6
BYLAYER
 62
0
370
  -2
 10
2810.92051916051
 20
-160.626269033101
 11
2811.55051916051
 21
-160.626269033101
  0
LINE
  5
762
100
AcDbEntity
  8
DIM
100
AcDbLine
  6
BYLAYER
 62
0
370
  -2
 10
2811.23551916051
 20
-160.941269033101
 11
2811.23551916051
 21
-160.311269033101
  0
LINE
  5
763
100
AcDbEntity
  8
DIM
100
AcDbLine
  6
BYLAYER
 62
0
370
  -2
 10
2811.23551916051
 20
-164.126269033101
 11
2811.23551916051
 21
-198.223348489464
  0
LINE
  5
764
100
AcDbEntity
  8
DIM
100
AcDbLine
  6
BYLAYER
 62
0
370
  -2
 10
2641.23551916051
 20
-164.126269033101
 11
2641.23551916051
 21
-198.223348489464
  0
LINE
  5
765
100
AcDbEntity
  8
DIM
100
AcDbLine
  6
BYLAYER
 62
0
370
  -2
 10
2793.73551916051
 20
-194.723348489464
 11
2748.69385249384
 21
-194.723348489464
  0
LINE
  5
766
100
AcDbEntity
  8
DIM
100
AcDbLine
  6
BYLAYER
 62
0
370
  -2
 10
2658.73551916051
 20
-194.723348489464
 11
2703.77718582718
 21
-194.723348489464
  0
SOLID
  5
767
100
AcDbEntity
  8
DIM
100
AcDbTrace
 10
2793.73551916051
 20
-191.806681822797
 30
0.0
 11
2793.73551916051
 21
-197.64001515613
 31
0.0
 12
2811.23551916051
 22
-194.723348489464
 32
0.0
 13
2811.23551916051
 23
-194.723348489464
 33
0.0
  0
SOLID
  5
768
100
AcDbEntity
  8
DIM
100
AcDbTrace
 10
2641.23551916051
 20
-194.723348489464
 30
0.0
 11
2658.73551916051
 21
-197.64001515613
 31
0.0
 12
2658.73551916051
 22
-191.806681822797
 32
0.0
 13
2658.73551916051
 23
-191.806681822797
 33
0.0
  0
TEXT
  5
769
100
AcDbEntity
  8
DIM
 62
0
100
AcDbText
  6
BYLAYER
 62
0
 10
2713.11051916051
 20
-203.473348489464
 40
17.5
  1
170
  7
Font_0
 72
1
 11
2726.23551916051
 21
-194.723348489464
100
AcDbText
 73
2
  0
LINE
  5
76A
100
AcDbEntity
  8
DIM
100
AcDbLine
  6
BYLAYER
 62
0
370
  -2
 10
2821.23551916051
 20
-164.126269033101
 11
2821.23551916051
 21
-227.751989680707
  0
LINE
  5
76B
100
AcDbEntity
  8
DIM
100
AcDbLine
  6
BYLAYER
 62
0
370
  -2
 10
2631.23551916051
 20
-164.126269033101
 11
2631.23551916051
 21
-227.751989680707
  0
LINE
  5
76C
100
AcDbEntity
  8
DIM
100
AcDbLine
  6
BYLAYER
 62
0
370
  -2
 10
2803.73551916051
 20
-224.251989680707
 11
2748.69385249384
 21
-224.251989680707
  0
LINE
  5
76D
100
AcDbEntity
  8
DIM
100
AcDbLine
  6
BYLAYER
 62
0
370
  -2
 10
2648.73551916051
 20
-224.251989680707
 11
2703.77718582718
 21
-224.251989680707
  0
SOLID
  5
76E
100
AcDbEntity
  8
DIM
100
AcDbTrace
 10
2803.73551916051
 20
-221.33532301404
 30
0.0
 11
2803.73551916051
 21
-227.168656347374
 31
0.0
 12
2821.23551916051
 22
-224.251989680707
 32
0.0
 13
2821.23551916051
 23
-224.251989680707
 33
0.0
  0
SOLID
  5
76F
100
AcDbEntity
  8
DIM
100
AcDbTrace
 10
2631.23551916051
 20
-224.251989680707
 30
0.0
 11
2648.73551916051
 21
-227.168656347374
 31
0.0
 12
2648.73551916051
 22
-221.33532301404
 32
0.0
 13
2648.73551916051
 23
-221.33532301404
 33
0.0
  0
TEXT
  5
770
100
AcDbEntity
  8
DIM
 62
0
100
AcDbText
  6
BYLAYER
 62
0
 10
2713.11051916051
 20
-233.001989680707
 40
17.5
  1
190
  7
Font_0
 72
1
 11
2726.23551916051
 21
-224.251989680707
100
AcDbText
 73
2
  0
LINE
  5
771
100
AcDbEntity
  8
DIM
100
AcDbLine
  6
BYLAYER
 62
0
370
  -2
 10
2999.65845003793
 20
74.3737309668985
 11
2974.39843438333
 21
74.3737309668985
  0
LINE
  5
772
100
AcDbEntity
  8
DIM
100
AcDbLine
  6
BYLAYER
 62
0
370
  -2
 10
2999.65845003793
 20
-125.626269033101
 11
2974.39843438333
 21
-125.6262690331
  0
LINE
  5
773
100
AcDbEntity
  8
DIM
100
AcDbLine
  6
BYLAYER
 62
0
370
  -2
 10
2977.89843438333
 20
56.8737309668985
 11
2977.89843438333
 21
7.04039763356561
  0
LINE
  5
774
100
AcDbEntity
  8
DIM
100
AcDbLine
  6
BYLAYER
 62
0
370
  -2
 10
2977.89843438333
 20
-108.126269033101
 11
2977.89843438333
 21
-58.2929356997677
  0
SOLID
  5
775
100
AcDbEntity
  8
DIM
100
AcDbTrace
 10
2974.98176771666
 20
56.8737309668985
 30
0.0
 11
2980.81510104999
 21
56.8737309668985
 31
0.0
 12
2977.89843438333
 22
74.3737309668985
 32
0.0
 13
2977.89843438333
 23
74.3737309668985
 33
0.0
  0
SOLID
  5
776
100
AcDbEntity
  8
DIM
100
AcDbTrace
 10
2977.89843438333
 20
-125.626269033101
 30
0.0
 11
2980.81510104999
 21
-108.126269033101
 31
0.0
 12
2974.98176771666
 22
-108.1262690331
 32
0.0
 13
2974.98176771666
 23
-108.1262690331
 33
0.0
  0
TEXT
  5
777
100
AcDbEntity
  8
DIM
 62
0
100
AcDbText
  6
BYLAYER
 62
0
 10
2986.64843438333
 20
-47.5012690331006
 40
17.5
  1
Φ200
  7
Font_0
 50
90
 72
1
 11
2977.89843438333
 21
-25.6262690331006
100
AcDbText
 73
2
  0
LINE
  5
778
100
AcDbEntity
  8
DIM
100
AcDbLine
  6
BYLAYER
 62
0
370
  -2
 10
3114.65845003793
 20
122.873730966899
 11
3114.65845003793
 21
269.020370611263
  0
LINE
  5
779
100
AcDbEntity
  8
DIM
100
AcDbLine
  6
BYLAYER
 62
0
370
  -2
 10
3003.15845003793
 20
77.8737309668985
 11
3003.15845003793
 21
269.020370611263
  0
LINE
  5
77A
100
AcDbEntity
  8
DIM
100
AcDbLine
  6
BYLAYER
 62
0
370
  -2
 10
3097.15845003793
 20
265.520370611263
 11
3079.90845003793
 21
265.520370611263
  0
LINE
  5
77B
100
AcDbEntity
  8
DIM
100
AcDbLine
  6
BYLAYER
 62
0
370
  -2
 10
3020.65845003793
 20
265.520370611263
 11
3037.90845003793
 21
265.520370611263
  0
SOLID
  5
77C
100
AcDbEntity
  8
DIM
100
AcDbTrace
 10
3097.15845003793
 20
268.43703727793
 30
0.0
 11
3097.15845003793
 21
262.603703944596
 31
0.0
 12
3114.65845003793
 22
265.520370611263
 32
0.0
 13
3114.65845003793
 23
265.520370611263
 33
0.0
  0
SOLID
  5
77D
100
AcDbEntity
  8
DIM
100
AcDbTrace
 10
3003.15845003793
 20
265.520370611263
 30
0.0
 11
3020.65845003793
 21
262.603703944596
 31
0.0
 12
3020.65845003793
 22
268.43703727793
 32
0.0
 13
3020.65845003793
 23
268.43703727793
 33
0.0
  0
TEXT
  5
77E
100
AcDbEntity
  8
DIM
 62
0
100
AcDbText
  6
BYLAYER
 62
0
 10
3045.78345003793
 20
256.770370611263
 40
17.5
  1
112
  7
Font_0
 72
1
 11
3058.90845003793
 21
265.520370611263
100
AcDbText
 73
2
  0
LINE
  5
77F
100
AcDbEntity
  8
DIM
100
AcDbLine
  6
BYLAYER
 62
0
370
  -2
 10
3114.65845003793
 20
122.873730966899
 11
3114.65845003793
 21
269.020370611263
  0
LINE
  5
780
100
AcDbEntity
  8
DIM
100
AcDbLine
  6
BYLAYER
 62
0
370
  -2
 10
3301.15845003793
 20
72.8737309668995
 11
3301.15845003793
 21
269.020370611263
  0
LINE
  5
781
100
AcDbEntity
  8
DIM
100
AcDbLine
  6
BYLAYER
 62
0
370
  -2
 10
3132.15845003793
 20
265.520370611263
 11
3183.99178337127
 21
265.520370611263
  0
LINE
  5
782
100
AcDbEntity
  8
DIM
100
AcDbLine
  6
BYLAYER
 62
0
370
  -2
 10
3283.65845003793
 20
265.520370611263
 11
3231.8251167046
 21
265.520370611263
  0
SOLID
  5
783
100
AcDbEntity
  8
DIM
100
AcDbTrace
 10
3114.65845003793
 20
265.520370611263
 30
0.0
 11
3132.15845003793
 21
262.603703944596
 31
0.0
 12
3132.15845003793
 22
268.43703727793
 32
0.0
 13
3132.15845003793
 23
268.43703727793
 33
0.0
  0
SOLID
  5
784
100
AcDbEntity
  8
DIM
100
AcDbTrace
 10
3283.65845003793
 20
268.43703727793
 30
0.0
 11
3283.65845003793
 21
262.603703944596
 31
0.0
 12
3301.15845003793
 22
265.520370611263
 32
0.0
 13
3301.15845003793
 23
265.520370611263
 33
0.0
  0
TEXT
  5
785
100
AcDbEntity
  8
DIM
 62
0
100
AcDbText
  6
BYLAYER
 62
0
 10
3194.78345003793
 20
256.770370611263
 40
17.5
  1
187
  7
Font_0
 72
1
 11
3207.90845003793
 21
265.520370611263
100
AcDbText
 73
2
  0
LINE
  5
786
100
AcDbEntity
  8
DIM
100
AcDbLine
  6
BYLAYER
 62
0
370
  -2
 10
3301.15845003793
 20
72.8737309668995
 11
3301.15845003793
 21
269.020370611263
  0
LINE
  5
787
100
AcDbEntity
  8
DIM
100
AcDbLine
  6
BYLAYER
 62
0
370
  -2
 10
3493.72129559442
 20
58.015008093226
 11
3493.72129559442
 21
269.020370611263
  0
LINE
  5
788
100
AcDbEntity
  8
DIM
100
AcDbLine
  6
BYLAYER
 62
0
370
  -2
 10
3318.65845003793
 20
265.520370611263
 11
3373.52320614951
 21
265.520370611263
  0
LINE
  5
789
100
AcDbEntity
  8
DIM
100
AcDbLine
  6
BYLAYER
 62
0
370
  -2
 10
3476.22129559442
 20
265.520370611263
 11
3421.35653948284
 21
265.520370611263
  0
SOLID
  5
78A
100
AcDbEntity
  8
DIM
100
AcDbTrace
 10
3301.15845003793
 20
265.520370611263
 30
0.0
 11
3318.65845003793
 21
262.603703944596
 31
0.0
 12
3318.65845003793
 22
268.43703727793
 32
0.0
 13
3318.65845003793
 23
268.43703727793
 33
0.0
  0
SOLID
  5
78B
100
AcDbEntity
  8
DIM
100
AcDbTrace
 10
3476.22129559442
 20
268.43703727793
 30
0.0
 11
3476.22129559442
 21
262.603703944596
 31
0.0
 12
3493.72129559442
 22
265.520370611263
 32
0.0
 13
3493.72129559442
 23
265.520370611263
 33
0.0
  0
TEXT
  5
78C
100
AcDbEntity
  8
DIM
 62
0
100
AcDbText
  6
BYLAYER
 62
0
 10
3384.31487281617
 20
256.770370611263
 40
17.5
  1
193
  7
Font_0
 72
1
 11
3397.43987281617
 21
265.520370611263
100
AcDbText
 73
2
  0
LINE
  5
78D
100
AcDbEntity
  8
DIM
100
AcDbLine
  6
BYLAYER
 62
0
370
  -2
 10
3493.72129559442
 20
58.0150080933206
 11
3493.72129559442
 21
307.054873410582
  0
LINE
  5
78E
100
AcDbEntity
  8
DIM
100
AcDbLine
  6
BYLAYER
 62
0
370
  -2
 10
3003.15845003793
 20
77.8737309668985
 11
3003.15845003793
 21
307.054873410582
  0
LINE
  5
78F
100
AcDbEntity
  8
DIM
100
AcDbLine
  6
BYLAYER
 62
0
370
  -2
 10
3476.22129559442
 20
303.554873410582
 11
3272.35653948284
 21
303.554873410582
  0
LINE
  5
790
100
AcDbEntity
  8
DIM
100
AcDbLine
  6
BYLAYER
 62
0
370
  -2
 10
3020.65845003793
 20
303.554873410582
 11
3224.52320614951
 21
303.554873410582
  0
SOLID
  5
791
100
AcDbEntity
  8
DIM
100
AcDbTrace
 10
3476.22129559442
 20
306.471540077249
 30
0.0
 11
3476.22129559442
 21
300.638206743915
 31
0.0
 12
3493.72129559442
 22
303.554873410582
 32
0.0
 13
3493.72129559442
 23
303.554873410582
 33
0.0
  0
SOLID
  5
792
100
AcDbEntity
  8
DIM
100
AcDbTrace
 10
3003.15845003793
 20
303.554873410582
 30
0.0
 11
3020.65845003793
 21
300.638206743915
 31
0.0
 12
3020.65845003793
 22
306.471540077249
 32
0.0
 13
3020.65845003793
 23
306.471540077249
 33
0.0
  0
TEXT
  5
793
100
AcDbEntity
  8
DIM
 62
0
100
AcDbText
  6
BYLAYER
 62
0
 10
3235.31487281617
 20
294.804873410582
 40
17.5
  1
491
  7
Font_0
 72
1
 11
3248.43987281617
 21
303.554873410582
100
AcDbText
 73
2
  0
LINE
  5
794
100
AcDbEntity
  8
DIM
100
AcDbLine
  6
BYLAYER
 62
0
370
  -2
 10
3319.5507766117
 20
238.019609783856
 11
3553.43516368027
 21
238.019609783855
  0
LINE
  5
795
100
AcDbEntity
  8
DIM
100
AcDbLine
  6
BYLAYER
 62
0
370
  -2
 10
3119.65845003793
 20
-170.6262690331
 11
3553.43516368027
 21
-170.626269033101
  0
LINE
  5
796
100
AcDbEntity
  8
DIM
100
AcDbLine
  6
BYLAYER
 62
0
370
  -2
 10
3549.93516368027
 20
220.519609783855
 11
3549.93516368027
 21
59.0716703753776
  0
LINE
  5
797
100
AcDbEntity
  8
DIM
100
AcDbLine
  6
BYLAYER
 62
0
370
  -2
 10
3549.93516368027
 20
-153.1262690331
 11
3549.93516368027
 21
8.32167037537762
  0
SOLID
  5
798
100
AcDbEntity
  8
DIM
100
AcDbTrace
 10
3547.0184970136
 20
220.519609783855
 30
0.0
 11
3552.85183034694
 21
220.519609783855
 31
0.0
 12
3549.93516368027
 22
238.019609783855
 32
0.0
 13
3549.93516368027
 23
238.019609783855
 33
0.0
  0
SOLID
  5
799
100
AcDbEntity
  8
DIM
100
AcDbTrace
 10
3549.93516368027
 20
-170.626269033101
 30
0.0
 11
3552.85183034694
 21
-153.1262690331
 31
0.0
 12
3547.0184970136
 22
-153.1262690331
 32
0.0
 13
3547.0184970136
 23
-153.1262690331
 33
0.0
  0
TEXT
  5
79A
100
AcDbEntity
  8
DIM
 62
0
100
AcDbText
  6
BYLAYER
 62
0
 10
3558.68516368027
 20
20.5716703753782
 40
17.5
  1
409
  7
Font_0
 50
90
 72
1
 11
3549.93516368027
 21
33.6966703753782
100
AcDbText
 73
2
  0
LINE
  5
79B
100
AcDbEntity
  8
DIM
100
AcDbLine
  6
BYLAYER
 62
0
370
  -2
 10
3319.5507766117
 20
238.019609783856
 11
3523.09467423781
 21
238.019609783856
  0
LINE
  5
79C
100
AcDbEntity
  8
DIM
100
AcDbLine
  6
BYLAYER
 62
0
370
  -2
 10
3304.65845003793
 20
69.3737309668995
 11
3523.09467423781
 21
69.3737309668995
  0
LINE
  5
79D
100
AcDbEntity
  8
DIM
100
AcDbLine
  6
BYLAYER
 62
0
370
  -2
 10
3519.59467423781
 20
220.519609783856
 11
3519.59467423781
 21
177.613337042044
  0
LINE
  5
79E
100
AcDbEntity
  8
DIM
100
AcDbLine
  6
BYLAYER
 62
0
370
  -2
 10
3519.59467423781
 20
86.8737309668995
 11
3519.59467423781
 21
129.780003708711
  0
SOLID
  5
79F
100
AcDbEntity
  8
DIM
100
AcDbTrace
 10
3516.67800757114
 20
220.519609783856
 30
0.0
 11
3522.51134090447
 21
220.519609783855
 31
0.0
 12
3519.59467423781
 22
238.019609783856
 32
0.0
 13
3519.59467423781
 23
238.019609783856
 33
0.0
  0
SOLID
  5
7A0
100
AcDbEntity
  8
DIM
100
AcDbTrace
 10
3519.59467423781
 20
69.3737309668995
 30
0.0
 11
3522.51134090447
 21
86.8737309668995
 31
0.0
 12
3516.67800757114
 22
86.8737309668995
 32
0.0
 13
3516.67800757114
 23
86.8737309668995
 33
0.0
  0
TEXT
  5
7A1
100
AcDbEntity
  8
DIM
 62
0
100
AcDbText
  6
BYLAYER
 62
0
 10
3528.34467423781
 20
140.571670375378
 40
17.5
  1
169
  7
Font_0
 50
90
 72
1
 11
3519.59467423781
 21
153.696670375378
100
AcDbText
 73
2
  0
LINE
  5
7A2
100
AcDbEntity
  8
DIM
100
AcDbLine
  6
BYLAYER
 62
0
370
  -2
 10
3304.65845003793
 20
69.3737309668995
 11
3523.09467423781
 21
69.3737309668995
  0
LINE
  5
7A3
100
AcDbEntity
  8
DIM
100
AcDbLine
  6
BYLAYER
 62
0
370
  -2
 10
3300.75589554105
 20
-146.626269033101
 11
3523.09467423781
 21
-146.626269033101
  0
LINE
  5
7A4
100
AcDbEntity
  8
DIM
100
AcDbLine
  6
BYLAYER
 62
0
370
  -2
 10
3519.59467423781
 20
51.8737309668995
 11
3519.59467423781
 21
-14.7096023664338
  0
LINE
  5
7A5
100
AcDbEntity
  8
DIM
100
AcDbLine
  6
BYLAYER
 62
0
370
  -2
 10
3519.59467423781
 20
-129.1262690331
 11
3519.59467423781
 21
-62.5429356997672
  0
SOLID
  5
7A6
100
AcDbEntity
  8
DIM
100
AcDbTrace
 10
3516.67800757114
 20
51.8737309668995
 30
0.0
 11
3522.51134090447
 21
51.8737309668995
 31
0.0
 12
3519.59467423781
 22
69.3737309668995
 32
0.0
 13
3519.59467423781
 23
69.3737309668995
 33
0.0
  0
SOLID
  5
7A7
100
AcDbEntity
  8
DIM
100
AcDbTrace
 10
3519.59467423781
 20
-146.626269033101
 30
0.0
 11
3522.51134090447
 21
-129.1262690331
 31
0.0
 12
3516.67800757114
 22
-129.1262690331
 32
0.0
 13
3516.67800757114
 23
-129.1262690331
 33
0.0
  0
TEXT
  5
7A8
100
AcDbEntity
  8
DIM
 62
0
100
AcDbText
  6
BYLAYER
 62
0
 10
3528.34467423781
 20
-51.7512690330999
 40
17.5
  1
216
  7
Font_0
 50
90
 72
1
 11
3519.59467423781
 21
-38.6262690330999
100
AcDbText
 73
2
  0
LINE
  5
7A9
100
AcDbEntity
  8
DIM
100
AcDbLine
  6
BYLAYER
 62
0
370
  -2
 10
3220.3357720249
 20
-80.7526858594451
 11
3237.8357720249
 21
-80.7526858594451
  0
LINE
  5
7AA
100
AcDbEntity
  8
DIM
100
AcDbLine
  6
BYLAYER
 62
0
370
  -2
 10
3237.8357720249
 20
-80.7526858594451
 11
3255.10478984927
 21
-39.811022470692
  0
TEXT
  5
7AB
100
AcDbEntity
  8
DIM
 62
0
100
AcDbText
  6
BYLAYER
 62
0
 10
3164.3357720249
 20
-89.5026858594449
 40
17.5
  1
φ202
  7
Font_0
 72
1
 11
3186.2107720249
 21
-80.7526858594449
100
AcDbText
 73
2
  0
SOLID
  5
7AC
100
AcDbEntity
  8
DIM
100
AcDbTrace
 10
3252.4174014032
 20
-38.6774935630951
 30
0.0
 11
3257.79217829535
 21
-40.9445513782891
 31
0.0
 12
3261.90596329486
 22
-23.6866917942543
 32
0.0
 13
3261.90596329486
 23
-23.6866917942543
 33
0.0
  0
LINE
  5
7AD
100
AcDbEntity
  8
DIM
100
AcDbLine
  6
BYLAYER
 62
0
370
  -2
 10
3300.84345003793
 20
69.3737309668993
 11
3301.47345003793
 21
69.3737309668993
  0
LINE
  5
7AE
100
AcDbEntity
  8
DIM
100
AcDbLine
  6
BYLAYER
 62
0
370
  -2
 10
3301.15845003793
 20
69.0587309668993
 11
3301.15845003793
 21
69.6887309668996
  0
LWPOLYLINE
  5
7AF
100
AcDbEntity
  8
0
100
AcDbPolyline
  6
BYLAYER
 90
     82
 10
3135.70840084812
  20
95.3737309668993
 10
3139.84206801095
  20
105.709222001129
 10
3144.03055850039
  20
115.944079813831
 10
3148.35113517066
  20
126.033992728062
 10
3152.88106087601
  20
135.934649066884
 10
3157.69759847068
  20
145.601737153356
 10
3162.8780108089
  20
154.990945310536
 10
3168.49956074491
  20
164.057961861485
 10
3174.63951113296
  20
172.758475129262
 10
3181.37512482727
  20
181.048173436925
 10
3188.76092449847
  20
188.885320520106
 10
3196.76047208263
  20
196.238481764714
 10
3205.31458933222
  20
203.078797969229
 10
3214.3640979997
  20
209.377409932132
 10
3223.84981983753
  20
215.105458451903
 10
3233.71257659817
  20
220.234084327022
 10
3243.89319003408
  20
224.73442835597
 10
3254.33248189772
  20
228.577631337226
 10
3264.97127394155
  20
231.734834069271
 10
3275.75317067488
  20
234.18333873335
 10
3286.63290763434
  20
235.925093041765
 10
3297.56800311344
  20
236.968206089581
 10
3308.51597540566
  20
237.320786971865
 10
3319.4343428045
  20
236.990944783682
 10
3330.28062360345
  20
235.986788620099
 10
3341.01233609599
  20
234.316427576181
 10
3351.58699857563
  20
231.987970746996
 10
3361.96212933584
  20
229.009527227608
 10
3372.09951827334
  20
225.391912908692
 10
3381.97804169769
  20
221.156770863358
 10
3391.58084752167
  20
216.328450960323
 10
3400.89108365806
  20
210.931303068305
 10
3409.89189801963
  20
204.989677056022
 10
3418.56643851917
  20
198.527922792191
 10
3426.89785306946
  20
191.57039014553
 10
3434.86928958327
  20
184.141428984757
 10
3442.46389597338
  20
176.265389178589
 10
3449.66244295637
  20
167.96533099971
 10
3456.43619246401
  20
159.259156336666
 10
3462.75402923187
  20
150.16347748197
 10
3468.58483799551
  20
140.694906728133
 10
3473.89750349049
  20
130.870056367667
 10
3478.66091045239
  20
120.705538693084
 10
3482.84394361678
  20
110.217965996898
 10
3486.4154877192
  20
99.4239505716185
 10
3489.34442749524
  20
88.340104709759
 10
3491.60388090409
  20
76.9914163441915
 10
3493.18389879941
  20
65.4363759692287
 10
3494.07876525852
  20
53.7418497195439
 10
3494.2827643587
  20
41.9747037298099
 10
3493.79018017727
  20
30.2018041346999
 10
3492.59529679153
  20
18.4900170688869
 10
3490.69239827876
  20
6.90620866704398
 10
3488.07576871628
  20
-4.48275493615582
 10
3484.73969218138
  20
-15.6100076060395
 10
3480.69075186
  20
-26.4143028324635
 10
3475.98472737264
  20
-36.8568726034032
 10
3470.6896974484
  20
-46.9045685313633
 10
3464.87374081641
  20
-56.5242422288486
 10
3458.60493620581
  20
-65.6827453083641
 10
3451.95136234569
  20
-74.3469293824145
 10
3444.9810979652
  20
-82.4836460635047
 10
3437.76222179346
  20
-90.0597469641395
 10
3430.36281255958
  20
-97.0420836968237
 10
3422.84244365593
  20
-103.409002028723
 10
3415.22666712786
  20
-109.18482434565
 10
3407.53252968394
  20
-114.405367188074
 10
3399.77707803275
  20
-119.10644709647
 10
3391.97735888288
  20
-123.323880611309
 10
3384.15041894291
  20
-127.093484273063
 10
3376.31330492143
  20
-130.451074622205
 10
3368.48306352701
  20
-133.432468199206
 10
3360.67674146823
  20
-136.073481544539
 10
3352.9154279442
  20
-138.404706299675
 10
3345.23638211603
  20
-140.435834510076
 10
3337.68090563538
  20
-142.171333322205
 10
3330.29030015387
  20
-143.615669882522
 10
3323.10586732316
  20
-144.77331133749
 10
3316.16890879489
  20
-145.64872483357
 10
3309.52072622068
  20
-146.246377517224
 10
3303.20262125219
  20
-146.570736534914
 10
3297.25589554105
  20
-146.6262690331
  0
LINE
  5
7B0
100
AcDbEntity
  8
0
100
AcDbLine
  6
BYLAYER
 10
3135.70840084812
 20
95.3737309668993
 11
3116.15845003793
 21
95.3737309668995
  0
LINE
  5
7B1
100
AcDbEntity
  8
0
100
AcDbLine
  6
BYLAYER
 10
3297.25589554105
 20
-146.626269033101
 11
3116.15845003793
 21
-146.626269033101
  0
LINE
  5
7B2
100
AcDbEntity
  8
DIM
100
AcDbLine
  6
BYLAYER
 62
0
370
  -2
 10
3300.75589554105
 20
-146.626269033101
 11
3523.09467423781
 21
-146.626269033101
  0
LINE
  5
7B3
100
AcDbEntity
  8
DIM
100
AcDbLine
  6
BYLAYER
 62
0
370
  -2
 10
3119.65845003793
 20
-170.6262690331
 11
3523.09467423781
 21
-170.626269033101
  0
LINE
  5
7B4
100
AcDbEntity
  8
DIM
100
AcDbLine
  6
BYLAYER
 62
0
370
  -2
 10
3519.59467423781
 20
-129.1262690331
 11
3519.59467423781
 21
-111.6262690331
  0
LINE
  5
7B5
100
AcDbEntity
  8
DIM
100
AcDbLine
  6
BYLAYER
 62
0
370
  -2
 10
3519.59467423781
 20
-188.126269033101
 11
3519.59467423781
 21
-205.6262690331
  0
LINE
  5
7B6
100
AcDbEntity
  8
DIM
100
AcDbLine
  6
BYLAYER
 62
0
370
  -2
 10
3519.59467423781
 20
-205.6262690331
 11
3502.09467423781
 21
-205.6262690331
  0
SOLID
  5
7B7
100
AcDbEntity
  8
DIM
100
AcDbTrace
 10
3519.59467423781
 20
-146.626269033101
 30
0.0
 11
3522.51134090447
 21
-129.1262690331
 31
0.0
 12
3516.67800757114
 22
-129.1262690331
 32
0.0
 13
3516.67800757114
 23
-129.1262690331
 33
0.0
  0
SOLID
  5
7B8
100
AcDbEntity
  8
DIM
100
AcDbTrace
 10
3516.67800757114
 20
-188.126269033101
 30
0.0
 11
3522.51134090447
 21
-188.126269033101
 31
0.0
 12
3519.59467423781
 22
-170.6262690331
 32
0.0
 13
3519.59467423781
 23
-170.6262690331
 33
0.0
  0
TEXT
  5
7B9
100
AcDbEntity
  8
DIM
 62
0
100
AcDbText
  6
BYLAYER
 62
0
 10
3475.26134090447
 20
-214.3762690331
 40
17.5
  1
24
  7
Font_0
 72
1
 11
3484.01134090447
 21
-205.6262690331
100
AcDbText
 73
2
  0
ENDSEC
  0
SECTION
  2
OBJECTS
  0
DICTIONARY
  5
7BA
100
AcDbDictionary
  3
ACAD_GROUP
350
7BB
  3
ACAD_MLINESTYLE
350
7BC
  0
DICTIONARY
  5
7BB
102
{ACAD_REACTORS
330
7BA
102
}
100
AcDbDictionary
  0
DICTIONARY
  5
7BC
102
{ACAD_REACTORS
330
7BA
102
}
100
AcDbDictionary
  3
STANDARD
350
7BD
  0
MLINESTYLE
  5
7BD
102
{ACAD_REACTORS
330
7BC
102
}
100
AcDbMlineStyle
  2
Standard
 70
     0
  3

 62
     0
 51
90.0
 52
90.0
 71
     2
 49
0.5
 62
   256
  6
ByLayer
 49
-0.5
 62
   256
  6
ByLayer
  0
ENDSEC
  0
EOF
