999
Outputted By AR_CAD Ver.1.6.0
  0
SECTION
  2
HEADER
  9
$ACADVER
  1
AC1014
  9
$DWGCODEPAGE
  3
ANSI_932
  9
$EXTMIN
 10
0
 20
0
  9
$EXTMAX
 10
594
 20
420
  9
$INSBASE
 10
0.0
 20
0.0
 30
0.0
  9
$HANDLING
 70
     1
  9
$HANDSEED
  5
78D
  9
$LTSCALE
 40
1
  0
ENDSEC
  0
SECTION
  2
TABLES
  0
TABLE
  2
VPORT
  5
1
100
AcDbSymbolTable
 70
     1
  0
VPORT
  5
30
100
AcDbSymbolTableRecord
100
AcDbViewportTableRecord
  2
*ACTIVE
 70
     0
 10
0.0
 20
0.0
 11
1.0
 21
1.0
 12
210.0
 22
148.5
 13
0.0
 23
0.0
 14
10.0
 24
10.0
 15
10.0
 25
10.0
 16
0.0
 26
0.0
 36
1.0
 17
0.0
 27
0.0
 37
0.0
 40
302.94
 41
1.333333
 42
50.0
 43
0.0
 44
0.0
 50
0.0
 51
0.0
 71
     0
 72
   100
 73
     1
 74
     1
 75
     0
 76
     0
 77
     0
 78
     0
  0
ENDTAB
  0
TABLE
  2
LTYPE
  5
2
100
AcDbSymbolTable
 70
     19
  0
LTYPE
  5
31
100
AcDbSymbolTableRecord
100
AcDbLinetypeTableRecord
  2
BYBLOCK
 70
    64
 3

 72
    65
 73
    0
 40
    0
  0
LTYPE
  5
32
100
AcDbSymbolTableRecord
100
AcDbLinetypeTableRecord
  2
BYLAYER
 70
    64
 3

 72
    65
 73
    0
 40
    0
  0
LTYPE
  5
33
100
AcDbSymbolTableRecord
100
AcDbLinetypeTableRecord
  2
CONTINUOUS
 70
    64
 3
CONTINUOUS
 72
    65
 73
    0
 40
    0
  0
LTYPE
  5
34
100
AcDbSymbolTableRecord
100
AcDbLinetypeTableRecord
  2
DASHED
 70
    64
 3

 72
    65
 73
    2
 40
    3.5
 49
    2.91666666666667
 74
    0
 49
    -0.583333333333333
 74
    0
  0
LTYPE
  5
35
100
AcDbSymbolTableRecord
100
AcDbLinetypeTableRecord
  2
DOT
 70
    64
 3

 72
    65
 73
    2
 40
    0.5
 49
    0.25
 74
    0
 49
    -0.25
 74
    0
  0
LTYPE
  5
36
100
AcDbSymbolTableRecord
100
AcDbLinetypeTableRecord
  2
DASHDOT
 70
    64
 3

 72
    65
 73
    4
 40
    3.5
 49
    1.84210526315789
 74
    0
 49
    -0.552631578947368
 74
    0
 49
    0.552631578947368
 74
    0
 49
    -0.552631578947368
 74
    0
  0
LTYPE
  5
37
100
AcDbSymbolTableRecord
100
AcDbLinetypeTableRecord
  2
DIVIDE
 70
    64
 3

 72
    65
 73
    6
 40
    3.5
 49
    1.4
 74
    0
 49
    -0.42
 74
    0
 49
    0.42
 74
    0
 49
    -0.42
 74
    0
 49
    0.42
 74
    0
 49
    -0.42
 74
    0
  0
LTYPE
  5
38
100
AcDbSymbolTableRecord
100
AcDbLinetypeTableRecord
  2
HIDDEN
 70
    64
 3

 72
    65
 73
    2
 40
    9.525
 49
    6.35
 74
    0
 49
    -3.175
 74
    0
  0
LTYPE
  5
39
100
AcDbSymbolTableRecord
100
AcDbLinetypeTableRecord
  2
CENTER
 70
    64
 3

 72
    65
 73
    4
 40
    50.8
 49
    31.75
 74
    0
 49
    -6.35
 74
    0
 49
    6.35
 74
    0
 49
    -6.35
 74
    0
  0
LTYPE
  5
3A
100
AcDbSymbolTableRecord
100
AcDbLinetypeTableRecord
  2
BORDER
 70
    64
 3

 72
    65
 73
    6
 40
    44.45
 49
    12.7
 74
    0
 49
    -6.35
 74
    0
 49
    12.7
 74
    0
 49
    -6.35
 74
    0
 49
    0
 74
    0
 49
    -6.35
 74
    0
  0
LTYPE
  5
3B
100
AcDbSymbolTableRecord
100
AcDbLinetypeTableRecord
  2
AM_ISO02W050
 70
    64
 3

 72
    65
 73
    2
 40
    7.5
 49
    6
 74
    0
 49
    -1.5
 74
    0
  0
LTYPE
  5
3C
100
AcDbSymbolTableRecord
100
AcDbLinetypeTableRecord
  2
AM_ISO08W050
 70
    64
 3

 72
    65
 73
    4
 40
    18
 49
    12
 74
    0
 49
    -1.5
 74
    0
 49
    3
 74
    0
 49
    -1.5
 74
    0
  0
LTYPE
  5
3D
100
AcDbSymbolTableRecord
100
AcDbLinetypeTableRecord
  2
AM_ISO09W050
 70
    64
 3

 72
    65
 73
    6
 40
    22.5
 49
    12
 74
    0
 49
    -1.5
 74
    0
 49
    3
 74
    0
 49
    -1.5
 74
    0
 49
    3
 74
    0
 49
    -1.5
 74
    0
  0
LTYPE
  5
3E
100
AcDbSymbolTableRecord
100
AcDbLinetypeTableRecord
  2
Amconstr
 70
    64
 3

 72
    65
 73
    1
 40
    9999
 49
    9999
 74
    0
  0
LTYPE
  5
3F
100
AcDbSymbolTableRecord
100
AcDbLinetypeTableRecord
  2
AM_ISO08W050x2
 70
    64
 3

 72
    65
 73
    4
 40
    9
 49
    6
 74
    0
 49
    -0.75
 74
    0
 49
    1.5
 74
    0
 49
    -0.75
 74
    0
  0
LTYPE
  5
40
100
AcDbSymbolTableRecord
100
AcDbLinetypeTableRecord
  2
AM_ISO02W050x2
 70
    64
 3

 72
    65
 73
    2
 40
    3.75
 49
    3
 74
    0
 49
    -0.75
 74
    0
  0
LTYPE
  5
41
100
AcDbSymbolTableRecord
100
AcDbLinetypeTableRecord
  2
Amzigzag
 70
    64
 3

 72
    65
 73
    2
 40
    4
 49
    2
 74
    0
 49
    -2
 74
    0
  0
LTYPE
  5
42
100
AcDbSymbolTableRecord
100
AcDbLinetypeTableRecord
  2
ACISOWELD
 70
    64
 3

 72
    65
 73
    2
 40
    2
 49
    1.33333333333333
 74
    0
 49
    -0.666666666666667
 74
    0
  0
LTYPE
  5
43
100
AcDbSymbolTableRecord
100
AcDbLinetypeTableRecord
  2
ACISOTGB
 70
    64
 3

 72
    65
 73
    6
 40
    9
 49
    4
 74
    0
 49
    -1
 74
    0
 49
    1
 74
    0
 49
    -1
 74
    0
 49
    1
 74
    0
 49
    -1
 74
    0
  0
LTYPE
  5
44
100
AcDbSymbolTableRecord
100
AcDbLinetypeTableRecord
  2
ACISOTGL
 70
    64
 3

 72
    65
 73
    2
 40
    3
 49
    2
 74
    0
 49
    -1
 74
    0
  0
ENDTAB
  0
TABLE
  2
LAYER
  5
3
100
AcDbSymbolTable
 70
   257
  0
LAYER
  5
45
100
AcDbSymbolTableRecord
100
AcDbLayerTableRecord
  2
0
 70
    0
 62
7
  6
CONTINUOUS
  0
LAYER
  5
46
100
AcDbSymbolTableRecord
100
AcDbLayerTableRecord
  2
CEN
 70
    0
 62
3
  6
AM_ISO08W050
  0
LAYER
  5
47
100
AcDbSymbolTableRecord
100
AcDbLayerTableRecord
  2
DIM
 70
    0
 62
1
  6
CONTINUOUS
  0
LAYER
  5
48
100
AcDbSymbolTableRecord
100
AcDbLayerTableRecord
  2
BASE
 70
    0
 62
7
  6
CONTINUOUS
  0
LAYER
  5
49
100
AcDbSymbolTableRecord
100
AcDbLayerTableRecord
  2
HIDDEN
 70
    0
 62
3
  6
CONTINUOUS
  0
LAYER
  5
4A
100
AcDbSymbolTableRecord
100
AcDbLayerTableRecord
  2
HATCH
 70
    0
 62
5
  6
CONTINUOUS
  0
LAYER
  5
4B
100
AcDbSymbolTableRecord
100
AcDbLayerTableRecord
  2
TEXT
 70
    0
 62
7
  6
CONTINUOUS
  0
LAYER
  5
4C
100
AcDbSymbolTableRecord
100
AcDbLayerTableRecord
  2
M
 70
    0
 62
6
  6
CONTINUOUS
  0
LAYER
  5
4D
100
AcDbSymbolTableRecord
100
AcDbLayerTableRecord
  2
DEFPOINTS
 70
    0
 62
7
  6
CONTINUOUS
  0
LAYER
  5
4E
100
AcDbSymbolTableRecord
100
AcDbLayerTableRecord
  2
ASHADE
 70
    4
 62
7
  6
CONTINUOUS
  0
LAYER
  5
4F
100
AcDbSymbolTableRecord
100
AcDbLayerTableRecord
  2
01
 70
    0
 62
-3
  6
CONTINUOUS
  0
LAYER
  5
50
100
AcDbSymbolTableRecord
100
AcDbLayerTableRecord
  2
7475A
 70
    0
 62
1
  6
CONTINUOUS
  0
LAYER
  5
51
100
AcDbSymbolTableRecord
100
AcDbLayerTableRecord
  2
BREAK
 70
    0
 62
3
  6
AM_ISO09W050
  0
LAYER
  5
52
100
AcDbSymbolTableRecord
100
AcDbLayerTableRecord
  2
AME
 70
    0
 62
7
  6
CONTINUOUS
  0
LAYER
  5
53
100
AcDbSymbolTableRecord
100
AcDbLayerTableRecord
  2
PV-230
 70
    0
 62
7
  6
CONTINUOUS
  0
LAYER
  5
54
100
AcDbSymbolTableRecord
100
AcDbLayerTableRecord
  2
AM_CL
 70
    0
 62
1
  6
Amzigzag
  0
LAYER
  5
55
100
AcDbSymbolTableRecord
100
AcDbLayerTableRecord
  2
AM_VIEWS
 70
    0
 62
1
  6
CONTINUOUS
  0
LAYER
  5
56
100
AcDbSymbolTableRecord
100
AcDbLayerTableRecord
  2
AM_8
 70
    0
 62
5
  6
CONTINUOUS
  0
LAYER
  5
57
100
AcDbSymbolTableRecord
100
AcDbLayerTableRecord
  2
CENTER
 70
    0
 62
3
  6
AM_ISO08W050
  0
LAYER
  5
58
100
AcDbSymbolTableRecord
100
AcDbLayerTableRecord
  2
画層19
 70
    0
 62
137
  6
CONTINUOUS
  0
LAYER
  5
59
100
AcDbSymbolTableRecord
100
AcDbLayerTableRecord
  2
画層20
 70
    0
 62
4
  6
CONTINUOUS
  0
LAYER
  5
5A
100
AcDbSymbolTableRecord
100
AcDbLayerTableRecord
  2
画層21
 70
    0
 62
131
  6
CONTINUOUS
  0
LAYER
  5
5B
100
AcDbSymbolTableRecord
100
AcDbLayerTableRecord
  2
画層22
 70
    0
 62
4
  6
CONTINUOUS
  0
LAYER
  5
5C
100
AcDbSymbolTableRecord
100
AcDbLayerTableRecord
  2
画層23
 70
    0
 62
4
  6
CONTINUOUS
  0
LAYER
  5
5D
100
AcDbSymbolTableRecord
100
AcDbLayerTableRecord
  2
画層24
 70
    0
 62
7
  6
CONTINUOUS
  0
LAYER
  5
5E
100
AcDbSymbolTableRecord
100
AcDbLayerTableRecord
  2
画層25
 70
    0
 62
7
  6
CONTINUOUS
  0
LAYER
  5
5F
100
AcDbSymbolTableRecord
100
AcDbLayerTableRecord
  2
画層26
 70
    0
 62
7
  6
CONTINUOUS
  0
LAYER
  5
60
100
AcDbSymbolTableRecord
100
AcDbLayerTableRecord
  2
画層27
 70
    0
 62
7
  6
CONTINUOUS
  0
LAYER
  5
61
100
AcDbSymbolTableRecord
100
AcDbLayerTableRecord
  2
画層28
 70
    0
 62
7
  6
CONTINUOUS
  0
LAYER
  5
62
100
AcDbSymbolTableRecord
100
AcDbLayerTableRecord
  2
画層29
 70
    0
 62
7
  6
CONTINUOUS
  0
LAYER
  5
63
100
AcDbSymbolTableRecord
100
AcDbLayerTableRecord
  2
画層30
 70
    0
 62
7
  6
CONTINUOUS
  0
LAYER
  5
64
100
AcDbSymbolTableRecord
100
AcDbLayerTableRecord
  2
画層31
 70
    0
 62
7
  6
CONTINUOUS
  0
LAYER
  5
65
100
AcDbSymbolTableRecord
100
AcDbLayerTableRecord
  2
画層32
 70
    0
 62
7
  6
CONTINUOUS
  0
LAYER
  5
66
100
AcDbSymbolTableRecord
100
AcDbLayerTableRecord
  2
画層33
 70
    0
 62
7
  6
CONTINUOUS
  0
LAYER
  5
67
100
AcDbSymbolTableRecord
100
AcDbLayerTableRecord
  2
画層34
 70
    0
 62
7
  6
CONTINUOUS
  0
LAYER
  5
68
100
AcDbSymbolTableRecord
100
AcDbLayerTableRecord
  2
画層35
 70
    0
 62
7
  6
CONTINUOUS
  0
LAYER
  5
69
100
AcDbSymbolTableRecord
100
AcDbLayerTableRecord
  2
画層36
 70
    0
 62
7
  6
CONTINUOUS
  0
LAYER
  5
6A
100
AcDbSymbolTableRecord
100
AcDbLayerTableRecord
  2
画層37
 70
    0
 62
7
  6
CONTINUOUS
  0
LAYER
  5
6B
100
AcDbSymbolTableRecord
100
AcDbLayerTableRecord
  2
画層38
 70
    0
 62
7
  6
CONTINUOUS
  0
LAYER
  5
6C
100
AcDbSymbolTableRecord
100
AcDbLayerTableRecord
  2
画層39
 70
    0
 62
7
  6
CONTINUOUS
  0
LAYER
  5
6D
100
AcDbSymbolTableRecord
100
AcDbLayerTableRecord
  2
画層40
 70
    0
 62
7
  6
CONTINUOUS
  0
LAYER
  5
6E
100
AcDbSymbolTableRecord
100
AcDbLayerTableRecord
  2
画層41
 70
    0
 62
7
  6
CONTINUOUS
  0
LAYER
  5
6F
100
AcDbSymbolTableRecord
100
AcDbLayerTableRecord
  2
画層42
 70
    0
 62
7
  6
CONTINUOUS
  0
LAYER
  5
70
100
AcDbSymbolTableRecord
100
AcDbLayerTableRecord
  2
画層43
 70
    0
 62
7
  6
CONTINUOUS
  0
LAYER
  5
71
100
AcDbSymbolTableRecord
100
AcDbLayerTableRecord
  2
画層44
 70
    0
 62
7
  6
CONTINUOUS
  0
LAYER
  5
72
100
AcDbSymbolTableRecord
100
AcDbLayerTableRecord
  2
画層45
 70
    0
 62
7
  6
CONTINUOUS
  0
LAYER
  5
73
100
AcDbSymbolTableRecord
100
AcDbLayerTableRecord
  2
画層46
 70
    0
 62
7
  6
CONTINUOUS
  0
LAYER
  5
74
100
AcDbSymbolTableRecord
100
AcDbLayerTableRecord
  2
画層47
 70
    0
 62
7
  6
CONTINUOUS
  0
LAYER
  5
75
100
AcDbSymbolTableRecord
100
AcDbLayerTableRecord
  2
画層48
 70
    0
 62
7
  6
CONTINUOUS
  0
LAYER
  5
76
100
AcDbSymbolTableRecord
100
AcDbLayerTableRecord
  2
画層49
 70
    0
 62
7
  6
CONTINUOUS
  0
LAYER
  5
77
100
AcDbSymbolTableRecord
100
AcDbLayerTableRecord
  2
画層50
 70
    0
 62
7
  6
CONTINUOUS
  0
LAYER
  5
78
100
AcDbSymbolTableRecord
100
AcDbLayerTableRecord
  2
画層51
 70
    0
 62
7
  6
CONTINUOUS
  0
LAYER
  5
79
100
AcDbSymbolTableRecord
100
AcDbLayerTableRecord
  2
画層52
 70
    0
 62
7
  6
CONTINUOUS
  0
LAYER
  5
7A
100
AcDbSymbolTableRecord
100
AcDbLayerTableRecord
  2
画層53
 70
    0
 62
7
  6
CONTINUOUS
  0
LAYER
  5
7B
100
AcDbSymbolTableRecord
100
AcDbLayerTableRecord
  2
画層54
 70
    0
 62
7
  6
CONTINUOUS
  0
LAYER
  5
7C
100
AcDbSymbolTableRecord
100
AcDbLayerTableRecord
  2
画層55
 70
    0
 62
7
  6
CONTINUOUS
  0
LAYER
  5
7D
100
AcDbSymbolTableRecord
100
AcDbLayerTableRecord
  2
画層56
 70
    0
 62
7
  6
CONTINUOUS
  0
LAYER
  5
7E
100
AcDbSymbolTableRecord
100
AcDbLayerTableRecord
  2
画層57
 70
    0
 62
7
  6
CONTINUOUS
  0
LAYER
  5
7F
100
AcDbSymbolTableRecord
100
AcDbLayerTableRecord
  2
画層58
 70
    0
 62
7
  6
CONTINUOUS
  0
LAYER
  5
80
100
AcDbSymbolTableRecord
100
AcDbLayerTableRecord
  2
画層59
 70
    0
 62
7
  6
CONTINUOUS
  0
LAYER
  5
81
100
AcDbSymbolTableRecord
100
AcDbLayerTableRecord
  2
画層60
 70
    0
 62
7
  6
CONTINUOUS
  0
LAYER
  5
82
100
AcDbSymbolTableRecord
100
AcDbLayerTableRecord
  2
画層61
 70
    0
 62
7
  6
CONTINUOUS
  0
LAYER
  5
83
100
AcDbSymbolTableRecord
100
AcDbLayerTableRecord
  2
画層62
 70
    0
 62
7
  6
CONTINUOUS
  0
LAYER
  5
84
100
AcDbSymbolTableRecord
100
AcDbLayerTableRecord
  2
画層63
 70
    0
 62
7
  6
CONTINUOUS
  0
LAYER
  5
85
100
AcDbSymbolTableRecord
100
AcDbLayerTableRecord
  2
画層64
 70
    0
 62
7
  6
CONTINUOUS
  0
LAYER
  5
86
100
AcDbSymbolTableRecord
100
AcDbLayerTableRecord
  2
画層65
 70
    0
 62
7
  6
CONTINUOUS
  0
LAYER
  5
87
100
AcDbSymbolTableRecord
100
AcDbLayerTableRecord
  2
画層66
 70
    0
 62
7
  6
CONTINUOUS
  0
LAYER
  5
88
100
AcDbSymbolTableRecord
100
AcDbLayerTableRecord
  2
画層67
 70
    0
 62
7
  6
CONTINUOUS
  0
LAYER
  5
89
100
AcDbSymbolTableRecord
100
AcDbLayerTableRecord
  2
画層68
 70
    0
 62
7
  6
CONTINUOUS
  0
LAYER
  5
8A
100
AcDbSymbolTableRecord
100
AcDbLayerTableRecord
  2
画層69
 70
    0
 62
7
  6
CONTINUOUS
  0
LAYER
  5
8B
100
AcDbSymbolTableRecord
100
AcDbLayerTableRecord
  2
画層70
 70
    0
 62
7
  6
CONTINUOUS
  0
LAYER
  5
8C
100
AcDbSymbolTableRecord
100
AcDbLayerTableRecord
  2
画層71
 70
    0
 62
7
  6
CONTINUOUS
  0
LAYER
  5
8D
100
AcDbSymbolTableRecord
100
AcDbLayerTableRecord
  2
画層72
 70
    0
 62
7
  6
CONTINUOUS
  0
LAYER
  5
8E
100
AcDbSymbolTableRecord
100
AcDbLayerTableRecord
  2
画層73
 70
    0
 62
7
  6
CONTINUOUS
  0
LAYER
  5
8F
100
AcDbSymbolTableRecord
100
AcDbLayerTableRecord
  2
画層74
 70
    0
 62
7
  6
CONTINUOUS
  0
LAYER
  5
90
100
AcDbSymbolTableRecord
100
AcDbLayerTableRecord
  2
画層75
 70
    0
 62
7
  6
CONTINUOUS
  0
LAYER
  5
91
100
AcDbSymbolTableRecord
100
AcDbLayerTableRecord
  2
画層76
 70
    0
 62
7
  6
CONTINUOUS
  0
LAYER
  5
92
100
AcDbSymbolTableRecord
100
AcDbLayerTableRecord
  2
画層77
 70
    0
 62
7
  6
CONTINUOUS
  0
LAYER
  5
93
100
AcDbSymbolTableRecord
100
AcDbLayerTableRecord
  2
画層78
 70
    0
 62
7
  6
CONTINUOUS
  0
LAYER
  5
94
100
AcDbSymbolTableRecord
100
AcDbLayerTableRecord
  2
画層79
 70
    0
 62
7
  6
CONTINUOUS
  0
LAYER
  5
95
100
AcDbSymbolTableRecord
100
AcDbLayerTableRecord
  2
画層80
 70
    0
 62
7
  6
CONTINUOUS
  0
LAYER
  5
96
100
AcDbSymbolTableRecord
100
AcDbLayerTableRecord
  2
画層81
 70
    0
 62
7
  6
CONTINUOUS
  0
LAYER
  5
97
100
AcDbSymbolTableRecord
100
AcDbLayerTableRecord
  2
画層82
 70
    0
 62
7
  6
CONTINUOUS
  0
LAYER
  5
98
100
AcDbSymbolTableRecord
100
AcDbLayerTableRecord
  2
画層83
 70
    0
 62
7
  6
CONTINUOUS
  0
LAYER
  5
99
100
AcDbSymbolTableRecord
100
AcDbLayerTableRecord
  2
画層84
 70
    0
 62
7
  6
CONTINUOUS
  0
LAYER
  5
9A
100
AcDbSymbolTableRecord
100
AcDbLayerTableRecord
  2
画層85
 70
    0
 62
7
  6
CONTINUOUS
  0
LAYER
  5
9B
100
AcDbSymbolTableRecord
100
AcDbLayerTableRecord
  2
画層86
 70
    0
 62
7
  6
CONTINUOUS
  0
LAYER
  5
9C
100
AcDbSymbolTableRecord
100
AcDbLayerTableRecord
  2
画層87
 70
    0
 62
7
  6
CONTINUOUS
  0
LAYER
  5
9D
100
AcDbSymbolTableRecord
100
AcDbLayerTableRecord
  2
画層88
 70
    0
 62
7
  6
CONTINUOUS
  0
LAYER
  5
9E
100
AcDbSymbolTableRecord
100
AcDbLayerTableRecord
  2
画層89
 70
    0
 62
7
  6
CONTINUOUS
  0
LAYER
  5
9F
100
AcDbSymbolTableRecord
100
AcDbLayerTableRecord
  2
画層90
 70
    0
 62
7
  6
CONTINUOUS
  0
LAYER
  5
A0
100
AcDbSymbolTableRecord
100
AcDbLayerTableRecord
  2
画層91
 70
    0
 62
7
  6
CONTINUOUS
  0
LAYER
  5
A1
100
AcDbSymbolTableRecord
100
AcDbLayerTableRecord
  2
画層92
 70
    0
 62
7
  6
CONTINUOUS
  0
LAYER
  5
A2
100
AcDbSymbolTableRecord
100
AcDbLayerTableRecord
  2
画層93
 70
    0
 62
7
  6
CONTINUOUS
  0
LAYER
  5
A3
100
AcDbSymbolTableRecord
100
AcDbLayerTableRecord
  2
画層94
 70
    0
 62
7
  6
CONTINUOUS
  0
LAYER
  5
A4
100
AcDbSymbolTableRecord
100
AcDbLayerTableRecord
  2
画層95
 70
    0
 62
7
  6
CONTINUOUS
  0
LAYER
  5
A5
100
AcDbSymbolTableRecord
100
AcDbLayerTableRecord
  2
画層96
 70
    0
 62
7
  6
CONTINUOUS
  0
LAYER
  5
A6
100
AcDbSymbolTableRecord
100
AcDbLayerTableRecord
  2
画層97
 70
    0
 62
7
  6
CONTINUOUS
  0
LAYER
  5
A7
100
AcDbSymbolTableRecord
100
AcDbLayerTableRecord
  2
画層98
 70
    0
 62
7
  6
CONTINUOUS
  0
LAYER
  5
A8
100
AcDbSymbolTableRecord
100
AcDbLayerTableRecord
  2
画層99
 70
    0
 62
7
  6
CONTINUOUS
  0
LAYER
  5
A9
100
AcDbSymbolTableRecord
100
AcDbLayerTableRecord
  2
画層100
 70
    0
 62
7
  6
CONTINUOUS
  0
LAYER
  5
AA
100
AcDbSymbolTableRecord
100
AcDbLayerTableRecord
  2
画層101
 70
    0
 62
7
  6
CONTINUOUS
  0
LAYER
  5
AB
100
AcDbSymbolTableRecord
100
AcDbLayerTableRecord
  2
画層102
 70
    0
 62
7
  6
CONTINUOUS
  0
LAYER
  5
AC
100
AcDbSymbolTableRecord
100
AcDbLayerTableRecord
  2
画層103
 70
    0
 62
7
  6
CONTINUOUS
  0
LAYER
  5
AD
100
AcDbSymbolTableRecord
100
AcDbLayerTableRecord
  2
画層104
 70
    0
 62
7
  6
CONTINUOUS
  0
LAYER
  5
AE
100
AcDbSymbolTableRecord
100
AcDbLayerTableRecord
  2
画層105
 70
    0
 62
7
  6
CONTINUOUS
  0
LAYER
  5
AF
100
AcDbSymbolTableRecord
100
AcDbLayerTableRecord
  2
画層106
 70
    0
 62
7
  6
CONTINUOUS
  0
LAYER
  5
B0
100
AcDbSymbolTableRecord
100
AcDbLayerTableRecord
  2
画層107
 70
    0
 62
7
  6
CONTINUOUS
  0
LAYER
  5
B1
100
AcDbSymbolTableRecord
100
AcDbLayerTableRecord
  2
画層108
 70
    0
 62
7
  6
CONTINUOUS
  0
LAYER
  5
B2
100
AcDbSymbolTableRecord
100
AcDbLayerTableRecord
  2
画層109
 70
    0
 62
7
  6
CONTINUOUS
  0
LAYER
  5
B3
100
AcDbSymbolTableRecord
100
AcDbLayerTableRecord
  2
画層110
 70
    0
 62
7
  6
CONTINUOUS
  0
LAYER
  5
B4
100
AcDbSymbolTableRecord
100
AcDbLayerTableRecord
  2
画層111
 70
    0
 62
7
  6
CONTINUOUS
  0
LAYER
  5
B5
100
AcDbSymbolTableRecord
100
AcDbLayerTableRecord
  2
画層112
 70
    0
 62
7
  6
CONTINUOUS
  0
LAYER
  5
B6
100
AcDbSymbolTableRecord
100
AcDbLayerTableRecord
  2
画層113
 70
    0
 62
7
  6
CONTINUOUS
  0
LAYER
  5
B7
100
AcDbSymbolTableRecord
100
AcDbLayerTableRecord
  2
画層114
 70
    0
 62
7
  6
CONTINUOUS
  0
LAYER
  5
B8
100
AcDbSymbolTableRecord
100
AcDbLayerTableRecord
  2
画層115
 70
    0
 62
7
  6
CONTINUOUS
  0
LAYER
  5
B9
100
AcDbSymbolTableRecord
100
AcDbLayerTableRecord
  2
画層116
 70
    0
 62
7
  6
CONTINUOUS
  0
LAYER
  5
BA
100
AcDbSymbolTableRecord
100
AcDbLayerTableRecord
  2
画層117
 70
    0
 62
7
  6
CONTINUOUS
  0
LAYER
  5
BB
100
AcDbSymbolTableRecord
100
AcDbLayerTableRecord
  2
画層118
 70
    0
 62
7
  6
CONTINUOUS
  0
LAYER
  5
BC
100
AcDbSymbolTableRecord
100
AcDbLayerTableRecord
  2
画層119
 70
    0
 62
7
  6
CONTINUOUS
  0
LAYER
  5
BD
100
AcDbSymbolTableRecord
100
AcDbLayerTableRecord
  2
画層120
 70
    0
 62
7
  6
CONTINUOUS
  0
LAYER
  5
BE
100
AcDbSymbolTableRecord
100
AcDbLayerTableRecord
  2
画層121
 70
    0
 62
7
  6
CONTINUOUS
  0
LAYER
  5
BF
100
AcDbSymbolTableRecord
100
AcDbLayerTableRecord
  2
画層122
 70
    0
 62
7
  6
CONTINUOUS
  0
LAYER
  5
C0
100
AcDbSymbolTableRecord
100
AcDbLayerTableRecord
  2
画層123
 70
    0
 62
7
  6
CONTINUOUS
  0
LAYER
  5
C1
100
AcDbSymbolTableRecord
100
AcDbLayerTableRecord
  2
画層124
 70
    0
 62
7
  6
CONTINUOUS
  0
LAYER
  5
C2
100
AcDbSymbolTableRecord
100
AcDbLayerTableRecord
  2
画層125
 70
    0
 62
7
  6
CONTINUOUS
  0
LAYER
  5
C3
100
AcDbSymbolTableRecord
100
AcDbLayerTableRecord
  2
画層126
 70
    0
 62
7
  6
CONTINUOUS
  0
LAYER
  5
C4
100
AcDbSymbolTableRecord
100
AcDbLayerTableRecord
  2
画層127
 70
    0
 62
7
  6
CONTINUOUS
  0
LAYER
  5
C5
100
AcDbSymbolTableRecord
100
AcDbLayerTableRecord
  2
画層128
 70
    0
 62
7
  6
CONTINUOUS
  0
LAYER
  5
C6
100
AcDbSymbolTableRecord
100
AcDbLayerTableRecord
  2
画層129
 70
    0
 62
7
  6
CONTINUOUS
  0
LAYER
  5
C7
100
AcDbSymbolTableRecord
100
AcDbLayerTableRecord
  2
画層130
 70
    0
 62
7
  6
CONTINUOUS
  0
LAYER
  5
C8
100
AcDbSymbolTableRecord
100
AcDbLayerTableRecord
  2
画層131
 70
    0
 62
7
  6
CONTINUOUS
  0
LAYER
  5
C9
100
AcDbSymbolTableRecord
100
AcDbLayerTableRecord
  2
画層132
 70
    0
 62
7
  6
CONTINUOUS
  0
LAYER
  5
CA
100
AcDbSymbolTableRecord
100
AcDbLayerTableRecord
  2
画層133
 70
    0
 62
7
  6
CONTINUOUS
  0
LAYER
  5
CB
100
AcDbSymbolTableRecord
100
AcDbLayerTableRecord
  2
画層134
 70
    0
 62
7
  6
CONTINUOUS
  0
LAYER
  5
CC
100
AcDbSymbolTableRecord
100
AcDbLayerTableRecord
  2
画層135
 70
    0
 62
7
  6
CONTINUOUS
  0
LAYER
  5
CD
100
AcDbSymbolTableRecord
100
AcDbLayerTableRecord
  2
画層136
 70
    0
 62
7
  6
CONTINUOUS
  0
LAYER
  5
CE
100
AcDbSymbolTableRecord
100
AcDbLayerTableRecord
  2
画層137
 70
    0
 62
7
  6
CONTINUOUS
  0
LAYER
  5
CF
100
AcDbSymbolTableRecord
100
AcDbLayerTableRecord
  2
画層138
 70
    0
 62
7
  6
CONTINUOUS
  0
LAYER
  5
D0
100
AcDbSymbolTableRecord
100
AcDbLayerTableRecord
  2
画層139
 70
    0
 62
7
  6
CONTINUOUS
  0
LAYER
  5
D1
100
AcDbSymbolTableRecord
100
AcDbLayerTableRecord
  2
画層140
 70
    0
 62
7
  6
CONTINUOUS
  0
LAYER
  5
D2
100
AcDbSymbolTableRecord
100
AcDbLayerTableRecord
  2
画層141
 70
    0
 62
7
  6
CONTINUOUS
  0
LAYER
  5
D3
100
AcDbSymbolTableRecord
100
AcDbLayerTableRecord
  2
画層142
 70
    0
 62
7
  6
CONTINUOUS
  0
LAYER
  5
D4
100
AcDbSymbolTableRecord
100
AcDbLayerTableRecord
  2
画層143
 70
    0
 62
7
  6
CONTINUOUS
  0
LAYER
  5
D5
100
AcDbSymbolTableRecord
100
AcDbLayerTableRecord
  2
画層144
 70
    0
 62
7
  6
CONTINUOUS
  0
LAYER
  5
D6
100
AcDbSymbolTableRecord
100
AcDbLayerTableRecord
  2
画層145
 70
    0
 62
7
  6
CONTINUOUS
  0
LAYER
  5
D7
100
AcDbSymbolTableRecord
100
AcDbLayerTableRecord
  2
画層146
 70
    0
 62
7
  6
CONTINUOUS
  0
LAYER
  5
D8
100
AcDbSymbolTableRecord
100
AcDbLayerTableRecord
  2
画層147
 70
    0
 62
7
  6
CONTINUOUS
  0
LAYER
  5
D9
100
AcDbSymbolTableRecord
100
AcDbLayerTableRecord
  2
画層148
 70
    0
 62
7
  6
CONTINUOUS
  0
LAYER
  5
DA
100
AcDbSymbolTableRecord
100
AcDbLayerTableRecord
  2
画層149
 70
    0
 62
7
  6
CONTINUOUS
  0
LAYER
  5
DB
100
AcDbSymbolTableRecord
100
AcDbLayerTableRecord
  2
画層150
 70
    0
 62
7
  6
CONTINUOUS
  0
LAYER
  5
DC
100
AcDbSymbolTableRecord
100
AcDbLayerTableRecord
  2
画層151
 70
    0
 62
7
  6
CONTINUOUS
  0
LAYER
  5
DD
100
AcDbSymbolTableRecord
100
AcDbLayerTableRecord
  2
画層152
 70
    0
 62
7
  6
CONTINUOUS
  0
LAYER
  5
DE
100
AcDbSymbolTableRecord
100
AcDbLayerTableRecord
  2
画層153
 70
    0
 62
7
  6
CONTINUOUS
  0
LAYER
  5
DF
100
AcDbSymbolTableRecord
100
AcDbLayerTableRecord
  2
画層154
 70
    0
 62
7
  6
CONTINUOUS
  0
LAYER
  5
E0
100
AcDbSymbolTableRecord
100
AcDbLayerTableRecord
  2
画層155
 70
    0
 62
7
  6
CONTINUOUS
  0
LAYER
  5
E1
100
AcDbSymbolTableRecord
100
AcDbLayerTableRecord
  2
画層156
 70
    0
 62
7
  6
CONTINUOUS
  0
LAYER
  5
E2
100
AcDbSymbolTableRecord
100
AcDbLayerTableRecord
  2
画層157
 70
    0
 62
7
  6
CONTINUOUS
  0
LAYER
  5
E3
100
AcDbSymbolTableRecord
100
AcDbLayerTableRecord
  2
画層158
 70
    0
 62
7
  6
CONTINUOUS
  0
LAYER
  5
E4
100
AcDbSymbolTableRecord
100
AcDbLayerTableRecord
  2
画層159
 70
    0
 62
7
  6
CONTINUOUS
  0
LAYER
  5
E5
100
AcDbSymbolTableRecord
100
AcDbLayerTableRecord
  2
画層160
 70
    0
 62
7
  6
CONTINUOUS
  0
LAYER
  5
E6
100
AcDbSymbolTableRecord
100
AcDbLayerTableRecord
  2
画層161
 70
    0
 62
7
  6
CONTINUOUS
  0
LAYER
  5
E7
100
AcDbSymbolTableRecord
100
AcDbLayerTableRecord
  2
画層162
 70
    0
 62
7
  6
CONTINUOUS
  0
LAYER
  5
E8
100
AcDbSymbolTableRecord
100
AcDbLayerTableRecord
  2
画層163
 70
    0
 62
7
  6
CONTINUOUS
  0
LAYER
  5
E9
100
AcDbSymbolTableRecord
100
AcDbLayerTableRecord
  2
画層164
 70
    0
 62
7
  6
CONTINUOUS
  0
LAYER
  5
EA
100
AcDbSymbolTableRecord
100
AcDbLayerTableRecord
  2
画層165
 70
    0
 62
7
  6
CONTINUOUS
  0
LAYER
  5
EB
100
AcDbSymbolTableRecord
100
AcDbLayerTableRecord
  2
画層166
 70
    0
 62
7
  6
CONTINUOUS
  0
LAYER
  5
EC
100
AcDbSymbolTableRecord
100
AcDbLayerTableRecord
  2
画層167
 70
    0
 62
7
  6
CONTINUOUS
  0
LAYER
  5
ED
100
AcDbSymbolTableRecord
100
AcDbLayerTableRecord
  2
画層168
 70
    0
 62
7
  6
CONTINUOUS
  0
LAYER
  5
EE
100
AcDbSymbolTableRecord
100
AcDbLayerTableRecord
  2
画層169
 70
    0
 62
7
  6
CONTINUOUS
  0
LAYER
  5
EF
100
AcDbSymbolTableRecord
100
AcDbLayerTableRecord
  2
画層170
 70
    0
 62
7
  6
CONTINUOUS
  0
LAYER
  5
F0
100
AcDbSymbolTableRecord
100
AcDbLayerTableRecord
  2
画層171
 70
    0
 62
7
  6
CONTINUOUS
  0
LAYER
  5
F1
100
AcDbSymbolTableRecord
100
AcDbLayerTableRecord
  2
画層172
 70
    0
 62
7
  6
CONTINUOUS
  0
LAYER
  5
F2
100
AcDbSymbolTableRecord
100
AcDbLayerTableRecord
  2
画層173
 70
    0
 62
7
  6
CONTINUOUS
  0
LAYER
  5
F3
100
AcDbSymbolTableRecord
100
AcDbLayerTableRecord
  2
画層174
 70
    0
 62
7
  6
CONTINUOUS
  0
LAYER
  5
F4
100
AcDbSymbolTableRecord
100
AcDbLayerTableRecord
  2
画層175
 70
    0
 62
7
  6
CONTINUOUS
  0
LAYER
  5
F5
100
AcDbSymbolTableRecord
100
AcDbLayerTableRecord
  2
画層176
 70
    0
 62
7
  6
CONTINUOUS
  0
LAYER
  5
F6
100
AcDbSymbolTableRecord
100
AcDbLayerTableRecord
  2
画層177
 70
    0
 62
7
  6
CONTINUOUS
  0
LAYER
  5
F7
100
AcDbSymbolTableRecord
100
AcDbLayerTableRecord
  2
画層178
 70
    0
 62
7
  6
CONTINUOUS
  0
LAYER
  5
F8
100
AcDbSymbolTableRecord
100
AcDbLayerTableRecord
  2
画層179
 70
    0
 62
7
  6
CONTINUOUS
  0
LAYER
  5
F9
100
AcDbSymbolTableRecord
100
AcDbLayerTableRecord
  2
画層180
 70
    0
 62
7
  6
CONTINUOUS
  0
LAYER
  5
FA
100
AcDbSymbolTableRecord
100
AcDbLayerTableRecord
  2
画層181
 70
    0
 62
7
  6
CONTINUOUS
  0
LAYER
  5
FB
100
AcDbSymbolTableRecord
100
AcDbLayerTableRecord
  2
画層182
 70
    0
 62
7
  6
CONTINUOUS
  0
LAYER
  5
FC
100
AcDbSymbolTableRecord
100
AcDbLayerTableRecord
  2
画層183
 70
    0
 62
7
  6
CONTINUOUS
  0
LAYER
  5
FD
100
AcDbSymbolTableRecord
100
AcDbLayerTableRecord
  2
画層184
 70
    0
 62
7
  6
CONTINUOUS
  0
LAYER
  5
FE
100
AcDbSymbolTableRecord
100
AcDbLayerTableRecord
  2
画層185
 70
    0
 62
7
  6
CONTINUOUS
  0
LAYER
  5
FF
100
AcDbSymbolTableRecord
100
AcDbLayerTableRecord
  2
画層186
 70
    0
 62
7
  6
CONTINUOUS
  0
LAYER
  5
100
100
AcDbSymbolTableRecord
100
AcDbLayerTableRecord
  2
画層187
 70
    0
 62
7
  6
CONTINUOUS
  0
LAYER
  5
101
100
AcDbSymbolTableRecord
100
AcDbLayerTableRecord
  2
画層188
 70
    0
 62
7
  6
CONTINUOUS
  0
LAYER
  5
102
100
AcDbSymbolTableRecord
100
AcDbLayerTableRecord
  2
画層189
 70
    0
 62
7
  6
CONTINUOUS
  0
LAYER
  5
103
100
AcDbSymbolTableRecord
100
AcDbLayerTableRecord
  2
画層190
 70
    0
 62
7
  6
CONTINUOUS
  0
LAYER
  5
104
100
AcDbSymbolTableRecord
100
AcDbLayerTableRecord
  2
画層191
 70
    0
 62
7
  6
CONTINUOUS
  0
LAYER
  5
105
100
AcDbSymbolTableRecord
100
AcDbLayerTableRecord
  2
画層192
 70
    0
 62
7
  6
CONTINUOUS
  0
LAYER
  5
106
100
AcDbSymbolTableRecord
100
AcDbLayerTableRecord
  2
画層193
 70
    0
 62
7
  6
CONTINUOUS
  0
LAYER
  5
107
100
AcDbSymbolTableRecord
100
AcDbLayerTableRecord
  2
画層194
 70
    0
 62
7
  6
CONTINUOUS
  0
LAYER
  5
108
100
AcDbSymbolTableRecord
100
AcDbLayerTableRecord
  2
画層195
 70
    0
 62
7
  6
CONTINUOUS
  0
LAYER
  5
109
100
AcDbSymbolTableRecord
100
AcDbLayerTableRecord
  2
画層196
 70
    0
 62
7
  6
CONTINUOUS
  0
LAYER
  5
10A
100
AcDbSymbolTableRecord
100
AcDbLayerTableRecord
  2
画層197
 70
    0
 62
7
  6
CONTINUOUS
  0
LAYER
  5
10B
100
AcDbSymbolTableRecord
100
AcDbLayerTableRecord
  2
画層198
 70
    0
 62
7
  6
CONTINUOUS
  0
LAYER
  5
10C
100
AcDbSymbolTableRecord
100
AcDbLayerTableRecord
  2
画層199
 70
    0
 62
7
  6
CONTINUOUS
  0
LAYER
  5
10D
100
AcDbSymbolTableRecord
100
AcDbLayerTableRecord
  2
画層200
 70
    0
 62
7
  6
CONTINUOUS
  0
LAYER
  5
10E
100
AcDbSymbolTableRecord
100
AcDbLayerTableRecord
  2
画層201
 70
    0
 62
7
  6
CONTINUOUS
  0
LAYER
  5
10F
100
AcDbSymbolTableRecord
100
AcDbLayerTableRecord
  2
画層202
 70
    0
 62
7
  6
CONTINUOUS
  0
LAYER
  5
110
100
AcDbSymbolTableRecord
100
AcDbLayerTableRecord
  2
画層203
 70
    0
 62
7
  6
CONTINUOUS
  0
LAYER
  5
111
100
AcDbSymbolTableRecord
100
AcDbLayerTableRecord
  2
画層204
 70
    0
 62
7
  6
CONTINUOUS
  0
LAYER
  5
112
100
AcDbSymbolTableRecord
100
AcDbLayerTableRecord
  2
画層205
 70
    0
 62
7
  6
CONTINUOUS
  0
LAYER
  5
113
100
AcDbSymbolTableRecord
100
AcDbLayerTableRecord
  2
画層206
 70
    0
 62
7
  6
CONTINUOUS
  0
LAYER
  5
114
100
AcDbSymbolTableRecord
100
AcDbLayerTableRecord
  2
画層207
 70
    0
 62
7
  6
CONTINUOUS
  0
LAYER
  5
115
100
AcDbSymbolTableRecord
100
AcDbLayerTableRecord
  2
画層208
 70
    0
 62
7
  6
CONTINUOUS
  0
LAYER
  5
116
100
AcDbSymbolTableRecord
100
AcDbLayerTableRecord
  2
画層209
 70
    0
 62
7
  6
CONTINUOUS
  0
LAYER
  5
117
100
AcDbSymbolTableRecord
100
AcDbLayerTableRecord
  2
画層210
 70
    0
 62
7
  6
CONTINUOUS
  0
LAYER
  5
118
100
AcDbSymbolTableRecord
100
AcDbLayerTableRecord
  2
画層211
 70
    0
 62
7
  6
CONTINUOUS
  0
LAYER
  5
119
100
AcDbSymbolTableRecord
100
AcDbLayerTableRecord
  2
画層212
 70
    0
 62
7
  6
CONTINUOUS
  0
LAYER
  5
11A
100
AcDbSymbolTableRecord
100
AcDbLayerTableRecord
  2
画層213
 70
    0
 62
7
  6
CONTINUOUS
  0
LAYER
  5
11B
100
AcDbSymbolTableRecord
100
AcDbLayerTableRecord
  2
画層214
 70
    0
 62
7
  6
CONTINUOUS
  0
LAYER
  5
11C
100
AcDbSymbolTableRecord
100
AcDbLayerTableRecord
  2
画層215
 70
    0
 62
7
  6
CONTINUOUS
  0
LAYER
  5
11D
100
AcDbSymbolTableRecord
100
AcDbLayerTableRecord
  2
画層216
 70
    0
 62
7
  6
CONTINUOUS
  0
LAYER
  5
11E
100
AcDbSymbolTableRecord
100
AcDbLayerTableRecord
  2
画層217
 70
    0
 62
7
  6
CONTINUOUS
  0
LAYER
  5
11F
100
AcDbSymbolTableRecord
100
AcDbLayerTableRecord
  2
画層218
 70
    0
 62
7
  6
CONTINUOUS
  0
LAYER
  5
120
100
AcDbSymbolTableRecord
100
AcDbLayerTableRecord
  2
画層219
 70
    0
 62
7
  6
CONTINUOUS
  0
LAYER
  5
121
100
AcDbSymbolTableRecord
100
AcDbLayerTableRecord
  2
画層220
 70
    0
 62
7
  6
CONTINUOUS
  0
LAYER
  5
122
100
AcDbSymbolTableRecord
100
AcDbLayerTableRecord
  2
画層221
 70
    0
 62
7
  6
CONTINUOUS
  0
LAYER
  5
123
100
AcDbSymbolTableRecord
100
AcDbLayerTableRecord
  2
画層222
 70
    0
 62
7
  6
CONTINUOUS
  0
LAYER
  5
124
100
AcDbSymbolTableRecord
100
AcDbLayerTableRecord
  2
画層223
 70
    0
 62
7
  6
CONTINUOUS
  0
LAYER
  5
125
100
AcDbSymbolTableRecord
100
AcDbLayerTableRecord
  2
画層224
 70
    0
 62
7
  6
CONTINUOUS
  0
LAYER
  5
126
100
AcDbSymbolTableRecord
100
AcDbLayerTableRecord
  2
画層225
 70
    0
 62
7
  6
CONTINUOUS
  0
LAYER
  5
127
100
AcDbSymbolTableRecord
100
AcDbLayerTableRecord
  2
画層226
 70
    0
 62
7
  6
CONTINUOUS
  0
LAYER
  5
128
100
AcDbSymbolTableRecord
100
AcDbLayerTableRecord
  2
画層227
 70
    0
 62
7
  6
CONTINUOUS
  0
LAYER
  5
129
100
AcDbSymbolTableRecord
100
AcDbLayerTableRecord
  2
画層228
 70
    0
 62
7
  6
CONTINUOUS
  0
LAYER
  5
12A
100
AcDbSymbolTableRecord
100
AcDbLayerTableRecord
  2
画層229
 70
    0
 62
7
  6
CONTINUOUS
  0
LAYER
  5
12B
100
AcDbSymbolTableRecord
100
AcDbLayerTableRecord
  2
画層230
 70
    0
 62
7
  6
CONTINUOUS
  0
LAYER
  5
12C
100
AcDbSymbolTableRecord
100
AcDbLayerTableRecord
  2
画層231
 70
    0
 62
7
  6
CONTINUOUS
  0
LAYER
  5
12D
100
AcDbSymbolTableRecord
100
AcDbLayerTableRecord
  2
画層232
 70
    0
 62
7
  6
CONTINUOUS
  0
LAYER
  5
12E
100
AcDbSymbolTableRecord
100
AcDbLayerTableRecord
  2
画層233
 70
    0
 62
7
  6
CONTINUOUS
  0
LAYER
  5
12F
100
AcDbSymbolTableRecord
100
AcDbLayerTableRecord
  2
画層234
 70
    0
 62
7
  6
CONTINUOUS
  0
LAYER
  5
130
100
AcDbSymbolTableRecord
100
AcDbLayerTableRecord
  2
画層235
 70
    0
 62
7
  6
CONTINUOUS
  0
LAYER
  5
131
100
AcDbSymbolTableRecord
100
AcDbLayerTableRecord
  2
画層236
 70
    0
 62
7
  6
CONTINUOUS
  0
LAYER
  5
132
100
AcDbSymbolTableRecord
100
AcDbLayerTableRecord
  2
画層237
 70
    0
 62
7
  6
CONTINUOUS
  0
LAYER
  5
133
100
AcDbSymbolTableRecord
100
AcDbLayerTableRecord
  2
画層238
 70
    0
 62
7
  6
CONTINUOUS
  0
LAYER
  5
134
100
AcDbSymbolTableRecord
100
AcDbLayerTableRecord
  2
画層239
 70
    0
 62
7
  6
CONTINUOUS
  0
LAYER
  5
135
100
AcDbSymbolTableRecord
100
AcDbLayerTableRecord
  2
画層240
 70
    0
 62
7
  6
CONTINUOUS
  0
LAYER
  5
136
100
AcDbSymbolTableRecord
100
AcDbLayerTableRecord
  2
画層241
 70
    0
 62
7
  6
CONTINUOUS
  0
LAYER
  5
137
100
AcDbSymbolTableRecord
100
AcDbLayerTableRecord
  2
画層242
 70
    0
 62
7
  6
CONTINUOUS
  0
LAYER
  5
138
100
AcDbSymbolTableRecord
100
AcDbLayerTableRecord
  2
画層243
 70
    0
 62
7
  6
CONTINUOUS
  0
LAYER
  5
139
100
AcDbSymbolTableRecord
100
AcDbLayerTableRecord
  2
画層244
 70
    0
 62
7
  6
CONTINUOUS
  0
LAYER
  5
13A
100
AcDbSymbolTableRecord
100
AcDbLayerTableRecord
  2
画層245
 70
    0
 62
7
  6
CONTINUOUS
  0
LAYER
  5
13B
100
AcDbSymbolTableRecord
100
AcDbLayerTableRecord
  2
画層246
 70
    0
 62
7
  6
CONTINUOUS
  0
LAYER
  5
13C
100
AcDbSymbolTableRecord
100
AcDbLayerTableRecord
  2
画層247
 70
    0
 62
7
  6
CONTINUOUS
  0
LAYER
  5
13D
100
AcDbSymbolTableRecord
100
AcDbLayerTableRecord
  2
画層248
 70
    0
 62
7
  6
CONTINUOUS
  0
LAYER
  5
13E
100
AcDbSymbolTableRecord
100
AcDbLayerTableRecord
  2
画層249
 70
    0
 62
7
  6
CONTINUOUS
  0
LAYER
  5
13F
100
AcDbSymbolTableRecord
100
AcDbLayerTableRecord
  2
画層250
 70
    0
 62
7
  6
CONTINUOUS
  0
LAYER
  5
140
100
AcDbSymbolTableRecord
100
AcDbLayerTableRecord
  2
画層251
 70
    0
 62
7
  6
CONTINUOUS
  0
LAYER
  5
141
100
AcDbSymbolTableRecord
100
AcDbLayerTableRecord
  2
画層252
 70
    0
 62
7
  6
CONTINUOUS
  0
LAYER
  5
142
100
AcDbSymbolTableRecord
100
AcDbLayerTableRecord
  2
画層253
 70
    0
 62
7
  6
CONTINUOUS
  0
LAYER
  5
143
100
AcDbSymbolTableRecord
100
AcDbLayerTableRecord
  2
画層254
 70
    0
 62
7
  6
CONTINUOUS
  0
LAYER
  5
144
100
AcDbSymbolTableRecord
100
AcDbLayerTableRecord
  2
画層255
 70
    0
 62
7
  6
CONTINUOUS
  0
ENDTAB
  0
TABLE
  2
STYLE
  5
4
100
AcDbSymbolTable
 70
     1
  0
STYLE
  5
145
100
AcDbSymbolTableRecord
100
AcDbTextStyleTableRecord
  2
Standard
 70
     0
 40
0.0
 41
1.0
 50
0.0
 71
     0
 42
3.2
  3
TXT
  4
BIGFONT
  0
STYLE
  5
146
100
AcDbSymbolTableRecord
100
AcDbTextStyleTableRecord
  2
Font_0
 70
     0
 40
0.0
 41
1.0
 50
0.0
 71
     0
 42
3.2
  3
MS Gothic.ttf
  4

1001
ACAD
1000
MS Gothic
1071
  32817
  0
STYLE
  5
147
100
AcDbSymbolTableRecord
100
AcDbTextStyleTableRecord
  2
Font_1
 70
     0
 40
0.0
 41
1.0
 50
0.0
 71
     0
 42
3.2
  3
MS Gothic.ttf
  4

1001
ACAD
1000
@MS Gothic
1071
  32817
  0
ENDTAB
  0
TABLE
  2
VIEW
  5
5
100
AcDbSymbolTable
 70
     0
  0
ENDTAB
  0
TABLE
  2
UCS
  5
6
100
AcDbSymbolTable
 70
     0
  0
ENDTAB
  0
TABLE
  2
APPID
  5
7
100
AcDbSymbolTable
 70
     1
  0
APPID
  5
148
100
AcDbSymbolTableRecord
100
AcDbRegAppTableRecord
  2
ACAD
 70
     0
  0
ENDTAB
  0
TABLE
  2
DIMSTYLE
  5
8
100
AcDbSymbolTable
 70
     1
  0
DIMSTYLE
105
2A
100
AcDbSymbolTableRecord
100
AcDbDimStyleTableRecord
  2
STANDARD
 70
     0
  3

  4

  5

  6

  7

 40
1.0
 41
2.5
 42
2.0
 43
7.0
 44
1.25
 45
0.0
 46
0.0
 47
0.0
 48
0.0
 71
     0
 72
     0
 73
     0
 74
     0
 75
     0
 76
     0
 77
     1
 78
     0
140
2.5
141
2.5
142
0.0
143
0.0394
144
1.0
145
0.0
146
1.0
147
1.0
170
     0
171
     2
172
     0
173
     0
174
     1
175
     0
176
     0
177
     0
178
     0
270
     2
271
     2
272
     4
273
     2
274
     2
275
     0
280
     0
281
     0
282
     0
283
     1
284
     0
285
     0
286
     0
287
     3
288
     0
  0
ENDTAB
  0
TABLE
  2
BLOCK_RECORD
  5
9
100
AcDbSymbolTable
 70
     0
  0
BLOCK_RECORD
  5
149
100
AcDbSymbolTableRecord
100
AcDbBlockTableRecord
  2
*MODEL_SPACE
  0
BLOCK_RECORD
  5
14A
100
AcDbSymbolTableRecord
100
AcDbBlockTableRecord
  2
*PAPER_SPACE
  0
BLOCK_RECORD
  5
14B
100
AcDbSymbolTableRecord
100
AcDbBlockTableRecord
  2
LIST
  0
BLOCK_RECORD
  5
14C
100
AcDbSymbolTableRecord
100
AcDbBlockTableRecord
  2
NOTE
  0
BLOCK_RECORD
  5
14D
100
AcDbSymbolTableRecord
100
AcDbBlockTableRecord
  2
BASE
  0
BLOCK_RECORD
  5
14E
100
AcDbSymbolTableRecord
100
AcDbBlockTableRecord
  2
A4ｹﾏｮﾘ
  0
BLOCK_RECORD
  5
14F
100
AcDbSymbolTableRecord
100
AcDbBlockTableRecord
  2
A
  0
BLOCK_RECORD
  5
150
100
AcDbSymbolTableRecord
100
AcDbBlockTableRecord
  2
JAME
  0
BLOCK_RECORD
  5
151
100
AcDbSymbolTableRecord
100
AcDbBlockTableRecord
  2
A$C45403A91
  0
BLOCK_RECORD
  5
152
100
AcDbSymbolTableRecord
100
AcDbBlockTableRecord
  2
A4
  0
BLOCK_RECORD
  5
153
100
AcDbSymbolTableRecord
100
AcDbBlockTableRecord
  2
GENAXEH
  0
BLOCK_RECORD
  5
154
100
AcDbSymbolTableRecord
100
AcDbBlockTableRecord
  2
_F
  0
BLOCK_RECORD
  5
155
100
AcDbSymbolTableRecord
100
AcDbBlockTableRecord
  2
W_-1
  0
BLOCK_RECORD
  5
156
100
AcDbSymbolTableRecord
100
AcDbBlockTableRecord
  2
W_
  0
BLOCK_RECORD
  5
157
100
AcDbSymbolTableRecord
100
AcDbBlockTableRecord
  2
W-_1
  0
BLOCK_RECORD
  5
158
100
AcDbSymbolTableRecord
100
AcDbBlockTableRecord
  2
ASOL
  0
BLOCK_RECORD
  5
159
100
AcDbSymbolTableRecord
100
AcDbBlockTableRecord
  2
A$C20C654D6
  0
ENDTAB
  0
ENDSEC
  0
SECTION
  2
BLOCKS
  0
BLOCK
  5
15B
100
AcDbEntity
  8
0
100
AcDbBlockBegin
2
*MODEL_SPACE
 70
     0
 10
0.0
 20
0.0
 30
0.0
  3
*MODEL_SPACE
  1

  0
ENDBLK
  5
15C
100
AcDbEntity
  8
0
100
AcDbBlockEnd
  0
BLOCK
  5
15D
100
AcDbEntity
 67
     1
  8
0
100
AcDbBlockBegin
  2
*PAPER_SPACE
 70
     0
 10
0.0
 20
0.0
 30
0.0
  3
*PAPER_SPACE
  1

  0
ENDBLK
  5
15E
100
AcDbEntity
 67
     1
  8
0
100
AcDbBlockEnd
  0
BLOCK
  5
15F
100
AcDbEntity
  8
0
100
AcDbBlockBegin
  2
LIST
 70
    0
 10
0
 20
0
 30
0.0
  3
LIST
  1

  0
LINE
  5
160
100
AcDbEntity
  8
TEXT
100
AcDbLine
  6
BYLAYER
 10
-0.30000000000004
 20
48
 11
82.9499999999999
 21
48
  0
LINE
  5
161
100
AcDbEntity
  8
TEXT
100
AcDbLine
  6
BYLAYER
 10
-0.30000000000004
 20
42
 11
82.9499999999999
 21
42
  0
LINE
  5
162
100
AcDbEntity
  8
TEXT
100
AcDbLine
  6
BYLAYER
 10
-0.30000000000004
 20
36
 11
82.9499999999999
 21
36
  0
LINE
  5
163
100
AcDbEntity
  8
TEXT
100
AcDbLine
  6
BYLAYER
 10
-0.30000000000004
 20
30
 11
82.9499999999999
 21
30
  0
LINE
  5
164
100
AcDbEntity
  8
TEXT
100
AcDbLine
  6
BYLAYER
 10
-0.30000000000004
 20
24
 11
82.9499999999999
 21
24
  0
LINE
  5
165
100
AcDbEntity
  8
TEXT
100
AcDbLine
  6
BYLAYER
 10
-0.30000000000004
 20
18
 11
82.9499999999999
 21
18
  0
LINE
  5
166
100
AcDbEntity
  8
TEXT
100
AcDbLine
  6
BYLAYER
 10
-0.30000000000004
 20
12
 11
82.9499999999999
 21
12
  0
LINE
  5
167
100
AcDbEntity
  8
TEXT
100
AcDbLine
  6
BYLAYER
 10
-0.30000000000004
 20
5.99999999999998
 11
82.9499999999999
 21
5.99999999999999
  0
LINE
  5
168
100
AcDbEntity
  8
TEXT
100
AcDbLine
  6
BYLAYER
 10
-0.300000000000011
 20
48
 11
-0.300000000000011
 21
0
  0
TEXT
  5
169
100
AcDbEntity
  8
TEXT
100
AcDbText
  6
BYLAYER
 10
6.19999999999996
 20
0.707106781186546
 40
3.5
  1
ｶｵｦｸ
  7
Font_0
 72
1
 11
9.69999999999996
 21
0.707106781186546
100
AcDbText
  0
LINE
  5
16A
100
AcDbEntity
  8
TEXT
100
AcDbLine
  6
BYLAYER
 10
19.7
 20
48
 11
19.7
 21
0
  0
LINE
  5
16B
100
AcDbEntity
  8
TEXT
100
AcDbLine
  6
BYLAYER
 10
73.5870476872895
 20
48
 11
73.5870476872895
 21
-1.42E-14
  0
TEXT
  5
16C
100
AcDbEntity
  8
TEXT
100
AcDbText
  6
BYLAYER
 10
74.7685238436447
 20
0.707106781186561
 40
3.5
  1
ｼﾆｶq
  7
Font_0
 72
1
 11
78.2685238436447
 21
0.707106781186561
100
AcDbText
  0
TEXT
  5
16D
100
AcDbEntity
  8
TEXT
100
AcDbText
  6
BYLAYER
 10
37.1837220734968
 20
0.707106781186561
 40
3.5
  1
ｹﾏ       ｸｹ
  7
Font_0
 72
1
 11
46.8087220734968
 21
0.707106781186561
100
AcDbText
  0
ENDBLK
  5
16E
100
AcDbEntity
  8
0
 67
     1
100
AcDbBlockEnd
  0
BLOCK
  5
16F
100
AcDbEntity
  8
0
100
AcDbBlockBegin
  2
NOTE
 70
    0
 10
0
 20
0
 30
0.0
  3
NOTE
  1

  0
LINE
  5
170
100
AcDbEntity
  8
0
100
AcDbLine
  6
BYLAYER
 10
0
 20
48
 11
244.5
 21
48
  0
LINE
  5
171
100
AcDbEntity
  8
0
100
AcDbLine
  6
BYLAYER
 10
0
 20
42
 11
244.5
 21
42
  0
LINE
  5
172
100
AcDbEntity
  8
0
100
AcDbLine
  6
BYLAYER
 10
0
 20
36
 11
244.5
 21
36
  0
LINE
  5
173
100
AcDbEntity
  8
0
100
AcDbLine
  6
BYLAYER
 10
0
 20
30
 11
244.5
 21
30
  0
LINE
  5
174
100
AcDbEntity
  8
0
100
AcDbLine
  6
BYLAYER
 10
0
 20
24
 11
244.5
 21
24
  0
LINE
  5
175
100
AcDbEntity
  8
0
100
AcDbLine
  6
BYLAYER
 10
0
 20
18
 11
244.5
 21
18
  0
LINE
  5
176
100
AcDbEntity
  8
0
100
AcDbLine
  6
BYLAYER
 10
0
 20
12
 11
244.5
 21
12
  0
LINE
  5
177
100
AcDbEntity
  8
0
100
AcDbLine
  6
BYLAYER
 10
0
 20
6
 11
244.5
 21
6
  0
LINE
  5
178
100
AcDbEntity
  8
0
100
AcDbLine
  6
BYLAYER
 62
3
 10
196.307106781187
 20
0.707106781186553
 11
211.192893218814
 21
0.707106781186553
  0
LINE
  5
179
100
AcDbEntity
  8
0
100
AcDbLine
  6
BYLAYER
 62
3
 10
196.307106781187
 20
6.70710678118655
 11
211.192893218814
 21
6.70710678118655
  0
LINE
  5
17A
100
AcDbEntity
  8
0
100
AcDbLine
  6
BYLAYER
 62
3
 10
196.307106781187
 20
12.7071067811866
 11
211.192893218814
 21
12.7071067811866
  0
LINE
  5
17B
100
AcDbEntity
  8
0
100
AcDbLine
  6
BYLAYER
 62
3
 10
196.307106781187
 20
18.7071067811866
 11
211.192893218814
 21
18.7071067811866
  0
LINE
  5
17C
100
AcDbEntity
  8
0
100
AcDbLine
  6
BYLAYER
 62
3
 10
196.307106781187
 20
24.7071067811866
 11
211.192893218814
 21
24.7071067811866
  0
LINE
  5
17D
100
AcDbEntity
  8
0
100
AcDbLine
  6
BYLAYER
 62
3
 10
196.307106781187
 20
30.7071067811865
 11
211.192893218814
 21
30.7071067811865
  0
LINE
  5
17E
100
AcDbEntity
  8
0
100
AcDbLine
  6
BYLAYER
 62
3
 10
196.307106781187
 20
36.7071067811866
 11
211.192893218814
 21
36.7071067811866
  0
LINE
  5
17F
100
AcDbEntity
  8
0
100
AcDbLine
  6
BYLAYER
 62
3
 10
65.9071067811866
 20
0.707106781186553
 11
80.7928932188135
 21
0.707106781186553
  0
LINE
  5
180
100
AcDbEntity
  8
0
100
AcDbLine
  6
BYLAYER
 62
3
 10
65.9071067811866
 20
6.70710678118655
 11
80.7928932188135
 21
6.70710678118655
  0
LINE
  5
181
100
AcDbEntity
  8
0
100
AcDbLine
  6
BYLAYER
 62
3
 10
65.9071067811866
 20
12.7071067811866
 11
80.7928932188135
 21
12.7071067811866
  0
LINE
  5
182
100
AcDbEntity
  8
0
100
AcDbLine
  6
BYLAYER
 62
3
 10
65.9071067811866
 20
18.7071067811866
 11
80.7928932188135
 21
18.7071067811866
  0
LINE
  5
183
100
AcDbEntity
  8
0
100
AcDbLine
  6
BYLAYER
 62
3
 10
65.9071067811866
 20
24.7071067811866
 11
80.7928932188135
 21
24.7071067811866
  0
LINE
  5
184
100
AcDbEntity
  8
0
100
AcDbLine
  6
BYLAYER
 62
3
 10
65.9071067811866
 20
30.7071067811865
 11
80.7928932188135
 21
30.7071067811865
  0
LINE
  5
185
100
AcDbEntity
  8
0
100
AcDbLine
  6
BYLAYER
 62
3
 10
65.9071067811866
 20
36.7071067811866
 11
80.7928932188135
 21
36.7071067811866
  0
LINE
  5
186
100
AcDbEntity
  8
0
100
AcDbLine
  6
BYLAYER
 10
65.2
 20
48
 11
65.2
 21
0
  0
LINE
  5
187
100
AcDbEntity
  8
0
100
AcDbLine
  6
BYLAYER
 10
32.6
 20
48
 11
32.6
 21
0
  0
LINE
  5
188
100
AcDbEntity
  8
0
100
AcDbLine
  6
BYLAYER
 10
16.3
 20
48
 11
16.3
 21
0
  0
LINE
  5
189
100
AcDbEntity
  8
0
100
AcDbLine
  6
BYLAYER
 10
48.9
 20
48
 11
48.9
 21
0
  0
LINE
  5
18A
100
AcDbEntity
  8
0
100
AcDbLine
  6
BYLAYER
 62
3
 10
0.707106781186548
 20
0.707106781186553
 11
15.5928932188134
 21
0.707106781186553
  0
LINE
  5
18B
100
AcDbEntity
  8
0
100
AcDbLine
  6
BYLAYER
 62
3
 10
0.707106781186548
 20
6.70710678118655
 11
15.5928932188134
 21
6.70710678118655
  0
LINE
  5
18C
100
AcDbEntity
  8
0
100
AcDbLine
  6
BYLAYER
 62
3
 10
0.707106781186548
 20
12.7071067811866
 11
15.5928932188134
 21
12.7071067811866
  0
LINE
  5
18D
100
AcDbEntity
  8
0
100
AcDbLine
  6
BYLAYER
 62
3
 10
0.707106781186548
 20
18.7071067811866
 11
15.5928932188134
 21
18.7071067811866
  0
LINE
  5
18E
100
AcDbEntity
  8
0
100
AcDbLine
  6
BYLAYER
 62
3
 10
33.3071067811865
 20
0.707106781186553
 11
48.1928932188135
 21
0.707106781186553
  0
LINE
  5
18F
100
AcDbEntity
  8
0
100
AcDbLine
  6
BYLAYER
 62
3
 10
33.3071067811865
 20
6.70710678118655
 11
48.1928932188135
 21
6.70710678118655
  0
LINE
  5
190
100
AcDbEntity
  8
0
100
AcDbLine
  6
BYLAYER
 62
3
 10
33.3071067811865
 20
12.7071067811866
 11
48.1928932188135
 21
12.7071067811866
  0
LINE
  5
191
100
AcDbEntity
  8
0
100
AcDbLine
  6
BYLAYER
 62
3
 10
33.3071067811865
 20
18.7071067811866
 11
48.1928932188135
 21
18.7071067811866
  0
LINE
  5
192
100
AcDbEntity
  8
0
100
AcDbLine
  6
BYLAYER
 62
3
 10
17.0071067811865
 20
0.707106781186553
 11
31.8928932188135
 21
0.707106781186553
  0
LINE
  5
193
100
AcDbEntity
  8
0
100
AcDbLine
  6
BYLAYER
 62
3
 10
17.0071067811865
 20
6.70710678118655
 11
31.8928932188135
 21
6.70710678118655
  0
LINE
  5
194
100
AcDbEntity
  8
0
100
AcDbLine
  6
BYLAYER
 62
3
 10
17.0071067811865
 20
12.7071067811866
 11
31.8928932188135
 21
12.7071067811866
  0
LINE
  5
195
100
AcDbEntity
  8
0
100
AcDbLine
  6
BYLAYER
 62
3
 10
17.0071067811865
 20
18.7071067811866
 11
31.8928932188135
 21
18.7071067811866
  0
LINE
  5
196
100
AcDbEntity
  8
0
100
AcDbLine
  6
BYLAYER
 62
3
 10
49.6071067811866
 20
0.707106781186553
 11
64.4928932188135
 21
0.707106781186553
  0
LINE
  5
197
100
AcDbEntity
  8
0
100
AcDbLine
  6
BYLAYER
 62
3
 10
49.6071067811866
 20
6.70710678118655
 11
64.4928932188135
 21
6.70710678118655
  0
LINE
  5
198
100
AcDbEntity
  8
0
100
AcDbLine
  6
BYLAYER
 62
3
 10
49.6071067811866
 20
12.7071067811866
 11
64.4928932188135
 21
12.7071067811866
  0
LINE
  5
199
100
AcDbEntity
  8
0
100
AcDbLine
  6
BYLAYER
 62
3
 10
49.6071067811866
 20
18.7071067811866
 11
64.4928932188135
 21
18.7071067811866
  0
LINE
  5
19A
100
AcDbEntity
  8
0
100
AcDbLine
  6
BYLAYER
 62
3
 10
0.707106781186548
 20
24.7071067811866
 11
15.5928932188134
 21
24.7071067811866
  0
LINE
  5
19B
100
AcDbEntity
  8
0
100
AcDbLine
  6
BYLAYER
 62
3
 10
0.707106781186548
 20
30.7071067811865
 11
15.5928932188134
 21
30.7071067811865
  0
LINE
  5
19C
100
AcDbEntity
  8
0
100
AcDbLine
  6
BYLAYER
 62
3
 10
0.707106781186548
 20
36.7071067811866
 11
15.5928932188134
 21
36.7071067811866
  0
TEXT
  5
19D
100
AcDbEntity
  8
0
100
AcDbText
  6
BYLAYER
 10
5.67126064773777
 20
43.5
 40
3
  1
､u･O
  7
Font_0
100
AcDbText
  0
LINE
  5
19E
100
AcDbEntity
  8
0
100
AcDbLine
  6
BYLAYER
 62
3
 10
33.3071067811865
 20
24.7071067811866
 11
48.1928932188135
 21
24.7071067811866
  0
LINE
  5
19F
100
AcDbEntity
  8
0
100
AcDbLine
  6
BYLAYER
 62
3
 10
33.3071067811865
 20
30.7071067811865
 11
48.1928932188135
 21
30.7071067811865
  0
LINE
  5
1A0
100
AcDbEntity
  8
0
100
AcDbLine
  6
BYLAYER
 62
3
 10
33.3071067811865
 20
36.7071067811866
 11
48.1928932188135
 21
36.7071067811866
  0
LINE
  5
1A1
100
AcDbEntity
  8
0
100
AcDbLine
  6
BYLAYER
 62
3
 10
17.0071067811865
 20
24.7071067811866
 11
31.8928932188135
 21
24.7071067811866
  0
LINE
  5
1A2
100
AcDbEntity
  8
0
100
AcDbLine
  6
BYLAYER
 62
3
 10
17.0071067811865
 20
30.7071067811865
 11
31.8928932188135
 21
30.7071067811865
  0
LINE
  5
1A3
100
AcDbEntity
  8
0
100
AcDbLine
  6
BYLAYER
 62
3
 10
17.0071067811865
 20
36.7071067811866
 11
31.8928932188135
 21
36.7071067811866
  0
TEXT
  5
1A4
100
AcDbEntity
  8
0
100
AcDbText
  6
BYLAYER
 10
21.3781148184937
 20
43.5
 40
3
  1
ｽsｸｹ
  7
Font_0
100
AcDbText
  0
TEXT
  5
1A5
100
AcDbEntity
  8
0
100
AcDbText
  6
BYLAYER
 10
39.5
 20
43.5
 40
3
  1
A
  7
Font_0
100
AcDbText
  0
LINE
  5
1A6
100
AcDbEntity
  8
0
100
AcDbLine
  6
BYLAYER
 62
3
 10
49.6071067811866
 20
24.7071067811866
 11
64.4928932188135
 21
24.7071067811866
  0
LINE
  5
1A7
100
AcDbEntity
  8
0
100
AcDbLine
  6
BYLAYER
 62
3
 10
49.6071067811866
 20
30.7071067811865
 11
64.4928932188135
 21
30.7071067811865
  0
LINE
  5
1A8
100
AcDbEntity
  8
0
100
AcDbLine
  6
BYLAYER
 62
3
 10
49.6071067811866
 20
36.7071067811866
 11
64.4928932188135
 21
36.7071067811866
  0
TEXT
  5
1A9
100
AcDbEntity
  8
0
100
AcDbText
  6
BYLAYER
 10
56
 20
43.5
 40
3
  1
B
  7
Font_0
100
AcDbText
  0
TEXT
  5
1AA
100
AcDbEntity
  8
0
100
AcDbText
  6
BYLAYER
 10
72.5
 20
43.5
 40
3
  1
C
  7
Font_0
100
AcDbText
  0
LINE
  5
1AB
100
AcDbEntity
  8
0
100
AcDbLine
  6
BYLAYER
 10
163
 20
48
 11
163
 21
0
  0
LINE
  5
1AC
100
AcDbEntity
  8
0
100
AcDbLine
  6
BYLAYER
 10
146.7
 20
48
 11
146.7
 21
0
  0
LINE
  5
1AD
100
AcDbEntity
  8
0
100
AcDbLine
  6
BYLAYER
 10
179.3
 20
48
 11
179.3
 21
0
  0
LINE
  5
1AE
100
AcDbEntity
  8
0
100
AcDbLine
  6
BYLAYER
 10
195.6
 20
48
 11
195.6
 21
0
  0
LINE
  5
1AF
100
AcDbEntity
  8
0
100
AcDbLine
  6
BYLAYER
 10
81.5
 20
48
 11
81.5
 21
0
  0
LINE
  5
1B0
100
AcDbEntity
  8
0
100
AcDbLine
  6
BYLAYER
 10
114.1
 20
48
 11
114.1
 21
0
  0
LINE
  5
1B1
100
AcDbEntity
  8
0
100
AcDbLine
  6
BYLAYER
 10
97.8
 20
48
 11
97.8
 21
0
  0
LINE
  5
1B2
100
AcDbEntity
  8
0
100
AcDbLine
  6
BYLAYER
 10
130.4
 20
48
 11
130.4
 21
0
  0
LINE
  5
1B3
100
AcDbEntity
  8
0
100
AcDbLine
  6
BYLAYER
 62
3
 10
131.107106781186
 20
0.707106781186553
 11
145.992893218813
 21
0.707106781186553
  0
LINE
  5
1B4
100
AcDbEntity
  8
0
100
AcDbLine
  6
BYLAYER
 62
3
 10
131.107106781186
 20
6.70710678118655
 11
145.992893218813
 21
6.70710678118655
  0
LINE
  5
1B5
100
AcDbEntity
  8
0
100
AcDbLine
  6
BYLAYER
 62
3
 10
131.107106781186
 20
12.7071067811866
 11
145.992893218813
 21
12.7071067811866
  0
LINE
  5
1B6
100
AcDbEntity
  8
0
100
AcDbLine
  6
BYLAYER
 62
3
 10
131.107106781186
 20
18.7071067811866
 11
145.992893218813
 21
18.7071067811866
  0
LINE
  5
1B7
100
AcDbEntity
  8
0
100
AcDbLine
  6
BYLAYER
 62
3
 10
98.5071067811866
 20
0.707106781186553
 11
113.392893218813
 21
0.707106781186553
  0
LINE
  5
1B8
100
AcDbEntity
  8
0
100
AcDbLine
  6
BYLAYER
 62
3
 10
98.5071067811866
 20
6.70710678118655
 11
113.392893218813
 21
6.70710678118655
  0
LINE
  5
1B9
100
AcDbEntity
  8
0
100
AcDbLine
  6
BYLAYER
 62
3
 10
98.5071067811866
 20
12.7071067811866
 11
113.392893218813
 21
12.7071067811866
  0
LINE
  5
1BA
100
AcDbEntity
  8
0
100
AcDbLine
  6
BYLAYER
 62
3
 10
98.5071067811866
 20
18.7071067811866
 11
113.392893218813
 21
18.7071067811866
  0
LINE
  5
1BB
100
AcDbEntity
  8
0
100
AcDbLine
  6
BYLAYER
 62
3
 10
82.2071067811865
 20
0.707106781186553
 11
97.0928932188135
 21
0.707106781186553
  0
LINE
  5
1BC
100
AcDbEntity
  8
0
100
AcDbLine
  6
BYLAYER
 62
3
 10
82.2071067811865
 20
6.70710678118655
 11
97.0928932188135
 21
6.70710678118655
  0
LINE
  5
1BD
100
AcDbEntity
  8
0
100
AcDbLine
  6
BYLAYER
 62
3
 10
82.2071067811865
 20
12.7071067811866
 11
97.0928932188135
 21
12.7071067811866
  0
LINE
  5
1BE
100
AcDbEntity
  8
0
100
AcDbLine
  6
BYLAYER
 62
3
 10
82.2071067811865
 20
18.7071067811866
 11
97.0928932188135
 21
18.7071067811866
  0
LINE
  5
1BF
100
AcDbEntity
  8
0
100
AcDbLine
  6
BYLAYER
 62
3
 10
114.807106781187
 20
0.707106781186553
 11
129.692893218813
 21
0.707106781186553
  0
LINE
  5
1C0
100
AcDbEntity
  8
0
100
AcDbLine
  6
BYLAYER
 62
3
 10
114.807106781187
 20
6.70710678118655
 11
129.692893218813
 21
6.70710678118655
  0
LINE
  5
1C1
100
AcDbEntity
  8
0
100
AcDbLine
  6
BYLAYER
 62
3
 10
114.807106781187
 20
12.7071067811866
 11
129.692893218813
 21
12.7071067811866
  0
LINE
  5
1C2
100
AcDbEntity
  8
0
100
AcDbLine
  6
BYLAYER
 62
3
 10
114.807106781187
 20
18.7071067811866
 11
129.692893218813
 21
18.7071067811866
  0
LINE
  5
1C3
100
AcDbEntity
  8
0
100
AcDbLine
  6
BYLAYER
 62
3
 10
163.707106781186
 20
0.707106781186553
 11
178.592893218813
 21
0.707106781186553
  0
LINE
  5
1C4
100
AcDbEntity
  8
0
100
AcDbLine
  6
BYLAYER
 62
3
 10
163.707106781186
 20
6.70710678118655
 11
178.592893218813
 21
6.70710678118655
  0
LINE
  5
1C5
100
AcDbEntity
  8
0
100
AcDbLine
  6
BYLAYER
 62
3
 10
163.707106781186
 20
12.7071067811866
 11
178.592893218813
 21
12.7071067811866
  0
LINE
  5
1C6
100
AcDbEntity
  8
0
100
AcDbLine
  6
BYLAYER
 62
3
 10
163.707106781186
 20
18.7071067811866
 11
178.592893218813
 21
18.7071067811866
  0
LINE
  5
1C7
100
AcDbEntity
  8
0
100
AcDbLine
  6
BYLAYER
 62
3
 10
147.407106781187
 20
0.707106781186553
 11
162.292893218814
 21
0.707106781186553
  0
LINE
  5
1C8
100
AcDbEntity
  8
0
100
AcDbLine
  6
BYLAYER
 62
3
 10
147.407106781187
 20
6.70710678118655
 11
162.292893218814
 21
6.70710678118655
  0
LINE
  5
1C9
100
AcDbEntity
  8
0
100
AcDbLine
  6
BYLAYER
 62
3
 10
147.407106781187
 20
12.7071067811866
 11
162.292893218814
 21
12.7071067811866
  0
LINE
  5
1CA
100
AcDbEntity
  8
0
100
AcDbLine
  6
BYLAYER
 62
3
 10
147.407106781187
 20
18.7071067811866
 11
162.292893218814
 21
18.7071067811866
  0
LINE
  5
1CB
100
AcDbEntity
  8
0
100
AcDbLine
  6
BYLAYER
 62
3
 10
180.007106781186
 20
0.707106781186553
 11
194.892893218813
 21
0.707106781186553
  0
LINE
  5
1CC
100
AcDbEntity
  8
0
100
AcDbLine
  6
BYLAYER
 62
3
 10
180.007106781186
 20
6.70710678118655
 11
194.892893218813
 21
6.70710678118655
  0
LINE
  5
1CD
100
AcDbEntity
  8
0
100
AcDbLine
  6
BYLAYER
 62
3
 10
180.007106781186
 20
12.7071067811866
 11
194.892893218813
 21
12.7071067811866
  0
LINE
  5
1CE
100
AcDbEntity
  8
0
100
AcDbLine
  6
BYLAYER
 62
3
 10
180.007106781186
 20
18.7071067811866
 11
194.892893218813
 21
18.7071067811866
  0
LINE
  5
1CF
100
AcDbEntity
  8
0
100
AcDbLine
  6
BYLAYER
 62
3
 10
131.107106781186
 20
24.7071067811866
 11
145.992893218813
 21
24.7071067811866
  0
LINE
  5
1D0
100
AcDbEntity
  8
0
100
AcDbLine
  6
BYLAYER
 62
3
 10
131.107106781186
 20
30.7071067811865
 11
145.992893218813
 21
30.7071067811865
  0
LINE
  5
1D1
100
AcDbEntity
  8
0
100
AcDbLine
  6
BYLAYER
 62
3
 10
131.107106781186
 20
36.7071067811866
 11
145.992893218813
 21
36.7071067811866
  0
LINE
  5
1D2
100
AcDbEntity
  8
0
100
AcDbLine
  6
BYLAYER
 62
3
 10
98.5071067811866
 20
24.7071067811866
 11
113.392893218813
 21
24.7071067811866
  0
LINE
  5
1D3
100
AcDbEntity
  8
0
100
AcDbLine
  6
BYLAYER
 62
3
 10
98.5071067811866
 20
30.7071067811865
 11
113.392893218813
 21
30.7071067811865
  0
LINE
  5
1D4
100
AcDbEntity
  8
0
100
AcDbLine
  6
BYLAYER
 62
3
 10
98.5071067811866
 20
36.7071067811866
 11
113.392893218813
 21
36.7071067811866
  0
LINE
  5
1D5
100
AcDbEntity
  8
0
100
AcDbLine
  6
BYLAYER
 62
3
 10
82.2071067811865
 20
24.7071067811866
 11
97.0928932188135
 21
24.7071067811866
  0
LINE
  5
1D6
100
AcDbEntity
  8
0
100
AcDbLine
  6
BYLAYER
 62
3
 10
82.2071067811865
 20
30.7071067811865
 11
97.0928932188135
 21
30.7071067811865
  0
LINE
  5
1D7
100
AcDbEntity
  8
0
100
AcDbLine
  6
BYLAYER
 62
3
 10
82.2071067811865
 20
36.7071067811866
 11
97.0928932188135
 21
36.7071067811866
  0
TEXT
  5
1D8
100
AcDbEntity
  8
0
100
AcDbText
  6
BYLAYER
 10
89
 20
43.5
 40
3
  1
D
  7
Font_0
100
AcDbText
  0
TEXT
  5
1D9
100
AcDbEntity
  8
0
100
AcDbText
  6
BYLAYER
 10
105.3
 20
43.5
 40
3
  1
E
  7
Font_0
100
AcDbText
  0
LINE
  5
1DA
100
AcDbEntity
  8
0
100
AcDbLine
  6
BYLAYER
 62
3
 10
114.807106781187
 20
24.7071067811866
 11
129.692893218813
 21
24.7071067811866
  0
LINE
  5
1DB
100
AcDbEntity
  8
0
100
AcDbLine
  6
BYLAYER
 62
3
 10
114.807106781187
 20
30.7071067811865
 11
129.692893218813
 21
30.7071067811865
  0
LINE
  5
1DC
100
AcDbEntity
  8
0
100
AcDbLine
  6
BYLAYER
 62
3
 10
114.807106781187
 20
36.7071067811866
 11
129.692893218813
 21
36.7071067811866
  0
TEXT
  5
1DD
100
AcDbEntity
  8
0
100
AcDbText
  6
BYLAYER
 10
121.8
 20
43.5
 40
3
  1
F
  7
Font_0
100
AcDbText
  0
TEXT
  5
1DE
100
AcDbEntity
  8
0
100
AcDbText
  6
BYLAYER
 10
137.8
 20
43.5
 40
3
  1
G
  7
Font_0
100
AcDbText
  0
LINE
  5
1DF
100
AcDbEntity
  8
0
100
AcDbLine
  6
BYLAYER
 62
3
 10
163.707106781186
 20
24.7071067811866
 11
178.592893218813
 21
24.7071067811866
  0
LINE
  5
1E0
100
AcDbEntity
  8
0
100
AcDbLine
  6
BYLAYER
 62
3
 10
163.707106781186
 20
30.7071067811865
 11
178.592893218813
 21
30.7071067811865
  0
LINE
  5
1E1
100
AcDbEntity
  8
0
100
AcDbLine
  6
BYLAYER
 62
3
 10
163.707106781186
 20
36.7071067811866
 11
178.592893218813
 21
36.7071067811866
  0
LINE
  5
1E2
100
AcDbEntity
  8
0
100
AcDbLine
  6
BYLAYER
 62
3
 10
147.407106781187
 20
24.7071067811866
 11
162.292893218814
 21
24.7071067811866
  0
LINE
  5
1E3
100
AcDbEntity
  8
0
100
AcDbLine
  6
BYLAYER
 62
3
 10
147.407106781187
 20
30.7071067811865
 11
162.292893218814
 21
30.7071067811865
  0
LINE
  5
1E4
100
AcDbEntity
  8
0
100
AcDbLine
  6
BYLAYER
 62
3
 10
147.407106781187
 20
36.7071067811866
 11
162.292893218814
 21
36.7071067811866
  0
TEXT
  5
1E5
100
AcDbEntity
  8
0
100
AcDbText
  6
BYLAYER
 10
153.5
 20
43.5
 40
3
  1
H
  7
Font_0
100
AcDbText
  0
TEXT
  5
1E6
100
AcDbEntity
  8
0
100
AcDbText
  6
BYLAYER
 10
171.5
 20
43.5
 40
3
  1
I
  7
Font_0
100
AcDbText
  0
LINE
  5
1E7
100
AcDbEntity
  8
0
100
AcDbLine
  6
BYLAYER
 62
3
 10
180.007106781186
 20
24.7071067811866
 11
194.892893218813
 21
24.7071067811866
  0
LINE
  5
1E8
100
AcDbEntity
  8
0
100
AcDbLine
  6
BYLAYER
 62
3
 10
180.007106781186
 20
30.7071067811865
 11
194.892893218813
 21
30.7071067811865
  0
LINE
  5
1E9
100
AcDbEntity
  8
0
100
AcDbLine
  6
BYLAYER
 62
3
 10
180.007106781186
 20
36.7071067811866
 11
194.892893218813
 21
36.7071067811866
  0
TEXT
  5
1EA
100
AcDbEntity
  8
0
100
AcDbText
  6
BYLAYER
 10
186.6
 20
43.5
 40
3
  1
J
  7
Font_0
100
AcDbText
  0
TEXT
  5
1EB
100
AcDbEntity
  8
0
100
AcDbText
  6
BYLAYER
 10
202.5
 20
43.5
 40
3
  1
K
  7
Font_0
100
AcDbText
  0
LINE
  5
1EC
100
AcDbEntity
  8
0
100
AcDbLine
  6
BYLAYER
 10
244.5
 20
48
 11
244.5
 21
0
  0
LINE
  5
1ED
100
AcDbEntity
  8
0
100
AcDbLine
  6
BYLAYER
 10
211.9
 20
48
 11
211.9
 21
0
  0
LINE
  5
1EE
100
AcDbEntity
  8
0
100
AcDbLine
  6
BYLAYER
 10
228.2
 20
48
 11
228.2
 21
0
  0
LINE
  5
1EF
100
AcDbEntity
  8
0
100
AcDbLine
  6
BYLAYER
 62
3
 10
228.907106781187
 20
0.707106781186553
 11
243.792893218814
 21
0.707106781186553
  0
LINE
  5
1F0
100
AcDbEntity
  8
0
100
AcDbLine
  6
BYLAYER
 62
3
 10
228.907106781187
 20
6.70710678118655
 11
243.792893218814
 21
6.70710678118655
  0
LINE
  5
1F1
100
AcDbEntity
  8
0
100
AcDbLine
  6
BYLAYER
 62
3
 10
228.907106781187
 20
12.7071067811866
 11
243.792893218814
 21
12.7071067811866
  0
LINE
  5
1F2
100
AcDbEntity
  8
0
100
AcDbLine
  6
BYLAYER
 62
3
 10
228.907106781187
 20
18.7071067811866
 11
243.792893218814
 21
18.7071067811866
  0
LINE
  5
1F3
100
AcDbEntity
  8
0
100
AcDbLine
  6
BYLAYER
 62
3
 10
212.607106781186
 20
0.707106781186553
 11
227.492893218814
 21
0.707106781186553
  0
LINE
  5
1F4
100
AcDbEntity
  8
0
100
AcDbLine
  6
BYLAYER
 62
3
 10
212.607106781186
 20
6.70710678118655
 11
227.492893218814
 21
6.70710678118655
  0
LINE
  5
1F5
100
AcDbEntity
  8
0
100
AcDbLine
  6
BYLAYER
 62
3
 10
212.607106781186
 20
12.7071067811866
 11
227.492893218814
 21
12.7071067811866
  0
LINE
  5
1F6
100
AcDbEntity
  8
0
100
AcDbLine
  6
BYLAYER
 62
3
 10
212.607106781186
 20
18.7071067811866
 11
227.492893218814
 21
18.7071067811866
  0
LINE
  5
1F7
100
AcDbEntity
  8
0
100
AcDbLine
  6
BYLAYER
 62
3
 10
228.907106781187
 20
24.7071067811866
 11
243.792893218814
 21
24.7071067811866
  0
LINE
  5
1F8
100
AcDbEntity
  8
0
100
AcDbLine
  6
BYLAYER
 62
3
 10
228.907106781187
 20
30.7071067811865
 11
243.792893218814
 21
30.7071067811865
  0
LINE
  5
1F9
100
AcDbEntity
  8
0
100
AcDbLine
  6
BYLAYER
 62
3
 10
228.907106781187
 20
36.7071067811866
 11
243.792893218814
 21
36.7071067811866
  0
LINE
  5
1FA
100
AcDbEntity
  8
0
100
AcDbLine
  6
BYLAYER
 62
3
 10
212.607106781186
 20
24.7071067811866
 11
227.492893218814
 21
24.7071067811866
  0
LINE
  5
1FB
100
AcDbEntity
  8
0
100
AcDbLine
  6
BYLAYER
 62
3
 10
212.607106781186
 20
30.7071067811865
 11
227.492893218814
 21
30.7071067811865
  0
LINE
  5
1FC
100
AcDbEntity
  8
0
100
AcDbLine
  6
BYLAYER
 62
3
 10
212.607106781186
 20
36.7071067811866
 11
227.492893218814
 21
36.7071067811866
  0
TEXT
  5
1FD
100
AcDbEntity
  8
0
100
AcDbText
  6
BYLAYER
 10
219
 20
43.5
 40
3
  1
L
  7
Font_0
100
AcDbText
  0
TEXT
  5
1FE
100
AcDbEntity
  8
0
100
AcDbText
  6
BYLAYER
 10
233.270544856686
 20
43.5
 40
3
  1
ｫﾈ､�
  7
Font_0
100
AcDbText
  0
ENDBLK
  5
1FF
100
AcDbEntity
  8
0
 67
     1
100
AcDbBlockEnd
  0
BLOCK
  5
200
100
AcDbEntity
  8
0
100
AcDbBlockBegin
  2
BASE
 70
    0
 10
0
 20
0
 30
0.0
  3
BASE
  1

  0
LINE
  5
201
100
AcDbEntity
  8
0
100
AcDbLine
  6
BYLAYER
 10
0
 20
36
 11
278.4
 21
36
  0
LINE
  5
202
100
AcDbEntity
  8
0
100
AcDbLine
  6
BYLAYER
 10
0
 20
12
 11
278.4
 21
12
  0
LINE
  5
203
100
AcDbEntity
  8
0
100
AcDbLine
  6
BYLAYER
 10
0
 20
6
 11
278.4
 21
6
  0
LINE
  5
204
100
AcDbEntity
  8
0
100
AcDbLine
  6
BYLAYER
 10
0
 20
0
 11
278.4
 21
0
  0
LINE
  5
205
100
AcDbEntity
  8
0
100
AcDbLine
  6
BYLAYER
 10
278.4
 20
186
 11
0
 21
186
  0
LINE
  5
206
100
AcDbEntity
  8
0
100
AcDbLine
  6
BYLAYER
 10
96.85
 20
30
 11
278.4
 21
30
  0
LINE
  5
207
100
AcDbEntity
  8
0
100
AcDbLine
  6
BYLAYER
 10
96.85
 20
24
 11
278.4
 21
24
  0
LINE
  5
208
100
AcDbEntity
  8
0
100
AcDbLine
  6
BYLAYER
 10
96.85
 20
18
 11
278.4
 21
18
  0
LINE
  5
209
100
AcDbEntity
  8
0
100
AcDbLine
  6
BYLAYER
 10
0
 20
0
 11
0
 21
186
  0
TEXT
  5
20A
100
AcDbEntity
  8
0
100
AcDbText
  6
BYLAYER
 10
22.1680110084321
 20
15.7553550725962
 40
2.8
  1
CAM YORK INDUSTRIAL CO.,LTD.
  7
Font_0
100
AcDbText
  0
TEXT
  5
20B
100
AcDbEntity
  8
0
100
AcDbText
  6
BYLAYER
 10
22.0468952754036
 20
26
 40
7
  1
ｫﾘｷﾔ､uｷ~ｪﾑ･ｳｭｭ､ｽ･q
  7
Font_0
100
AcDbText
  0
TEXT
  5
20C
100
AcDbEntity
  8
0
100
AcDbText
  6
BYLAYER
 10
63.8643398403977
 20
7.09411371042404
 40
2.8
  1
(04)3322629
  7
Font_0
100
AcDbText
  0
LINE
  5
20D
100
AcDbEntity
  8
0
100
AcDbLine
  6
BYLAYER
 10
10.1054905349494
 20
28.7603510666656
 11
15.2233703294355
 21
28.7603510666656
  0
CIRCLE
  5
20E
100
AcDbEntity
  8
0
100
AcDbCircle
  6
BYLAYER
 10
10.1054905349494
 20
24.350263158651
 40
9.36463111331499
  0
CIRCLE
  5
20F
100
AcDbEntity
  8
0
100
AcDbCircle
  6
BYLAYER
 10
10.1054905349494
 20
24.350263158651
 40
7.62237416200057
  0
ARC
  5
210
100
AcDbEntity
  8
0
100
AcDbCircle
  6
BYLAYER
 10
10.1054905349494
 20
24.350263158651
 40
4.41008790801462
100
AcDbArc
 50
90
 51
0
  0
LINE
  5
211
100
AcDbEntity
  8
0
100
AcDbLine
  6
BYLAYER
 10
13
 20
12
 11
13
 21
0
  0
TEXT
  5
212
100
AcDbEntity
  8
0
100
AcDbText
  6
BYLAYER
 10
2.6
 20
7.3
 40
3
  1
TEL
  7
Font_0
100
AcDbText
  0
TEXT
  5
213
100
AcDbEntity
  8
0
100
AcDbText
  6
BYLAYER
 10
3.5
 20
1.5
 40
3
  1
ｳﾆｵ�
  7
Font_0
 72
1
 11
6.5
 21
3
100
AcDbText
 73
2
  0
ARC
  5
214
100
AcDbEntity
  8
0
100
AcDbCircle
  6
BYLAYER
 10
10.5745216067836
 20
32.8983997393573
 40
0.704372460813671
100
AcDbArc
 50
83.8529806316668
 51
239.250071636948
  0
ARC
  5
215
100
AcDbEntity
  8
0
100
AcDbCircle
  6
BYLAYER
 10
6.23761506796892
 20
31.9876821284788
 40
0.704372460813671
100
AcDbArc
 50
113.852980631667
 51
269.250071636948
  0
ARC
  5
216
100
AcDbEntity
  8
0
100
AcDbCircle
  6
BYLAYER
 10
2.46807156512152
 20
20.4823876916705
 40
0.704372460813671
100
AcDbArc
 50
203.852980631667
 51
359.250071636948
  0
ARC
  5
217
100
AcDbEntity
  8
0
100
AcDbCircle
  6
BYLAYER
 10
9.63645946311512
 20
15.8021265779447
 40
0.704372460813671
100
AcDbArc
 50
263.852980631667
 51
59.2500716369476
  0
ARC
  5
218
100
AcDbEntity
  8
0
100
AcDbCircle
  6
BYLAYER
 10
5.4252294212235
 20
17.1818752606574
 40
0.704372460813671
100
AcDbArc
 50
233.852980631667
 51
29.2500716369476
  0
ARC
  5
219
100
AcDbEntity
  8
0
100
AcDbCircle
  6
BYLAYER
 10
1.55735395424306
 20
24.8192942304852
 40
0.704372460813671
100
AcDbArc
 50
173.852980631667
 51
329.250071636948
  0
ARC
  5
21A
100
AcDbEntity
  8
0
100
AcDbCircle
  6
BYLAYER
 10
2.93710263695578
 20
29.0305242723768
 40
0.704372460813671
100
AcDbArc
 50
143.852980631667
 51
299.250071636948
  0
TEXT
  5
21B
100
AcDbEntity
  8
0
100
AcDbText
  6
BYLAYER
 10
7.49210581170385
 20
21.8477388856442
 40
5
  1
Y
  7
Font_0
100
AcDbText
  0
TEXT
  5
21C
100
AcDbEntity
  8
0
100
AcDbText
  6
BYLAYER
 10
42.3478047909238
 20
7.2
 40
2.8
  1
~8
  7
Font_0
100
AcDbText
  0
TEXT
  5
21D
100
AcDbEntity
  8
0
100
AcDbText
  6
BYLAYER
 10
13.8764304985659
 20
7.2
 40
2.8
  1
(04)3322627
  7
Font_0
100
AcDbText
  0
TEXT
  5
21E
100
AcDbEntity
  8
0
100
AcDbText
  6
BYLAYER
 10
51
 20
7.2
 40
3
  1
FAX
  7
Font_0
100
AcDbText
  0
LINE
  5
21F
100
AcDbEntity
  8
0
100
AcDbLine
  6
BYLAYER
 10
48
 20
12
 11
48
 21
6
  0
LINE
  5
220
100
AcDbEntity
  8
0
100
AcDbLine
  6
BYLAYER
 10
62
 20
12
 11
62
 21
6
  0
ARC
  5
221
100
AcDbEntity
  8
0
100
AcDbCircle
  6
BYLAYER
 10
14.7857516486752
 20
31.5186510566446
 40
0.704372460813671
100
AcDbArc
 50
53.8529806316668
 51
209.250071636948
  0
ARC
  5
222
100
AcDbEntity
  8
0
100
AcDbCircle
  6
BYLAYER
 10
17.273878432943
 20
19.6700020449251
 40
0.704372460813671
100
AcDbArc
 50
323.852980631667
 51
119.250071636948
  0
ARC
  5
223
100
AcDbEntity
  8
0
100
AcDbCircle
  6
BYLAYER
 10
13.9733660019298
 20
16.7128441888231
 40
0.704372460813671
100
AcDbArc
 50
293.852980631667
 51
89.2500716369476
  0
LINE
  5
224
100
AcDbEntity
  8
0
100
AcDbLine
  6
BYLAYER
 10
14.515578442964
 20
24.350263158651
 11
15.4411524483498
 21
24.350263158651
  0
ARC
  5
225
100
AcDbEntity
  8
0
100
AcDbCircle
  6
BYLAYER
 10
18.6536271156557
 20
23.8812320868167
 40
0.704372460813671
100
AcDbArc
 50
353.852980631667
 51
149.250071636948
  0
ARC
  5
226
100
AcDbEntity
  8
0
100
AcDbCircle
  6
BYLAYER
 10
17.7429095047772
 20
28.2181386256314
 40
0.704372460813671
100
AcDbArc
 50
23.8529806316668
 51
179.250071636948
  0
TEXT
  5
227
100
AcDbEntity
  8
0
100
AcDbText
  6
BYLAYER
 10
100.4
 20
7.4
 40
3
  1
ｫ~ ｦW
  7
Font_0
100
AcDbText
  0
LINE
  5
228
100
AcDbEntity
  8
0
100
AcDbLine
  6
BYLAYER
 10
144
 20
36
 11
144
 21
0
  0
LINE
  5
229
100
AcDbEntity
  8
0
100
AcDbLine
  6
BYLAYER
 10
114
 20
36
 11
114
 21
0
  0
LINE
  5
22A
100
AcDbEntity
  8
0
100
AcDbLine
  6
BYLAYER
 10
97.15
 20
36
 11
97.15
 21
0
  0
LINE
  5
22B
100
AcDbEntity
  8
0
100
AcDbLine
  6
BYLAYER
 10
96.85
 20
36
 11
96.85
 21
0
  0
TEXT
  5
22C
100
AcDbEntity
  8
0
100
AcDbText
  6
BYLAYER
 10
100.4
 20
1.6
 40
3
  1
ｹﾏ ｸｹ
  7
Font_0
100
AcDbText
  0
TEXT
  5
22D
100
AcDbEntity
  8
0
100
AcDbText
  6
BYLAYER
 10
100.4
 20
31.6
 40
3
  1
･D ｺﾞ
  7
Font_0
100
AcDbText
  0
TEXT
  5
22E
100
AcDbEntity
  8
0
100
AcDbText
  6
BYLAYER
 10
100.4
 20
19.6
 40
3
  1
ﾃｸ ｹﾏ
  7
Font_0
100
AcDbText
  0
TEXT
  5
22F
100
AcDbEntity
  8
0
100
AcDbText
  6
BYLAYER
 10
100.4
 20
13.8
 40
3
  1
ｾ� ｺﾘ
  7
Font_0
100
AcDbText
  0
TEXT
  5
230
100
AcDbEntity
  8
0
100
AcDbText
  6
BYLAYER
 10
100.4
 20
25.4
 40
3
  1
ｮﾖ ｹ�
  7
Font_0
100
AcDbText
  0
LINE
  5
231
100
AcDbEntity
  8
0
100
AcDbLine
  6
BYLAYER
 10
195.15
 20
36
 11
195.15
 21
0
  0
LINE
  5
232
100
AcDbEntity
  8
0
100
AcDbLine
  6
BYLAYER
 10
194.85
 20
36
 11
194.85
 21
0
  0
LINE
  5
233
100
AcDbEntity
  8
0
100
AcDbLine
  6
BYLAYER
 10
195.025
 20
36
 11
195.025
 21
0
  0
LINE
  5
234
100
AcDbEntity
  8
0
100
AcDbLine
  6
BYLAYER
 10
163
 20
36
 11
163
 21
0
  0
TEXT
  5
235
100
AcDbEntity
  8
0
100
AcDbText
  6
BYLAYER
 10
146.967830348543
 20
7.5
 40
3
  1
ｪ揵ｱｳBｲz
  7
Font_0
100
AcDbText
  0
TEXT
  5
236
100
AcDbEntity
  8
0
100
AcDbText
  6
BYLAYER
 10
146.967830348543
 20
1.5
 40
3
  1
ｻsｹﾏ､魘ﾁ
  7
Font_0
100
AcDbText
  0
TEXT
  5
237
100
AcDbEntity
  8
0
100
AcDbText
  6
BYLAYER
 10
148.5
 20
31.5
 40
3
  1
ｧ� ｽ�
  7
Font_0
100
AcDbText
  0
TEXT
  5
238
100
AcDbEntity
  8
0
100
AcDbText
  6
BYLAYER
 10
148.5
 20
19.5
 40
3
  1
ｼﾆ ｶq
  7
Font_0
100
AcDbText
  0
TEXT
  5
239
100
AcDbEntity
  8
0
100
AcDbText
  6
BYLAYER
 10
148.5
 20
13.5
 40
3
  1
ｳ� ｦ�
  7
Font_0
100
AcDbText
  0
TEXT
  5
23A
100
AcDbEntity
  8
0
100
AcDbText
  6
BYLAYER
 10
148.5
 20
25.5
 40
3
  1
､� ｨﾒ
  7
Font_0
100
AcDbText
  0
TEXT
  5
23B
100
AcDbEntity
  8
0
100
AcDbText
  6
BYLAYER
 10
200.830454348633
 20
31.5
 40
3
  1
､魘ﾁ
  7
Font_0
100
AcDbText
  0
LINE
  5
23C
100
AcDbEntity
  8
0
100
AcDbLine
  6
BYLAYER
 10
278.4
 20
186
 11
278.4
 21
0
  0
LINE
  5
23D
100
AcDbEntity
  8
0
100
AcDbLine
  6
BYLAYER
 10
269.7178125
 20
135.285
 11
269.7178125
 21
151.27125
  0
LINE
  5
23E
100
AcDbEntity
  8
0
100
AcDbLine
  6
BYLAYER
 10
261.035625
 20
135.285
 11
261.035625
 21
151.27125
  0
LINE
  5
23F
100
AcDbEntity
  8
0
100
AcDbLine
  6
BYLAYER
 10
252.3534375
 20
135.285
 11
252.3534375
 21
151.27125
  0
LINE
  5
240
100
AcDbEntity
  8
0
100
AcDbLine
  6
BYLAYER
 10
243.67125
 20
135.285
 11
243.67125
 21
180.4875
  0
LINE
  5
241
100
AcDbEntity
  8
0
100
AcDbLine
  6
BYLAYER
 10
221.07
 20
135.285
 11
221.07
 21
180.4875
  0
LINE
  5
242
100
AcDbEntity
  8
0
100
AcDbLine
  6
BYLAYER
 10
216.66
 20
135.285
 11
216.66
 21
186
  0
LINE
  5
243
100
AcDbEntity
  8
0
100
AcDbLine
  6
BYLAYER
 10
213
 20
36
 11
213
 21
0
  0
LINE
  5
244
100
AcDbEntity
  8
0
100
AcDbLine
  6
BYLAYER
 10
232
 20
36
 11
232
 21
0
  0
TEXT
  5
245
100
AcDbEntity
  8
0
100
AcDbText
  6
BYLAYER
 10
235
 20
31.5
 40
3
  1
ｧ�   ｧ�   ､ｺ   ｮe
  7
Font_0
100
AcDbText
  0
TEXT
  5
246
100
AcDbEntity
  8
0
100
AcDbText
  6
BYLAYER
 10
218.659856969007
 20
31.5
 40
3
  1
ｭtｳd､H
  7
Font_0
100
AcDbText
  0
LINE
  5
247
100
AcDbEntity
  8
0
100
AcDbLine
  6
BYLAYER
 10
278.4
 20
139.695
 11
221.07
 21
139.695
  0
LINE
  5
248
100
AcDbEntity
  8
0
100
AcDbLine
  6
BYLAYER
 10
278.4
 20
135.285
 11
216.66
 21
135.285
  0
TEXT
  5
249
100
AcDbEntity
  8
0
100
AcDbText
  6
BYLAYER
 10
246.15416478566
 20
128.207003496756
 40
2
  1
projection ｲﾄ､Tｨ､ｧ�ｼv
  7
Font_0
100
AcDbText
  0
LINE
  5
24A
100
AcDbEntity
  8
0
100
AcDbLine
  6
BYLAYER
 10
278.4
 20
113.78625
 11
243.67125
 21
113.78625
  0
TEXT
  5
24B
100
AcDbEntity
  8
0
100
AcDbText
  6
BYLAYER
 10
271.4339125
 20
144.733125
 40
1.5
  1
100･H､W
  7
Font_0
 72
1
 11
274.0589125
 21
145.483125
100
AcDbText
 73
2
  0
TEXT
  5
24C
100
AcDbEntity
  8
0
100
AcDbText
  6
BYLAYER
 10
272.1839125
 20
136.74
 40
1.5
  1
±10'
  7
Font_0
 72
1
 11
274.0589125
 21
137.49
100
AcDbText
 73
2
  0
MTEXT
  5
24D
100
AcDbEntity
  8
0
100
AcDbMText
 10
232.37065
 20
145.483125
 40
2
 41
  0.0
  1
､ｽｺﾙ､ﾘ､o (ｪﾗ)\Pｧｨｦｨｨ､､ｧｵuﾃ荀@､�
 71
5
  7
Font_0
  0
TEXT
  5
24E
100
AcDbEntity
  8
0
100
AcDbText
  6
BYLAYER
 10
217.365
 20
147.778125
 40
3
  1
ｪｽｨ､ｫﾗ
  7
Font_1
 50
270
 11
218.865
 21
147.778125
100
AcDbText
 73
2
  0
TEXT
  5
24F
100
AcDbEntity
  8
0
100
AcDbText
  6
BYLAYER
 10
227.87065
 20
135.99
 40
3
  1
ｨ､ｫﾗｮt
  7
Font_0
 72
1
 11
232.37065
 21
137.49
100
AcDbText
 73
2
  0
LINE
  5
250
100
AcDbEntity
  8
0
100
AcDbLine
  6
BYLAYER
 10
254.802068029839
 20
115.173423624616
 11
254.802068029839
 21
126.198423624616
  0
LINE
  5
251
100
AcDbEntity
  8
0
100
AcDbLine
  6
BYLAYER
 10
243.67125
 20
113.78625
 11
243.67125
 21
135.285
  0
CIRCLE
  5
252
100
AcDbEntity
  8
0
100
AcDbCircle
  6
BYLAYER
 10
254.802068029839
 20
120.685923624616
 40
4.41
  0
LINE
  5
253
100
AcDbEntity
  8
0
100
AcDbLine
  6
BYLAYER
 10
249.289568029839
 20
120.685923624616
 11
260.314568029839
 21
120.685923624616
  0
CIRCLE
  5
254
100
AcDbEntity
  8
0
100
AcDbCircle
  6
BYLAYER
 10
254.802068029839
 20
120.685923624616
 40
2.205
  0
LINE
  5
255
100
AcDbEntity
  8
0
100
AcDbLine
  6
BYLAYER
 10
263.194180551461
 20
120.685923624616
 11
274.770430551461
 21
120.685923624616
  0
LWPOLYLINE
  5
256
100
AcDbEntity
  8
0
100
AcDbPolyline
  6
BYLAYER
370
0
 90
     4
 70
     1
 10
264.296680551461
  20
118.480923624616
 10
273.667930551461
  20
116.275923624616
 10
273.667930551461
  20
125.095923624616
 10
264.296680551461
  20
122.890923624616
  0
TEXT
  5
257
100
AcDbEntity
  8
0
100
AcDbText
  6
BYLAYER
 10
245.828721587618
 20
131.605971951227
 40
2
  1
Third angle
  7
Font_0
100
AcDbText
  0
MTEXT
  5
258
100
AcDbEntity
  8
0
100
AcDbMText
 10
256.6945375
 20
145.483125
 40
1.5
 41
  0.0
  1
10･H､W\P50･H､U
 71
5
  7
Font_0
  0
TEXT
  5
259
100
AcDbEntity
  8
0
100
AcDbText
  6
BYLAYER
 10
246.13735
 20
136.74
 40
1.5
  1
±1°
  7
Font_0
 72
1
 11
248.01235
 21
137.49
100
AcDbText
 73
2
  0
TEXT
  5
25A
100
AcDbEntity
  8
0
100
AcDbText
  6
BYLAYER
 10
254.8195375
 20
136.74
 40
1.5
  1
±30'
  7
Font_0
 72
1
 11
256.6945375
 21
137.49
100
AcDbText
 73
2
  0
TEXT
  5
25B
100
AcDbEntity
  8
0
100
AcDbText
  6
BYLAYER
 10
245.76235
 20
144.733125
 40
1.5
  1
10･H､U
  7
Font_0
 72
1
 11
248.01235
 21
145.483125
100
AcDbText
 73
2
  0
TEXT
  5
25C
100
AcDbEntity
  8
0
100
AcDbText
  6
BYLAYER
 10
263.501725
 20
136.74
 40
1.5
  1
±20'
  7
Font_0
 72
1
 11
265.376725
 21
137.49
100
AcDbText
 73
2
  0
MTEXT
  5
25D
100
AcDbEntity
  8
0
100
AcDbMText
 10
265.376725
 20
145.483125
 40
1.5
 41
  0.0
  1
50･H､W\P100･H､U
 71
5
  7
Font_0
  0
LINE
  5
25E
100
AcDbEntity
  8
0
100
AcDbLine
  6
BYLAYER
 10
221.07
 20
155.68125
 11
278.4
 21
155.68125
  0
LINE
  5
25F
100
AcDbEntity
  8
0
100
AcDbLine
  6
BYLAYER
 10
221.07
 20
160.09125
 11
278.4
 21
160.09125
  0
LINE
  5
260
100
AcDbEntity
  8
0
100
AcDbLine
  6
BYLAYER
 10
221.07
 20
164.50125
 11
278.4
 21
164.50125
  0
LINE
  5
261
100
AcDbEntity
  8
0
100
AcDbLine
  6
BYLAYER
 10
221.07
 20
168.91125
 11
278.4
 21
168.91125
  0
LINE
  5
262
100
AcDbEntity
  8
0
100
AcDbLine
  6
BYLAYER
 10
221.07
 20
173.32125
 11
278.4
 21
173.32125
  0
LINE
  5
263
100
AcDbEntity
  8
0
100
AcDbLine
  6
BYLAYER
 10
216.66
 20
151.27125
 11
278.4
 21
151.27125
  0
LINE
  5
264
100
AcDbEntity
  8
0
100
AcDbLine
  6
BYLAYER
 10
216.66
 20
180.4875
 11
278.4
 21
180.4875
  0
TEXT
  5
265
100
AcDbEntity
  8
0
100
AcDbText
  6
BYLAYER
 10
269.1119
 20
175.154375
 40
3.5
  1
ｲﾊｯﾅ
  7
Font_0
 72
1
 11
272.6119
 21
176.904375
100
AcDbText
 73
2
  0
LINE
  5
266
100
AcDbEntity
  8
0
100
AcDbLine
  6
BYLAYER
 10
243.67125
 20
173.32125
 11
232.06971689676
 21
180.4875
  0
TEXT
  5
267
100
AcDbEntity
  8
0
100
AcDbText
  6
BYLAYER
 10
230.03
 20
181.49375
 40
3.5
  1
ｦｨ ｫ~ ､ｧ ｴｶ ｳq ､ｽ ｮt
  7
Font_0
 72
1
 11
247.53
 21
183.24375
100
AcDbText
 73
2
  0
TEXT
  5
268
100
AcDbEntity
  8
0
100
AcDbText
  6
BYLAYER
 10
228.24565
 20
170.36625
 40
1.5
  1
1･H､W~4･H､U
  7
Font_0
 72
1
 11
232.37065
 21
171.11625
100
AcDbText
 73
2
  0
TEXT
  5
269
100
AcDbEntity
  8
0
100
AcDbText
  6
BYLAYER
 10
227.49565
 20
161.54625
 40
1.5
  1
16･H､W~63･H､U
  7
Font_0
 72
1
 11
232.37065
 21
162.29625
100
AcDbText
 73
2
  0
TEXT
  5
26A
100
AcDbEntity
  8
0
100
AcDbText
  6
BYLAYER
 10
227.12065
 20
157.13625
 40
1.5
  1
63･H､W~250･H､U
  7
Font_0
 72
1
 11
232.37065
 21
157.88625
100
AcDbText
 73
2
  0
TEXT
  5
26B
100
AcDbEntity
  8
0
100
AcDbText
  6
BYLAYER
 10
226.37065
 20
152.72625
 40
1.5
  1
250･H､W~1000･H､U
  7
Font_0
 72
1
 11
232.37065
 21
153.47625
100
AcDbText
 73
2
  0
MTEXT
  5
26C
100
AcDbEntity
  8
0
100
AcDbMText
 10
218.865
 20
168.879375
 40
3
 41
  0.0
  1
ｪﾗ
 71
4
  7
Font_1
 11
-1.83690953073357E-16
 21
-1
  0
TEXT
  5
26D
100
AcDbEntity
  8
0
100
AcDbText
  6
BYLAYER
 10
227.87065
 20
165.95625
 40
1.5
  1
4･H､W~16･H､U
  7
Font_0
 72
1
 11
232.37065
 21
166.70625
100
AcDbText
 73
2
  0
TEXT
  5
26E
100
AcDbEntity
  8
0
100
AcDbText
  6
BYLAYER
 10
221.354797302298
 20
174.015263609177
 40
1.7
  1
､ｽｺﾙ､ﾘ､oｹｺ､ﾀm/m
  7
Font_0
100
AcDbText
  0
TEXT
  5
26F
100
AcDbEntity
  8
0
100
AcDbText
  6
BYLAYER
 10
237.865638127741
 20
177.454836298923
 40
1.7
  1
ｵ･ｯﾅ
  7
Font_0
100
AcDbText
  0
LINE
  5
270
100
AcDbEntity
  8
0
100
AcDbLine
  6
BYLAYER
 10
266.82375
 20
151.27125
 11
266.82375
 21
180.4875
  0
LINE
  5
271
100
AcDbEntity
  8
0
100
AcDbLine
  6
BYLAYER
 10
255.2475
 20
151.27125
 11
255.2475
 21
180.4875
  0
TEXT
  5
272
100
AcDbEntity
  8
0
100
AcDbText
  6
BYLAYER
 10
247.2094
 20
170.36625
 40
1.5
  1
±0.05
  7
Font_0
 72
1
 11
249.4594
 21
171.11625
100
AcDbText
 73
2
  0
TEXT
  5
273
100
AcDbEntity
  8
0
100
AcDbText
  6
BYLAYER
 10
258.78565
 20
170.36625
 40
1.5
  1
±0.10
  7
Font_0
 72
1
 11
261.03565
 21
171.11625
100
AcDbText
 73
2
  0
TEXT
  5
274
100
AcDbEntity
  8
0
100
AcDbText
  6
BYLAYER
 10
270.3619
 20
170.36625
 40
1.5
  1
±0.30
  7
Font_0
 72
1
 11
272.6119
 21
171.11625
100
AcDbText
 73
2
  0
TEXT
  5
275
100
AcDbEntity
  8
0
100
AcDbText
  6
BYLAYER
 10
258.78565
 20
165.95625
 40
1.5
  1
±0.20
  7
Font_0
 72
1
 11
261.03565
 21
166.70625
100
AcDbText
 73
2
  0
TEXT
  5
276
100
AcDbEntity
  8
0
100
AcDbText
  6
BYLAYER
 10
258.78565
 20
161.54625
 40
1.5
  1
±0.30
  7
Font_0
 72
1
 11
261.03565
 21
162.29625
100
AcDbText
 73
2
  0
TEXT
  5
277
100
AcDbEntity
  8
0
100
AcDbText
  6
BYLAYER
 10
258.78565
 20
157.13625
 40
1.5
  1
±0.50
  7
Font_0
 72
1
 11
261.03565
 21
157.88625
100
AcDbText
 73
2
  0
TEXT
  5
278
100
AcDbEntity
  8
0
100
AcDbText
  6
BYLAYER
 10
258.78565
 20
152.72625
 40
1.5
  1
±0.80
  7
Font_0
 72
1
 11
261.03565
 21
153.47625
100
AcDbText
 73
2
  0
TEXT
  5
279
100
AcDbEntity
  8
0
100
AcDbText
  6
BYLAYER
 10
247.2094
 20
157.13625
 40
1.5
  1
±0.20
  7
Font_0
 72
1
 11
249.4594
 21
157.88625
100
AcDbText
 73
2
  0
TEXT
  5
27A
100
AcDbEntity
  8
0
100
AcDbText
  6
BYLAYER
 10
247.2094
 20
152.72625
 40
1.5
  1
±0.30
  7
Font_0
 72
1
 11
249.4594
 21
153.47625
100
AcDbText
 73
2
  0
TEXT
  5
27B
100
AcDbEntity
  8
0
100
AcDbText
  6
BYLAYER
 10
247.2094
 20
165.95625
 40
1.5
  1
±0.07
  7
Font_0
 72
1
 11
249.4594
 21
166.70625
100
AcDbText
 73
2
  0
TEXT
  5
27C
100
AcDbEntity
  8
0
100
AcDbText
  6
BYLAYER
 10
247.2094
 20
161.54625
 40
1.5
  1
±0.10
  7
Font_0
 72
1
 11
249.4594
 21
162.29625
100
AcDbText
 73
2
  0
TEXT
  5
27D
100
AcDbEntity
  8
0
100
AcDbText
  6
BYLAYER
 10
270.3619
 20
152.72625
 40
1.5
  1
±2.00
  7
Font_0
 72
1
 11
272.6119
 21
153.47625
100
AcDbText
 73
2
  0
TEXT
  5
27E
100
AcDbEntity
  8
0
100
AcDbText
  6
BYLAYER
 10
270.3619
 20
157.13625
 40
1.5
  1
±1.20
  7
Font_0
 72
1
 11
272.6119
 21
157.88625
100
AcDbText
 73
2
  0
TEXT
  5
27F
100
AcDbEntity
  8
0
100
AcDbText
  6
BYLAYER
 10
270.3619
 20
161.54625
 40
1.5
  1
±0.70
  7
Font_0
 72
1
 11
272.6119
 21
162.29625
100
AcDbText
 73
2
  0
TEXT
  5
280
100
AcDbEntity
  8
0
100
AcDbText
  6
BYLAYER
 10
270.3619
 20
165.95625
 40
1.5
  1
±0.50
  7
Font_0
 72
1
 11
272.6119
 21
166.70625
100
AcDbText
 73
2
  0
TEXT
  5
281
100
AcDbEntity
  8
0
100
AcDbText
  6
BYLAYER
 10
257.5356
 20
175.154375
 40
3.5
  1
､､ｯﾅ
  7
Font_0
 72
1
 11
261.0356
 21
176.904375
100
AcDbText
 73
2
  0
TEXT
  5
282
100
AcDbEntity
  8
0
100
AcDbText
  6
BYLAYER
 10
245.9594
 20
175.154375
 40
3.5
  1
ｲﾓｯﾅ
  7
Font_0
 72
1
 11
249.4594
 21
176.904375
100
AcDbText
 73
2
  0
ENDBLK
  5
283
100
AcDbEntity
  8
0
 67
     1
100
AcDbBlockEnd
  0
BLOCK
  5
284
100
AcDbEntity
  8
0
100
AcDbBlockBegin
  2
A4ｹﾏｮﾘ
 70
    0
 10
0
 20
0
 30
0.0
  3
A4ｹﾏｮﾘ
  1

  0
POINT
  5
285
100
AcDbEntity
  8
7475A
100
AcDbPoint
 10
289
 20
0
  0
LINE
  5
286
100
AcDbEntity
  8
0
100
AcDbLine
  6
BYLAYER
 10
0
 20
12
 11
278.4
 21
12
  0
LINE
  5
287
100
AcDbEntity
  8
0
100
AcDbLine
  6
BYLAYER
 10
0
 20
6
 11
278.4
 21
6
  0
LINE
  5
288
100
AcDbEntity
  8
0
100
AcDbLine
  6
BYLAYER
 10
96.85
 20
30
 11
278.4
 21
30
  0
LINE
  5
289
100
AcDbEntity
  8
0
100
AcDbLine
  6
BYLAYER
 10
96.85
 20
24
 11
278.4
 21
24
  0
LINE
  5
28A
100
AcDbEntity
  8
0
100
AcDbLine
  6
BYLAYER
 10
96.85
 20
18
 11
278.4
 21
18
  0
TEXT
  5
28B
100
AcDbEntity
  8
0
100
AcDbText
  6
BYLAYER
 10
22.1680110084321
 20
15.7553550725962
 40
2.8
  1
CAM YORK INDUSTRIAL CO.,LTD.
  7
Font_0
100
AcDbText
  0
TEXT
  5
28C
100
AcDbEntity
  8
0
100
AcDbText
  6
BYLAYER
 10
22.0468952754036
 20
26
 40
7
  1
ｫﾘｷﾔ､uｷ~ｪﾑ･ｳｭｭ､ｽ･q
  7
Font_0
100
AcDbText
  0
TEXT
  5
28D
100
AcDbEntity
  8
0
100
AcDbText
  6
BYLAYER
 10
63.8643398403977
 20
7.09411371042404
 40
2.8
  1
(04)3322629
  7
Font_0
100
AcDbText
  0
LINE
  5
28E
100
AcDbEntity
  8
0
100
AcDbLine
  6
BYLAYER
 10
10.1054905349494
 20
28.7603510666656
 11
15.2233703294355
 21
28.7603510666656
  0
CIRCLE
  5
28F
100
AcDbEntity
  8
0
100
AcDbCircle
  6
BYLAYER
 10
10.1054905349494
 20
24.350263158651
 40
9.36463111331499
  0
CIRCLE
  5
290
100
AcDbEntity
  8
0
100
AcDbCircle
  6
BYLAYER
 10
10.1054905349494
 20
24.350263158651
 40
7.62237416200057
  0
ARC
  5
291
100
AcDbEntity
  8
0
100
AcDbCircle
  6
BYLAYER
 10
10.1054905349494
 20
24.350263158651
 40
4.41008790801462
100
AcDbArc
 50
90
 51
0
  0
LINE
  5
292
100
AcDbEntity
  8
0
100
AcDbLine
  6
BYLAYER
 10
13
 20
12
 11
13
 21
0
  0
TEXT
  5
293
100
AcDbEntity
  8
0
100
AcDbText
  6
BYLAYER
 10
2.6
 20
7.3
 40
3
  1
TEL
  7
Font_0
100
AcDbText
  0
TEXT
  5
294
100
AcDbEntity
  8
0
100
AcDbText
  6
BYLAYER
 10
3.5
 20
1.5
 40
3
  1
ｳﾆｵ�
  7
Font_0
 72
1
 11
6.5
 21
3
100
AcDbText
 73
2
  0
ARC
  5
295
100
AcDbEntity
  8
0
100
AcDbCircle
  6
BYLAYER
 10
10.5745216067836
 20
32.8983997393573
 40
0.704372460813671
100
AcDbArc
 50
83.8529806316668
 51
239.250071636948
  0
ARC
  5
296
100
AcDbEntity
  8
0
100
AcDbCircle
  6
BYLAYER
 10
6.23761506796892
 20
31.9876821284788
 40
0.704372460813671
100
AcDbArc
 50
113.852980631667
 51
269.250071636948
  0
ARC
  5
297
100
AcDbEntity
  8
0
100
AcDbCircle
  6
BYLAYER
 10
2.46807156512152
 20
20.4823876916705
 40
0.704372460813671
100
AcDbArc
 50
203.852980631667
 51
359.250071636948
  0
ARC
  5
298
100
AcDbEntity
  8
0
100
AcDbCircle
  6
BYLAYER
 10
9.63645946311512
 20
15.8021265779447
 40
0.704372460813671
100
AcDbArc
 50
263.852980631667
 51
59.2500716369476
  0
ARC
  5
299
100
AcDbEntity
  8
0
100
AcDbCircle
  6
BYLAYER
 10
5.4252294212235
 20
17.1818752606574
 40
0.704372460813671
100
AcDbArc
 50
233.852980631667
 51
29.2500716369476
  0
ARC
  5
29A
100
AcDbEntity
  8
0
100
AcDbCircle
  6
BYLAYER
 10
1.55735395424306
 20
24.8192942304852
 40
0.704372460813671
100
AcDbArc
 50
173.852980631667
 51
329.250071636948
  0
ARC
  5
29B
100
AcDbEntity
  8
0
100
AcDbCircle
  6
BYLAYER
 10
2.93710263695578
 20
29.0305242723768
 40
0.704372460813671
100
AcDbArc
 50
143.852980631667
 51
299.250071636948
  0
TEXT
  5
29C
100
AcDbEntity
  8
0
100
AcDbText
  6
BYLAYER
 10
7.49210581170385
 20
21.8477388856442
 40
5
  1
Y
  7
Font_0
100
AcDbText
  0
TEXT
  5
29D
100
AcDbEntity
  8
0
100
AcDbText
  6
BYLAYER
 10
42.3478047909238
 20
7.2
 40
2.8
  1
~8
  7
Font_0
100
AcDbText
  0
TEXT
  5
29E
100
AcDbEntity
  8
0
100
AcDbText
  6
BYLAYER
 10
13.8764304985659
 20
7.2
 40
2.8
  1
(04)3322627
  7
Font_0
100
AcDbText
  0
TEXT
  5
29F
100
AcDbEntity
  8
0
100
AcDbText
  6
BYLAYER
 10
51
 20
7.2
 40
3
  1
FAX
  7
Font_0
100
AcDbText
  0
LINE
  5
2A0
100
AcDbEntity
  8
0
100
AcDbLine
  6
BYLAYER
 10
48
 20
12
 11
48
 21
6
  0
LINE
  5
2A1
100
AcDbEntity
  8
0
100
AcDbLine
  6
BYLAYER
 10
62
 20
12
 11
62
 21
6
  0
ARC
  5
2A2
100
AcDbEntity
  8
0
100
AcDbCircle
  6
BYLAYER
 10
14.7857516486752
 20
31.5186510566446
 40
0.704372460813671
100
AcDbArc
 50
53.8529806316668
 51
209.250071636948
  0
ARC
  5
2A3
100
AcDbEntity
  8
0
100
AcDbCircle
  6
BYLAYER
 10
17.273878432943
 20
19.6700020449251
 40
0.704372460813671
100
AcDbArc
 50
323.852980631667
 51
119.250071636948
  0
ARC
  5
2A4
100
AcDbEntity
  8
0
100
AcDbCircle
  6
BYLAYER
 10
13.9733660019298
 20
16.7128441888231
 40
0.704372460813671
100
AcDbArc
 50
293.852980631667
 51
89.2500716369476
  0
LINE
  5
2A5
100
AcDbEntity
  8
0
100
AcDbLine
  6
BYLAYER
 10
14.515578442964
 20
24.350263158651
 11
15.4411524483498
 21
24.350263158651
  0
ARC
  5
2A6
100
AcDbEntity
  8
0
100
AcDbCircle
  6
BYLAYER
 10
18.6536271156557
 20
23.8812320868167
 40
0.704372460813671
100
AcDbArc
 50
353.852980631667
 51
149.250071636948
  0
ARC
  5
2A7
100
AcDbEntity
  8
0
100
AcDbCircle
  6
BYLAYER
 10
17.7429095047772
 20
28.2181386256314
 40
0.704372460813671
100
AcDbArc
 50
23.8529806316668
 51
179.250071636948
  0
TEXT
  5
2A8
100
AcDbEntity
  8
0
100
AcDbText
  6
BYLAYER
 10
100.4
 20
7.4
 40
3
  1
ｫ~ ｦW
  7
Font_0
100
AcDbText
  0
LINE
  5
2A9
100
AcDbEntity
  8
0
100
AcDbLine
  6
BYLAYER
 10
144
 20
36
 11
144
 21
0
  0
LINE
  5
2AA
100
AcDbEntity
  8
0
100
AcDbLine
  6
BYLAYER
 10
114
 20
36
 11
114
 21
0
  0
TEXT
  5
2AB
100
AcDbEntity
  8
0
100
AcDbText
  6
BYLAYER
 10
100.4
 20
1.6
 40
3
  1
ｹﾏ ｸｹ
  7
Font_0
100
AcDbText
  0
TEXT
  5
2AC
100
AcDbEntity
  8
0
100
AcDbText
  6
BYLAYER
 10
100.4
 20
31.6
 40
3
  1
･D ｺﾞ
  7
Font_0
100
AcDbText
  0
TEXT
  5
2AD
100
AcDbEntity
  8
0
100
AcDbText
  6
BYLAYER
 10
100.4
 20
19.6
 40
3
  1
ﾃｸ ｹﾏ
  7
Font_0
100
AcDbText
  0
TEXT
  5
2AE
100
AcDbEntity
  8
0
100
AcDbText
  6
BYLAYER
 10
100.4
 20
13.8
 40
3
  1
ｾ� ｺﾘ
  7
Font_0
100
AcDbText
  0
TEXT
  5
2AF
100
AcDbEntity
  8
0
100
AcDbText
  6
BYLAYER
 10
100.4
 20
25.4
 40
3
  1
ｮﾖ ｹ�
  7
Font_0
100
AcDbText
  0
LINE
  5
2B0
100
AcDbEntity
  8
0
100
AcDbLine
  6
BYLAYER
 10
163
 20
36
 11
163
 21
0
  0
TEXT
  5
2B1
100
AcDbEntity
  8
0
100
AcDbText
  6
BYLAYER
 10
146.967830348543
 20
7.5
 40
3
  1
ｪ揵ｱｳBｲz
  7
Font_0
100
AcDbText
  0
TEXT
  5
2B2
100
AcDbEntity
  8
0
100
AcDbText
  6
BYLAYER
 10
146.967830348543
 20
1.5
 40
3
  1
ｻsｹﾏ､魘ﾁ
  7
Font_0
100
AcDbText
  0
TEXT
  5
2B3
100
AcDbEntity
  8
0
100
AcDbText
  6
BYLAYER
 10
148.5
 20
31.5
 40
3
  1
ｧ� ｽ�
  7
Font_0
100
AcDbText
  0
TEXT
  5
2B4
100
AcDbEntity
  8
0
100
AcDbText
  6
BYLAYER
 10
148.5
 20
19.5
 40
3
  1
ｼﾆ ｶq
  7
Font_0
100
AcDbText
  0
TEXT
  5
2B5
100
AcDbEntity
  8
0
100
AcDbText
  6
BYLAYER
 10
148.5
 20
13.5
 40
3
  1
ｳ� ｦ�
  7
Font_0
100
AcDbText
  0
TEXT
  5
2B6
100
AcDbEntity
  8
0
100
AcDbText
  6
BYLAYER
 10
148.5
 20
25.5
 40
3
  1
､� ｨﾒ
  7
Font_0
100
AcDbText
  0
TEXT
  5
2B7
100
AcDbEntity
  8
0
100
AcDbText
  6
BYLAYER
 10
200.830454348633
 20
31.5
 40
3
  1
､魘ﾁ
  7
Font_0
100
AcDbText
  0
LINE
  5
2B8
100
AcDbEntity
  8
0
100
AcDbLine
  6
BYLAYER
 10
269.7178125
 20
135.285
 11
269.7178125
 21
151.27125
  0
LINE
  5
2B9
100
AcDbEntity
  8
0
100
AcDbLine
  6
BYLAYER
 10
261.035625
 20
135.285
 11
261.035625
 21
151.27125
  0
LINE
  5
2BA
100
AcDbEntity
  8
0
100
AcDbLine
  6
BYLAYER
 10
252.3534375
 20
135.285
 11
252.3534375
 21
151.27125
  0
LINE
  5
2BB
100
AcDbEntity
  8
0
100
AcDbLine
  6
BYLAYER
 10
243.67125
 20
135.285
 11
243.67125
 21
180.4875
  0
LINE
  5
2BC
100
AcDbEntity
  8
0
100
AcDbLine
  6
BYLAYER
 10
221.07
 20
135.285
 11
221.07
 21
180.4875
  0
LINE
  5
2BD
100
AcDbEntity
  8
0
100
AcDbLine
  6
BYLAYER
 10
216.66
 20
135.285
 11
216.66
 21
186
  0
LINE
  5
2BE
100
AcDbEntity
  8
0
100
AcDbLine
  6
BYLAYER
 10
213
 20
36
 11
213
 21
0
  0
LINE
  5
2BF
100
AcDbEntity
  8
0
100
AcDbLine
  6
BYLAYER
 10
232
 20
36
 11
232
 21
0
  0
TEXT
  5
2C0
100
AcDbEntity
  8
0
100
AcDbText
  6
BYLAYER
 10
235
 20
31.5
 40
3
  1
ｧ�   ｧ�   ､ｺ   ｮe
  7
Font_0
100
AcDbText
  0
TEXT
  5
2C1
100
AcDbEntity
  8
0
100
AcDbText
  6
BYLAYER
 10
218.659856969007
 20
31.5
 40
3
  1
ｭtｳd､H
  7
Font_0
100
AcDbText
  0
LINE
  5
2C2
100
AcDbEntity
  8
0
100
AcDbLine
  6
BYLAYER
 10
278.4
 20
139.695
 11
221.07
 21
139.695
  0
LINE
  5
2C3
100
AcDbEntity
  8
0
100
AcDbLine
  6
BYLAYER
 10
278.4
 20
135.285
 11
216.66
 21
135.285
  0
TEXT
  5
2C4
100
AcDbEntity
  8
0
100
AcDbText
  6
BYLAYER
 10
246.15416478566
 20
128.207003496756
 40
2
  1
projection ｲﾄ､Tｨ､ｧ�ｼv
  7
Font_0
100
AcDbText
  0
LINE
  5
2C5
100
AcDbEntity
  8
0
100
AcDbLine
  6
BYLAYER
 10
278.4
 20
113.78625
 11
243.67125
 21
113.78625
  0
TEXT
  5
2C6
100
AcDbEntity
  8
0
100
AcDbText
  6
BYLAYER
 10
271.4339125
 20
144.733125
 40
1.5
  1
100･H､W
  7
Font_0
 72
1
 11
274.0589125
 21
145.483125
100
AcDbText
 73
2
  0
TEXT
  5
2C7
100
AcDbEntity
  8
0
100
AcDbText
  6
BYLAYER
 10
272.1839125
 20
136.74
 40
1.5
  1
±10'
  7
Font_0
 72
1
 11
274.0589125
 21
137.49
100
AcDbText
 73
2
  0
MTEXT
  5
2C8
100
AcDbEntity
  8
0
100
AcDbMText
 10
232.37065
 20
145.483125
 40
2
 41
  0.0
  1
､ｽｺﾙ､ﾘ､o (ｪﾗ)\Pｧｨｦｨｨ､､ｧｵuﾃ荀@､�
 71
5
  7
Font_0
  0
TEXT
  5
2C9
100
AcDbEntity
  8
0
100
AcDbText
  6
BYLAYER
 10
217.365
 20
147.778125
 40
3
  1
ｪｽｨ､ｫﾗ
  7
Font_1
 50
270
 11
218.865
 21
147.778125
100
AcDbText
 73
2
  0
TEXT
  5
2CA
100
AcDbEntity
  8
0
100
AcDbText
  6
BYLAYER
 10
227.87065
 20
135.99
 40
3
  1
ｨ､ｫﾗｮt
  7
Font_0
 72
1
 11
232.37065
 21
137.49
100
AcDbText
 73
2
  0
LINE
  5
2CB
100
AcDbEntity
  8
0
100
AcDbLine
  6
BYLAYER
 10
254.802068029839
 20
115.173423624616
 11
254.802068029839
 21
126.198423624616
  0
LINE
  5
2CC
100
AcDbEntity
  8
0
100
AcDbLine
  6
BYLAYER
 10
243.67125
 20
113.78625
 11
243.67125
 21
135.285
  0
CIRCLE
  5
2CD
100
AcDbEntity
  8
0
100
AcDbCircle
  6
BYLAYER
 10
254.802068029839
 20
120.685923624616
 40
4.41
  0
LINE
  5
2CE
100
AcDbEntity
  8
0
100
AcDbLine
  6
BYLAYER
 10
249.289568029839
 20
120.685923624616
 11
260.314568029839
 21
120.685923624616
  0
CIRCLE
  5
2CF
100
AcDbEntity
  8
0
100
AcDbCircle
  6
BYLAYER
 10
254.802068029839
 20
120.685923624616
 40
2.205
  0
LINE
  5
2D0
100
AcDbEntity
  8
0
100
AcDbLine
  6
BYLAYER
 10
263.194180551461
 20
120.685923624616
 11
274.770430551461
 21
120.685923624616
  0
LWPOLYLINE
  5
2D1
100
AcDbEntity
  8
0
100
AcDbPolyline
  6
BYLAYER
370
0
 90
     4
 70
     1
 10
264.296680551461
  20
118.480923624616
 10
273.667930551461
  20
116.275923624616
 10
273.667930551461
  20
125.095923624616
 10
264.296680551461
  20
122.890923624616
  0
TEXT
  5
2D2
100
AcDbEntity
  8
0
100
AcDbText
  6
BYLAYER
 10
245.828721587618
 20
131.605971951227
 40
2
  1
Third angle
  7
Font_0
100
AcDbText
  0
MTEXT
  5
2D3
100
AcDbEntity
  8
0
100
AcDbMText
 10
256.6945375
 20
145.483125
 40
1.5
 41
  0.0
  1
10･H､W\P50･H､U
 71
5
  7
Font_0
  0
TEXT
  5
2D4
100
AcDbEntity
  8
0
100
AcDbText
  6
BYLAYER
 10
246.13735
 20
136.74
 40
1.5
  1
±1°
  7
Font_0
 72
1
 11
248.01235
 21
137.49
100
AcDbText
 73
2
  0
TEXT
  5
2D5
100
AcDbEntity
  8
0
100
AcDbText
  6
BYLAYER
 10
254.8195375
 20
136.74
 40
1.5
  1
±30'
  7
Font_0
 72
1
 11
256.6945375
 21
137.49
100
AcDbText
 73
2
  0
TEXT
  5
2D6
100
AcDbEntity
  8
0
100
AcDbText
  6
BYLAYER
 10
245.76235
 20
144.733125
 40
1.5
  1
10･H､U
  7
Font_0
 72
1
 11
248.01235
 21
145.483125
100
AcDbText
 73
2
  0
TEXT
  5
2D7
100
AcDbEntity
  8
0
100
AcDbText
  6
BYLAYER
 10
263.501725
 20
136.74
 40
1.5
  1
±20'
  7
Font_0
 72
1
 11
265.376725
 21
137.49
100
AcDbText
 73
2
  0
MTEXT
  5
2D8
100
AcDbEntity
  8
0
100
AcDbMText
 10
265.376725
 20
145.483125
 40
1.5
 41
  0.0
  1
50･H､W\P100･H､U
 71
5
  7
Font_0
  0
LINE
  5
2D9
100
AcDbEntity
  8
0
100
AcDbLine
  6
BYLAYER
 10
221.07
 20
155.68125
 11
278.4
 21
155.68125
  0
LINE
  5
2DA
100
AcDbEntity
  8
0
100
AcDbLine
  6
BYLAYER
 10
221.07
 20
160.09125
 11
278.4
 21
160.09125
  0
LINE
  5
2DB
100
AcDbEntity
  8
0
100
AcDbLine
  6
BYLAYER
 10
221.07
 20
164.50125
 11
278.4
 21
164.50125
  0
LINE
  5
2DC
100
AcDbEntity
  8
0
100
AcDbLine
  6
BYLAYER
 10
221.07
 20
168.91125
 11
278.4
 21
168.91125
  0
LINE
  5
2DD
100
AcDbEntity
  8
0
100
AcDbLine
  6
BYLAYER
 10
221.07
 20
173.32125
 11
278.4
 21
173.32125
  0
LINE
  5
2DE
100
AcDbEntity
  8
0
100
AcDbLine
  6
BYLAYER
 10
216.66
 20
151.27125
 11
278.4
 21
151.27125
  0
LINE
  5
2DF
100
AcDbEntity
  8
0
100
AcDbLine
  6
BYLAYER
 10
216.66
 20
180.4875
 11
278.4
 21
180.4875
  0
TEXT
  5
2E0
100
AcDbEntity
  8
0
100
AcDbText
  6
BYLAYER
 10
269.1119
 20
175.154375
 40
3.5
  1
ｲﾊｯﾅ
  7
Font_0
 72
1
 11
272.6119
 21
176.904375
100
AcDbText
 73
2
  0
LINE
  5
2E1
100
AcDbEntity
  8
0
100
AcDbLine
  6
BYLAYER
 10
243.67125
 20
173.32125
 11
232.06971689676
 21
180.4875
  0
TEXT
  5
2E2
100
AcDbEntity
  8
0
100
AcDbText
  6
BYLAYER
 10
230.03
 20
181.49375
 40
3.5
  1
ｦｨ ｫ~ ､ｧ ｴｶ ｳq ､ｽ ｮt
  7
Font_0
 72
1
 11
247.53
 21
183.24375
100
AcDbText
 73
2
  0
TEXT
  5
2E3
100
AcDbEntity
  8
0
100
AcDbText
  6
BYLAYER
 10
228.24565
 20
170.36625
 40
1.5
  1
1･H､W~4･H､U
  7
Font_0
 72
1
 11
232.37065
 21
171.11625
100
AcDbText
 73
2
  0
TEXT
  5
2E4
100
AcDbEntity
  8
0
100
AcDbText
  6
BYLAYER
 10
227.49565
 20
161.54625
 40
1.5
  1
16･H､W~63･H､U
  7
Font_0
 72
1
 11
232.37065
 21
162.29625
100
AcDbText
 73
2
  0
TEXT
  5
2E5
100
AcDbEntity
  8
0
100
AcDbText
  6
BYLAYER
 10
227.12065
 20
157.13625
 40
1.5
  1
63･H､W~250･H､U
  7
Font_0
 72
1
 11
232.37065
 21
157.88625
100
AcDbText
 73
2
  0
TEXT
  5
2E6
100
AcDbEntity
  8
0
100
AcDbText
  6
BYLAYER
 10
226.37065
 20
152.72625
 40
1.5
  1
250･H､W~1000･H､U
  7
Font_0
 72
1
 11
232.37065
 21
153.47625
100
AcDbText
 73
2
  0
MTEXT
  5
2E7
100
AcDbEntity
  8
0
100
AcDbMText
 10
218.865
 20
168.879375
 40
3
 41
  0.0
  1
ｪﾗ
 71
4
  7
Font_1
 11
-1.83690953073357E-16
 21
-1
  0
TEXT
  5
2E8
100
AcDbEntity
  8
0
100
AcDbText
  6
BYLAYER
 10
227.87065
 20
165.95625
 40
1.5
  1
4･H､W~16･H､U
  7
Font_0
 72
1
 11
232.37065
 21
166.70625
100
AcDbText
 73
2
  0
TEXT
  5
2E9
100
AcDbEntity
  8
0
100
AcDbText
  6
BYLAYER
 10
221.354797302298
 20
174.015263609177
 40
1.7
  1
､ｽｺﾙ､ﾘ､oｹｺ､ﾀm/m
  7
Font_0
100
AcDbText
  0
TEXT
  5
2EA
100
AcDbEntity
  8
0
100
AcDbText
  6
BYLAYER
 10
237.865638127741
 20
177.454836298923
 40
1.7
  1
ｵ･ｯﾅ
  7
Font_0
100
AcDbText
  0
LINE
  5
2EB
100
AcDbEntity
  8
0
100
AcDbLine
  6
BYLAYER
 10
266.82375
 20
151.27125
 11
266.82375
 21
180.4875
  0
LINE
  5
2EC
100
AcDbEntity
  8
0
100
AcDbLine
  6
BYLAYER
 10
255.2475
 20
151.27125
 11
255.2475
 21
180.4875
  0
TEXT
  5
2ED
100
AcDbEntity
  8
0
100
AcDbText
  6
BYLAYER
 10
247.2094
 20
170.36625
 40
1.5
  1
±0.05
  7
Font_0
 72
1
 11
249.4594
 21
171.11625
100
AcDbText
 73
2
  0
TEXT
  5
2EE
100
AcDbEntity
  8
0
100
AcDbText
  6
BYLAYER
 10
258.78565
 20
170.36625
 40
1.5
  1
±0.10
  7
Font_0
 72
1
 11
261.03565
 21
171.11625
100
AcDbText
 73
2
  0
TEXT
  5
2EF
100
AcDbEntity
  8
0
100
AcDbText
  6
BYLAYER
 10
270.3619
 20
170.36625
 40
1.5
  1
±0.30
  7
Font_0
 72
1
 11
272.6119
 21
171.11625
100
AcDbText
 73
2
  0
TEXT
  5
2F0
100
AcDbEntity
  8
0
100
AcDbText
  6
BYLAYER
 10
258.78565
 20
165.95625
 40
1.5
  1
±0.20
  7
Font_0
 72
1
 11
261.03565
 21
166.70625
100
AcDbText
 73
2
  0
TEXT
  5
2F1
100
AcDbEntity
  8
0
100
AcDbText
  6
BYLAYER
 10
258.78565
 20
161.54625
 40
1.5
  1
±0.30
  7
Font_0
 72
1
 11
261.03565
 21
162.29625
100
AcDbText
 73
2
  0
TEXT
  5
2F2
100
AcDbEntity
  8
0
100
AcDbText
  6
BYLAYER
 10
258.78565
 20
157.13625
 40
1.5
  1
±0.50
  7
Font_0
 72
1
 11
261.03565
 21
157.88625
100
AcDbText
 73
2
  0
TEXT
  5
2F3
100
AcDbEntity
  8
0
100
AcDbText
  6
BYLAYER
 10
258.78565
 20
152.72625
 40
1.5
  1
±0.80
  7
Font_0
 72
1
 11
261.03565
 21
153.47625
100
AcDbText
 73
2
  0
TEXT
  5
2F4
100
AcDbEntity
  8
0
100
AcDbText
  6
BYLAYER
 10
247.2094
 20
157.13625
 40
1.5
  1
±0.20
  7
Font_0
 72
1
 11
249.4594
 21
157.88625
100
AcDbText
 73
2
  0
TEXT
  5
2F5
100
AcDbEntity
  8
0
100
AcDbText
  6
BYLAYER
 10
247.2094
 20
152.72625
 40
1.5
  1
±0.30
  7
Font_0
 72
1
 11
249.4594
 21
153.47625
100
AcDbText
 73
2
  0
TEXT
  5
2F6
100
AcDbEntity
  8
0
100
AcDbText
  6
BYLAYER
 10
247.2094
 20
165.95625
 40
1.5
  1
±0.07
  7
Font_0
 72
1
 11
249.4594
 21
166.70625
100
AcDbText
 73
2
  0
TEXT
  5
2F7
100
AcDbEntity
  8
0
100
AcDbText
  6
BYLAYER
 10
247.2094
 20
161.54625
 40
1.5
  1
±0.10
  7
Font_0
 72
1
 11
249.4594
 21
162.29625
100
AcDbText
 73
2
  0
TEXT
  5
2F8
100
AcDbEntity
  8
0
100
AcDbText
  6
BYLAYER
 10
270.3619
 20
152.72625
 40
1.5
  1
±2.00
  7
Font_0
 72
1
 11
272.6119
 21
153.47625
100
AcDbText
 73
2
  0
TEXT
  5
2F9
100
AcDbEntity
  8
0
100
AcDbText
  6
BYLAYER
 10
270.3619
 20
157.13625
 40
1.5
  1
±1.20
  7
Font_0
 72
1
 11
272.6119
 21
157.88625
100
AcDbText
 73
2
  0
TEXT
  5
2FA
100
AcDbEntity
  8
0
100
AcDbText
  6
BYLAYER
 10
270.3619
 20
161.54625
 40
1.5
  1
±0.70
  7
Font_0
 72
1
 11
272.6119
 21
162.29625
100
AcDbText
 73
2
  0
TEXT
  5
2FB
100
AcDbEntity
  8
0
100
AcDbText
  6
BYLAYER
 10
270.3619
 20
165.95625
 40
1.5
  1
±0.50
  7
Font_0
 72
1
 11
272.6119
 21
166.70625
100
AcDbText
 73
2
  0
TEXT
  5
2FC
100
AcDbEntity
  8
0
100
AcDbText
  6
BYLAYER
 10
257.5356
 20
175.154375
 40
3.5
  1
､､ｯﾅ
  7
Font_0
 72
1
 11
261.0356
 21
176.904375
100
AcDbText
 73
2
  0
TEXT
  5
2FD
100
AcDbEntity
  8
0
100
AcDbText
  6
BYLAYER
 10
245.9594
 20
175.154375
 40
3.5
  1
ｲﾓｯﾅ
  7
Font_0
 72
1
 11
249.4594
 21
176.904375
100
AcDbText
 73
2
  0
LWPOLYLINE
  5
2FE
100
AcDbEntity
  8
0
100
AcDbPolyline
  6
BYLAYER
370
20
 90
     4
 70
     1
 10
0
  20
0
 10
0
  20
186
 10
278.4
  20
186
 10
278.4
  20
0
  0
LWPOLYLINE
  5
2FF
100
AcDbEntity
  8
0
100
AcDbPolyline
  6
BYLAYER
370
20
 90
     2
 10
0
  20
36
 10
278.4
  20
36
  0
LWPOLYLINE
  5
300
100
AcDbEntity
  8
0
100
AcDbPolyline
  6
BYLAYER
370
20
 90
     2
 10
195.15
  20
36
 10
195.15
  20
0
  0
LWPOLYLINE
  5
301
100
AcDbEntity
  8
0
100
AcDbPolyline
  6
BYLAYER
370
20
 90
     2
 10
96.85
  20
36
 10
96.85
  20
0
  0
ENDBLK
  5
302
100
AcDbEntity
  8
0
 67
     1
100
AcDbBlockEnd
  0
BLOCK
  5
303
100
AcDbEntity
  8
0
100
AcDbBlockBegin
  2
A
 70
    0
 10
0
 20
0
 30
0.0
  3
A
  1

  0
LWPOLYLINE
  5
304
100
AcDbEntity
  8
0
100
AcDbPolyline
  6
BYLAYER
370
0
 90
     3
 70
     1
 10
-1.5
  20
-0.866025403784434
 10
-0.5
  20
-0.866025403784434
 10
-1
  20
0
  0
LWPOLYLINE
  5
305
100
AcDbEntity
  8
0
100
AcDbPolyline
  6
BYLAYER
370
0
 90
     3
 70
     1
 10
0.5
  20
-0.866025403784434
 10
1.5
  20
-0.866025403784434
 10
1
  20
0
  0
LWPOLYLINE
  5
306
100
AcDbEntity
  8
0
100
AcDbPolyline
  6
BYLAYER
370
0
 90
     3
 70
     1
 10
-0.5
  20
-0.866025403784434
 10
0.5
  20
-0.866025403784434
 10
0
  20
0
  0
ENDBLK
  5
307
100
AcDbEntity
  8
0
 67
     1
100
AcDbBlockEnd
  0
BLOCK
  5
308
100
AcDbEntity
  8
0
100
AcDbBlockBegin
  2
JAME
 70
    0
 10
0
 20
0
 30
0.0
  3
JAME
  1

  0
TEXT
  5
309
100
AcDbEntity
  8
0
100
AcDbText
  6
BYLAYER
 10
200.830454348633
 20
31.5
 40
3
  1
､魘ﾁ
  7
Font_0
100
AcDbText
  0
LINE
  5
30A
100
AcDbEntity
  8
0
100
AcDbLine
  6
BYLAYER
 10
0
 20
12
 11
278.4
 21
12
  0
LINE
  5
30B
100
AcDbEntity
  8
0
100
AcDbLine
  6
BYLAYER
 10
0
 20
6
 11
278.4
 21
6
  0
LINE
  5
30C
100
AcDbEntity
  8
0
100
AcDbLine
  6
BYLAYER
 10
0
 20
0
 11
278.4
 21
0
  0
LINE
  5
30D
100
AcDbEntity
  8
0
100
AcDbLine
  6
BYLAYER
 10
96.85
 20
30
 11
278.4
 21
30
  0
LINE
  5
30E
100
AcDbEntity
  8
0
100
AcDbLine
  6
BYLAYER
 10
96.85
 20
24
 11
278.4
 21
24
  0
LINE
  5
30F
100
AcDbEntity
  8
0
100
AcDbLine
  6
BYLAYER
 10
96.85
 20
18
 11
278.4
 21
18
  0
LWPOLYLINE
  5
310
100
AcDbEntity
  8
0
100
AcDbPolyline
  6
BYLAYER
370
0
 90
     2
 70
     1
 10
0
  20
36
 10
278.4
  20
36
  0
LWPOLYLINE
  5
311
100
AcDbEntity
  8
0
100
AcDbPolyline
  6
BYLAYER
 90
     2
 70
     1
 10
278.4
  20
186
 10
0
  20
186
  0
LINE
  5
312
100
AcDbEntity
  8
0
100
AcDbLine
  6
BYLAYER
 10
0
 20
0
 11
0
 21
186
  0
TEXT
  5
313
100
AcDbEntity
  8
0
100
AcDbText
  6
BYLAYER
 10
63.8643398403977
 20
7.09411371042404
 40
2.8
  1
(04)23322629
  7
Font_0
100
AcDbText
  0
TEXT
  5
314
100
AcDbEntity
  8
0
100
AcDbText
  6
BYLAYER
 10
22.1680110084321
 20
15.7553550725962
 40
2.8
  1
CAM YORK INDUSTRIAL CO.,LTD.
  7
Font_0
100
AcDbText
  0
TEXT
  5
315
100
AcDbEntity
  8
0
100
AcDbText
  6
BYLAYER
 10
22.0468952754036
 20
26
 40
7
  1
ｫﾘｷﾔ､uｷ~ｪﾑ･ｳｭｭ､ｽ･q
  7
Font_0
100
AcDbText
  0
ARC
  5
316
100
AcDbEntity
  8
0
100
AcDbCircle
  6
BYLAYER
 10
5.4252294212235
 20
17.1818752606574
 40
0.704372460813671
100
AcDbArc
 50
233.852980631667
 51
29.2500716369477
  0
TEXT
  5
317
100
AcDbEntity
  8
0
100
AcDbText
  6
BYLAYER
 10
3.5
 20
1.5
 40
3
  1
ｳﾆｵ�
  7
Font_0
 72
1
 11
6.5
 21
3
100
AcDbText
 73
2
  0
TEXT
  5
318
100
AcDbEntity
  8
0
100
AcDbText
  6
BYLAYER
 10
2.6
 20
7.3
 40
3
  1
TEL
  7
Font_0
100
AcDbText
  0
ARC
  5
319
100
AcDbEntity
  8
0
100
AcDbCircle
  6
BYLAYER
 10
10.1054905349494
 20
24.350263158651
 40
4.41008790801462
100
AcDbArc
 50
90
 51
0
  0
CIRCLE
  5
31A
100
AcDbEntity
  8
0
100
AcDbCircle
  6
BYLAYER
 10
10.1054905349494
 20
24.350263158651
 40
7.62237416200057
  0
CIRCLE
  5
31B
100
AcDbEntity
  8
0
100
AcDbCircle
  6
BYLAYER
 10
10.1054905349494
 20
24.350263158651
 40
9.36463111331499
  0
ARC
  5
31C
100
AcDbEntity
  8
0
100
AcDbCircle
  6
BYLAYER
 10
6.23761506796892
 20
31.9876821284788
 40
0.704372460813671
100
AcDbArc
 50
113.852980631667
 51
269.250071636948
  0
ARC
  5
31D
100
AcDbEntity
  8
0
100
AcDbCircle
  6
BYLAYER
 10
2.46807156512152
 20
20.4823876916705
 40
0.704372460813671
100
AcDbArc
 50
203.852980631667
 51
359.250071636948
  0
ARC
  5
31E
100
AcDbEntity
  8
0
100
AcDbCircle
  6
BYLAYER
 10
1.55735395424306
 20
24.8192942304852
 40
0.704372460813671
100
AcDbArc
 50
173.852980631667
 51
329.250071636948
  0
ARC
  5
31F
100
AcDbEntity
  8
0
100
AcDbCircle
  6
BYLAYER
 10
2.93710263695578
 20
29.0305242723768
 40
0.704372460813671
100
AcDbArc
 50
143.852980631667
 51
299.250071636948
  0
LINE
  5
320
100
AcDbEntity
  8
0
100
AcDbLine
  6
BYLAYER
 10
62
 20
12
 11
62
 21
6
  0
TEXT
  5
321
100
AcDbEntity
  8
0
100
AcDbText
  6
BYLAYER
 10
51.8
 20
7.2
 40
3
  1
FAX
  7
Font_0
100
AcDbText
  0
LINE
  5
322
100
AcDbEntity
  8
0
100
AcDbLine
  6
BYLAYER
 10
49.4
 20
12
 11
49.4
 21
6
  0
TEXT
  5
323
100
AcDbEntity
  8
0
100
AcDbText
  6
BYLAYER
 10
43.3478047909238
 20
7.2
 40
2.8
  1
~8
  7
Font_0
100
AcDbText
  0
LINE
  5
324
100
AcDbEntity
  8
0
100
AcDbLine
  6
BYLAYER
 10
11.8
 20
12
 11
11.8
 21
0
  0
TEXT
  5
325
100
AcDbEntity
  8
0
100
AcDbText
  6
BYLAYER
 10
12.8764304985659
 20
7.2
 40
2.8
  1
(04)23322627
  7
Font_0
100
AcDbText
  0
ARC
  5
326
100
AcDbEntity
  8
0
100
AcDbCircle
  6
BYLAYER
 10
14.7857516486752
 20
31.5186510566446
 40
0.704372460813671
100
AcDbArc
 50
53.8529806316668
 51
209.250071636948
  0
ARC
  5
327
100
AcDbEntity
  8
0
100
AcDbCircle
  6
BYLAYER
 10
10.5745216067836
 20
32.8983997393573
 40
0.704372460813671
100
AcDbArc
 50
83.8529806316668
 51
239.250071636948
  0
ARC
  5
328
100
AcDbEntity
  8
0
100
AcDbCircle
  6
BYLAYER
 10
13.9733660019298
 20
16.7128441888231
 40
0.704372460813671
100
AcDbArc
 50
293.852980631667
 51
89.2500716369476
  0
ARC
  5
329
100
AcDbEntity
  8
0
100
AcDbCircle
  6
BYLAYER
 10
9.63645946311512
 20
15.8021265779447
 40
0.704372460813671
100
AcDbArc
 50
263.852980631667
 51
59.2500716369476
  0
ARC
  5
32A
100
AcDbEntity
  8
0
100
AcDbCircle
  6
BYLAYER
 10
17.273878432943
 20
19.6700020449251
 40
0.704372460813671
100
AcDbArc
 50
323.852980631667
 51
119.250071636948
  0
LINE
  5
32B
100
AcDbEntity
  8
0
100
AcDbLine
  6
BYLAYER
 10
14.515578442964
 20
24.350263158651
 11
15.4411524483498
 21
24.350263158651
  0
LINE
  5
32C
100
AcDbEntity
  8
0
100
AcDbLine
  6
BYLAYER
 10
10.1054905349494
 20
28.7603510666656
 11
15.2233703294355
 21
28.7603510666656
  0
TEXT
  5
32D
100
AcDbEntity
  8
0
100
AcDbText
  6
BYLAYER
 10
7.49210581170385
 20
21.8477388856442
 40
5
  1
Y
  7
Font_0
100
AcDbText
  0
ARC
  5
32E
100
AcDbEntity
  8
0
100
AcDbCircle
  6
BYLAYER
 10
18.6536271156557
 20
23.8812320868167
 40
0.704372460813671
100
AcDbArc
 50
353.852980631667
 51
149.250071636947
  0
ARC
  5
32F
100
AcDbEntity
  8
0
100
AcDbCircle
  6
BYLAYER
 10
17.7429095047772
 20
28.2181386256314
 40
0.704372460813671
100
AcDbArc
 50
23.8529806316668
 51
179.250071636948
  0
LINE
  5
330
100
AcDbEntity
  8
0
100
AcDbLine
  6
BYLAYER
 10
114
 20
36
 11
114
 21
0
  0
TEXT
  5
331
100
AcDbEntity
  8
0
100
AcDbText
  6
BYLAYER
 10
100.4
 20
7.4
 40
3
  1
ｫ~ ｦW
  7
Font_0
100
AcDbText
  0
LINE
  5
332
100
AcDbEntity
  8
0
100
AcDbLine
  6
BYLAYER
 10
97.15
 20
36
 11
97.15
 21
0
  0
LINE
  5
333
100
AcDbEntity
  8
0
100
AcDbLine
  6
BYLAYER
 10
96.85
 20
36
 11
96.85
 21
0
  0
LWPOLYLINE
  5
334
100
AcDbEntity
  8
0
100
AcDbPolyline
  6
BYLAYER
370
0
 90
     4
 10
96.85
  20
36
 10
96.85
  20
0
 10
97.15
  20
0
 10
97.15
  20
36
  0
TEXT
  5
335
100
AcDbEntity
  8
0
100
AcDbText
  6
BYLAYER
 10
100.4
 20
1.6
 40
3
  1
ｹﾏ ｸｹ
  7
Font_0
100
AcDbText
  0
TEXT
  5
336
100
AcDbEntity
  8
0
100
AcDbText
  6
BYLAYER
 10
100.4
 20
31.6
 40
3
  1
･D ｺﾞ
  7
Font_0
100
AcDbText
  0
TEXT
  5
337
100
AcDbEntity
  8
0
100
AcDbText
  6
BYLAYER
 10
100.4
 20
19.6
 40
3
  1
ﾃｸ ｹﾏ
  7
Font_0
100
AcDbText
  0
TEXT
  5
338
100
AcDbEntity
  8
0
100
AcDbText
  6
BYLAYER
 10
100.4
 20
25.4
 40
3
  1
ｮﾖ ｹ�
  7
Font_0
100
AcDbText
  0
TEXT
  5
339
100
AcDbEntity
  8
0
100
AcDbText
  6
BYLAYER
 10
100.316862435203
 20
13.8
 40
3
  1
ｾ� ｺﾘ
  7
Font_0
100
AcDbText
  0
LINE
  5
33A
100
AcDbEntity
  8
0
100
AcDbLine
  6
BYLAYER
 10
195.15
 20
36
 11
195.15
 21
0
  0
LINE
  5
33B
100
AcDbEntity
  8
0
100
AcDbLine
  6
BYLAYER
 10
194.85
 20
36
 11
194.85
 21
0
  0
LINE
  5
33C
100
AcDbEntity
  8
0
100
AcDbLine
  6
BYLAYER
 10
195.025
 20
36
 11
195.025
 21
0
  0
TEXT
  5
33D
100
AcDbEntity
  8
0
100
AcDbText
  6
BYLAYER
 10
146.967830348543
 20
7.5
 40
3
  1
ｻsｹﾏ､魘ﾁ
  7
Font_0
100
AcDbText
  0
LINE
  5
33E
100
AcDbEntity
  8
0
100
AcDbLine
  6
BYLAYER
 10
163
 20
36
 11
163
 21
0
  0
LINE
  5
33F
100
AcDbEntity
  8
0
100
AcDbLine
  6
BYLAYER
 10
144
 20
36
 11
144
 21
0
  0
TEXT
  5
340
100
AcDbEntity
  8
0
100
AcDbText
  6
BYLAYER
 10
147.076922819997
 20
1.5
 40
3
  1
ｹqｸ｣ｽsｸｹ
  7
Font_0
100
AcDbText
  0
TEXT
  5
341
100
AcDbEntity
  8
0
100
AcDbText
  6
BYLAYER
 10
148.5
 20
31.5
 40
3
  1
ｧ� ｽ�
  7
Font_0
100
AcDbText
  0
TEXT
  5
342
100
AcDbEntity
  8
0
100
AcDbText
  6
BYLAYER
 10
148.5
 20
25.5
 40
3
  1
ｼﾆ ｶq
  7
Font_0
100
AcDbText
  0
TEXT
  5
343
100
AcDbEntity
  8
0
100
AcDbText
  6
BYLAYER
 10
148.5
 20
19.5
 40
3
  1
ｳ� ｦ�
  7
Font_0
100
AcDbText
  0
TEXT
  5
344
100
AcDbEntity
  8
0
100
AcDbText
  6
BYLAYER
 10
146.967830348543
 20
13.5
 40
3
  1
ｪ揵ｱｳBｲz
  7
Font_0
100
AcDbText
  0
LINE
  5
345
100
AcDbEntity
  8
0
100
AcDbLine
  6
BYLAYER
 10
278.4
 20
186
 11
278.4
 21
0
  0
TEXT
  5
346
100
AcDbEntity
  8
0
100
AcDbText
  6
BYLAYER
 10
235
 20
31.5
 40
3
  1
ｧ�   ｧ�   ､ｺ   ｮe
  7
Font_0
100
AcDbText
  0
LINE
  5
347
100
AcDbEntity
  8
0
100
AcDbLine
  6
BYLAYER
 10
232
 20
36
 11
232
 21
0
  0
LINE
  5
348
100
AcDbEntity
  8
0
100
AcDbLine
  6
BYLAYER
 10
213
 20
36
 11
213
 21
0
  0
TEXT
  5
349
100
AcDbEntity
  8
0
100
AcDbText
  6
BYLAYER
 10
218.659856969007
 20
31.5
 40
3
  1
ｭtｳd､H
  7
Font_0
100
AcDbText
  0
ENDBLK
  5
34A
100
AcDbEntity
  8
0
 67
     1
100
AcDbBlockEnd
  0
BLOCK
  5
34B
100
AcDbEntity
  8
0
100
AcDbBlockBegin
  2
A$C45403A91
 70
    0
 10
0
 20
0
 30
0.0
  3
A$C45403A91
  1

  0
TEXT
  5
34C
100
AcDbEntity
  8
TEXT
100
AcDbText
  6
BYLAYER
 10
128.99999935823
 20
18.999999877444
 40
3.5
  1
JAME
  7
Font_0
100
AcDbText
  0
TEXT
  5
34D
100
AcDbEntity
  8
TEXT
100
AcDbText
  6
BYLAYER
 10
178.99999935823
 20
6.999999877444
 40
3.5
 41
0.8
  1
20020101
  7
Font_0
100
AcDbText
  0
TEXT
  5
34E
100
AcDbEntity
  8
TEXT
100
AcDbText
  6
BYLAYER
 10
178.99999935823
 20
18.999999877444
 40
3.5
  1
M/M
  7
Font_0
100
AcDbText
  0
TEXT
  5
34F
100
AcDbEntity
  8
TEXT
100
AcDbText
  6
BYLAYER
 10
178.99999935823
 20
24.999999877444
 40
3.5
  1
1
  7
Font_0
100
AcDbText
  0
TEXT
  5
350
100
AcDbEntity
  8
0
100
AcDbText
  6
BYLAYER
 10
3.82484717919783
 20
38.4479745601299
 40
5
  1
ｦCｦL､魘ﾁ :
  7
Font_0
100
AcDbText
  0
INSERT
  5
351
100
AcDbEntity
  8
0
100
AcDbBlockReference
  6
CONTINUOUS
  2
JAME
 10
-6.417694749E-7
 20
-1.225560027E-7
 30
0.0
  0
ENDBLK
  5
352
100
AcDbEntity
  8
0
 67
     1
100
AcDbBlockEnd
  0
BLOCK
  5
353
100
AcDbEntity
  8
0
100
AcDbBlockBegin
  2
A4
 70
    0
 10
0
 20
0
 30
0.0
  3
A4
  1

  0
TEXT
  5
354
100
AcDbEntity
  8
0
100
AcDbText
  6
BYLAYER
 10
175.438683813004
 20
100.151967612598
 40
3
  1
ｾ� ｺﾘ
  7
Font_0
100
AcDbText
  0
TEXT
  5
355
100
AcDbEntity
  8
0
100
AcDbText
  6
BYLAYER
 10
175.521821377801
 20
111.751967612598
 40
3
  1
ｮﾖ ｹ�
  7
Font_0
100
AcDbText
  0
TEXT
  5
356
100
AcDbEntity
  8
0
100
AcDbText
  6
BYLAYER
 10
175.521821377801
 20
105.951967612598
 40
3
  1
ﾃｸ ｹﾏ
  7
Font_0
100
AcDbText
  0
TEXT
  5
357
100
AcDbEntity
  8
0
100
AcDbText
  6
BYLAYER
 10
175.521821377801
 20
117.951967612598
 40
3
  1
･D ｺﾞ
  7
Font_0
100
AcDbText
  0
TEXT
  5
358
100
AcDbEntity
  8
0
100
AcDbText
  6
BYLAYER
 10
175.521821377801
 20
87.9519676125978
 40
3
  1
ｹﾏ ｸｹ
  7
Font_0
100
AcDbText
  0
TEXT
  5
359
100
AcDbEntity
  8
0
100
AcDbText
  6
BYLAYER
 10
175.521821377801
 20
93.7519676125978
 40
3
  1
ｫ~ ｦW
  7
Font_0
100
AcDbText
  0
LWPOLYLINE
  5
35A
100
AcDbEntity
  8
0
100
AcDbPolyline
  6
BYLAYER
 90
     2
 70
     1
 10
353.521821377801
  20
272.351967612598
 10
75.1218213778013
  20
272.351967612598
  0
LWPOLYLINE
  5
35B
100
AcDbEntity
  8
0
100
AcDbPolyline
  6
BYLAYER
370
0
 90
     2
 70
     1
 10
75.1218213778013
  20
122.351967612598
 10
353.521821377801
  20
122.351967612598
  0
LINE
  5
35C
100
AcDbEntity
  8
0
100
AcDbLine
  6
BYLAYER
 10
171.971821377801
 20
104.351967612598
 11
353.521821377801
 21
104.351967612598
  0
LINE
  5
35D
100
AcDbEntity
  8
0
100
AcDbLine
  6
BYLAYER
 10
171.971821377801
 20
110.351967612598
 11
353.521821377801
 21
110.351967612598
  0
LINE
  5
35E
100
AcDbEntity
  8
0
100
AcDbLine
  6
BYLAYER
 10
171.971821377801
 20
116.351967612598
 11
353.521821377801
 21
116.351967612598
  0
LINE
  5
35F
100
AcDbEntity
  8
0
100
AcDbLine
  6
BYLAYER
 10
75.1218213778013
 20
92.3519676125978
 11
353.521821377801
 21
92.3519676125978
  0
LINE
  5
360
100
AcDbEntity
  8
0
100
AcDbLine
  6
BYLAYER
 10
75.1218213778013
 20
98.3519676125978
 11
353.521821377801
 21
98.3519676125978
  0
LINE
  5
361
100
AcDbEntity
  8
0
100
AcDbLine
  6
BYLAYER
 10
75.1218213778013
 20
86.3519676125978
 11
353.521821377801
 21
86.3519676125978
  0
LINE
  5
362
100
AcDbEntity
  8
0
100
AcDbLine
  6
BYLAYER
 10
75.1218213778013
 20
86.3519676125978
 11
75.1218213778013
 21
272.351967612598
  0
TEXT
  5
363
100
AcDbEntity
  8
0
100
AcDbText
  6
BYLAYER
 10
97.1687166532049
 20
112.351967612598
 40
7
  1
ｫﾘｷﾔ､uｷ~ｪﾑ･ｳｭｭ､ｽ･q
  7
Font_0
100
AcDbText
  0
TEXT
  5
364
100
AcDbEntity
  8
0
100
AcDbText
  6
BYLAYER
 10
97.2898323862335
 20
102.107322685194
 40
2.8
  1
CAM YORK INDUSTRIAL CO.,LTD.
  7
Font_0
100
AcDbText
  0
TEXT
  5
365
100
AcDbEntity
  8
0
100
AcDbText
  6
BYLAYER
 10
118.469626168725
 20
93.5519676125978
 40
2.8
  1
~8
  7
Font_0
100
AcDbText
  0
TEXT
  5
366
100
AcDbEntity
  8
0
100
AcDbText
  6
BYLAYER
 10
87.9982518763672
 20
93.5519676125978
 40
2.8
  1
(04)23322627
  7
Font_0
100
AcDbText
  0
LINE
  5
367
100
AcDbEntity
  8
0
100
AcDbLine
  6
BYLAYER
 10
86.9218213778013
 20
98.3519676125978
 11
86.9218213778013
 21
86.3519676125978
  0
TEXT
  5
368
100
AcDbEntity
  8
0
100
AcDbText
  6
BYLAYER
 10
78.6218213778013
 20
87.8519676125978
 40
3
  1
ｳﾆｵ�
  7
Font_0
 72
1
 11
81.6218213778013
 21
89.3519676125978
100
AcDbText
 73
2
  0
CIRCLE
  5
369
100
AcDbEntity
  8
0
100
AcDbCircle
  6
BYLAYER
 10
85.2273119127507
 20
110.702230771249
 40
9.36463111331499
  0
ARC
  5
36A
100
AcDbEntity
  8
0
100
AcDbCircle
  6
BYLAYER
 10
93.775448493457
 20
110.233199699414
 40
0.704372460813671
100
AcDbArc
 50
353.852980631667
 51
149.250071636947
  0
CIRCLE
  5
36B
100
AcDbEntity
  8
0
100
AcDbCircle
  6
BYLAYER
 10
85.2273119127507
 20
110.702230771249
 40
7.62237416200057
  0
ARC
  5
36C
100
AcDbEntity
  8
0
100
AcDbCircle
  6
BYLAYER
 10
85.2273119127507
 20
110.702230771249
 40
4.41008790801462
100
AcDbArc
 50
90
 51
0
  0
ARC
  5
36D
100
AcDbEntity
  8
0
100
AcDbCircle
  6
BYLAYER
 10
78.0589240147571
 20
115.382491884975
 40
0.704372460813671
100
AcDbArc
 50
143.852980631667
 51
299.250071636948
  0
ARC
  5
36E
100
AcDbEntity
  8
0
100
AcDbCircle
  6
BYLAYER
 10
92.8647308825786
 20
114.570106238229
 40
0.704372460813671
100
AcDbArc
 50
23.8529806316666
 51
179.250071636947
  0
TEXT
  5
36F
100
AcDbEntity
  8
0
100
AcDbText
  6
BYLAYER
 10
77.7218213778013
 20
93.6519676125978
 40
3
  1
TEL
  7
Font_0
100
AcDbText
  0
ARC
  5
370
100
AcDbEntity
  8
0
100
AcDbCircle
  6
BYLAYER
 10
77.5898929429228
 20
106.834355304268
 40
0.704372460813671
100
AcDbArc
 50
203.852980631666
 51
359.250071636947
  0
ARC
  5
371
100
AcDbEntity
  8
0
100
AcDbCircle
  6
BYLAYER
 10
76.6791753320444
 20
111.171261843083
 40
0.704372460813671
100
AcDbArc
 50
173.852980631667
 51
329.250071636947
  0
ARC
  5
372
100
AcDbEntity
  8
0
100
AcDbCircle
  6
BYLAYER
 10
80.5470507990248
 20
103.533842873255
 40
0.704372460813671
100
AcDbArc
 50
233.852980631667
 51
29.2500716369476
  0
ARC
  5
373
100
AcDbEntity
  8
0
100
AcDbCircle
  6
BYLAYER
 10
84.7582808409164
 20
102.154094190542
 40
0.704372460813671
100
AcDbArc
 50
263.852980631667
 51
59.2500716369473
  0
ARC
  5
374
100
AcDbEntity
  8
0
100
AcDbCircle
  6
BYLAYER
 10
89.0951873797311
 20
103.064811801421
 40
0.704372460813671
100
AcDbArc
 50
293.852980631667
 51
89.2500716369474
  0
TEXT
  5
375
100
AcDbEntity
  8
0
100
AcDbText
  6
BYLAYER
 10
82.6139271895052
 20
108.199706498242
 40
5
  1
Y
  7
Font_0
100
AcDbText
  0
ARC
  5
376
100
AcDbEntity
  8
0
100
AcDbCircle
  6
BYLAYER
 10
92.3956998107443
 20
106.021969657523
 40
0.704372460813671
100
AcDbArc
 50
323.852980631666
 51
119.250071636948
  0
LINE
  5
377
100
AcDbEntity
  8
0
100
AcDbLine
  6
BYLAYER
 10
89.6373998207653
 20
110.702230771249
 11
90.5629738261511
 21
110.702230771249
  0
LINE
  5
378
100
AcDbEntity
  8
0
100
AcDbLine
  6
BYLAYER
 10
85.2273119127507
 20
115.112318679263
 11
90.3451917072368
 21
115.112318679263
  0
ARC
  5
379
100
AcDbEntity
  8
0
100
AcDbCircle
  6
BYLAYER
 10
81.3594364457702
 20
118.339649741077
 40
0.704372460813671
100
AcDbArc
 50
113.852980631666
 51
269.250071636947
  0
ARC
  5
37A
100
AcDbEntity
  8
0
100
AcDbCircle
  6
BYLAYER
 10
85.6963429845849
 20
119.250367351955
 40
0.704372460813671
100
AcDbArc
 50
83.8529806316666
 51
239.250071636947
  0
ARC
  5
37B
100
AcDbEntity
  8
0
100
AcDbCircle
  6
BYLAYER
 10
89.9075730264766
 20
117.870618669242
 40
0.704372460813671
100
AcDbArc
 50
53.8529806316673
 51
209.250071636947
  0
LWPOLYLINE
  5
37C
100
AcDbEntity
  8
0
100
AcDbPolyline
  6
BYLAYER
370
0
 90
     4
 10
171.971821377801
  20
122.351967612598
 10
171.971821377801
  20
86.3519676125978
 10
172.271821377801
  20
86.3519676125978
 10
172.271821377801
  20
122.351967612598
  0
LINE
  5
37D
100
AcDbEntity
  8
0
100
AcDbLine
  6
BYLAYER
 10
171.971821377801
 20
122.351967612598
 11
171.971821377801
 21
86.3519676125978
  0
LINE
  5
37E
100
AcDbEntity
  8
0
100
AcDbLine
  6
BYLAYER
 10
172.271821377801
 20
122.351967612598
 11
172.271821377801
 21
86.3519676125978
  0
TEXT
  5
37F
100
AcDbEntity
  8
0
100
AcDbText
  6
BYLAYER
 10
126.921821377801
 20
93.5519676125978
 40
3
  1
FAX
  7
Font_0
100
AcDbText
  0
LINE
  5
380
100
AcDbEntity
  8
0
100
AcDbLine
  6
BYLAYER
 10
137.121821377801
 20
98.3519676125978
 11
137.121821377801
 21
92.3519676125978
  0
TEXT
  5
381
100
AcDbEntity
  8
0
100
AcDbText
  6
BYLAYER
 10
138.986161218199
 20
93.4460813230219
 40
2.8
  1
(04)23322629
  7
Font_0
100
AcDbText
  0
LINE
  5
382
100
AcDbEntity
  8
0
100
AcDbLine
  6
BYLAYER
 10
124.521821377801
 20
98.3519676125978
 11
124.521821377801
 21
92.3519676125978
  0
LINE
  5
383
100
AcDbEntity
  8
0
100
AcDbLine
  6
BYLAYER
 10
353.521821377801
 20
272.351967612598
 11
353.521821377801
 21
86.3519676125978
  0
TEXT
  5
384
100
AcDbEntity
  8
0
100
AcDbText
  6
BYLAYER
 10
222.089651726345
 20
99.8519676125978
 40
3
  1
ｪ揵ｱｳBｲz
  7
Font_0
100
AcDbText
  0
TEXT
  5
385
100
AcDbEntity
  8
0
100
AcDbText
  6
BYLAYER
 10
223.621821377801
 20
105.851967612598
 40
3
  1
ｳ� ｦ�
  7
Font_0
100
AcDbText
  0
TEXT
  5
386
100
AcDbEntity
  8
0
100
AcDbText
  6
BYLAYER
 10
223.621821377801
 20
111.851967612598
 40
3
  1
ｼﾆ ｶq
  7
Font_0
100
AcDbText
  0
TEXT
  5
387
100
AcDbEntity
  8
0
100
AcDbText
  6
BYLAYER
 10
223.621821377801
 20
117.851967612598
 40
3
  1
ｧ� ｽ�
  7
Font_0
100
AcDbText
  0
TEXT
  5
388
100
AcDbEntity
  8
0
100
AcDbText
  6
BYLAYER
 10
222.198744197798
 20
87.8519676125978
 40
3
  1
ｹqｸ｣ｽsｸｹ
  7
Font_0
100
AcDbText
  0
TEXT
  5
389
100
AcDbEntity
  8
0
100
AcDbText
  6
BYLAYER
 10
222.089651726345
 20
93.8519676125978
 40
3
  1
ｻsｹﾏ､魘ﾁ
  7
Font_0
100
AcDbText
  0
LINE
  5
38A
100
AcDbEntity
  8
0
100
AcDbLine
  6
BYLAYER
 10
219.121821377801
 20
122.351967612598
 11
219.121821377801
 21
86.3519676125978
  0
LINE
  5
38B
100
AcDbEntity
  8
0
100
AcDbLine
  6
BYLAYER
 10
189.121821377801
 20
122.351967612598
 11
189.121821377801
 21
86.3519676125978
  0
LINE
  5
38C
100
AcDbEntity
  8
0
100
AcDbLine
  6
BYLAYER
 10
238.121821377801
 20
122.351967612598
 11
238.121821377801
 21
86.3519676125978
  0
LINE
  5
38D
100
AcDbEntity
  8
0
100
AcDbLine
  6
BYLAYER
 10
270.146821377801
 20
122.351967612598
 11
270.146821377801
 21
86.3519676125978
  0
LINE
  5
38E
100
AcDbEntity
  8
0
100
AcDbLine
  6
BYLAYER
 10
269.971821377801
 20
122.351967612598
 11
269.971821377801
 21
86.3519676125978
  0
LINE
  5
38F
100
AcDbEntity
  8
0
100
AcDbLine
  6
BYLAYER
 10
270.271821377801
 20
122.351967612598
 11
270.271821377801
 21
86.3519676125978
  0
TEXT
  5
390
100
AcDbEntity
  8
0
100
AcDbText
  6
BYLAYER
 10
275.952275726434
 20
117.851967612598
 40
3
  1
､魘ﾁ
  7
Font_0
100
AcDbText
  0
TEXT
  5
391
100
AcDbEntity
  8
0
100
AcDbText
  6
BYLAYER
 10
310.121821377801
 20
117.851967612598
 40
3
  1
ｧ�   ｧ�   ､ｺ   ｮe
  7
Font_0
100
AcDbText
  0
LINE
  5
392
100
AcDbEntity
  8
0
100
AcDbLine
  6
BYLAYER
 10
288.121821377801
 20
122.351967612598
 11
288.121821377801
 21
86.3519676125978
  0
LINE
  5
393
100
AcDbEntity
  8
0
100
AcDbLine
  6
BYLAYER
 10
307.121821377801
 20
122.351967612598
 11
307.121821377801
 21
86.3519676125978
  0
TEXT
  5
394
100
AcDbEntity
  8
0
100
AcDbText
  6
BYLAYER
 10
293.781678346808
 20
117.851967612598
 40
3
  1
ｭtｳd､H
  7
Font_0
100
AcDbText
  0
ENDBLK
  5
395
100
AcDbEntity
  8
0
 67
     1
100
AcDbBlockEnd
  0
BLOCK
  5
396
100
AcDbEntity
  8
0
100
AcDbBlockBegin
  2
GENAXEH
 70
    0
 10
0
 20
0
 30
0.0
  3
GENAXEH
  1

  0
LINE
  5
397
100
AcDbEntity
  8
0
100
AcDbLine
  6
BYLAYER
 10
-1
 20
0
 11
1
 21
0
  0
ENDBLK
  5
398
100
AcDbEntity
  8
0
 67
     1
100
AcDbBlockEnd
  0
BLOCK
  5
399
100
AcDbEntity
  8
0
100
AcDbBlockBegin
  2
_F
 70
    0
 10
0
 20
0
 30
0.0
  3
_F
  1

  0
LINE
  5
39A
100
AcDbEntity
  8
HIDDEN
100
AcDbLine
  6
BYLAYER
 10
797.761982269124
 20
435.583259396939
 11
729.761982269124
 21
435.583259396939
  0
LINE
  5
39B
100
AcDbEntity
  8
HIDDEN
100
AcDbLine
  6
BYLAYER
 10
727.561982269124
 20
437.583259396939
 11
727.561982269124
 21
320.55562254351
  0
LINE
  5
39C
100
AcDbEntity
  8
HIDDEN
100
AcDbLine
  6
BYLAYER
 10
728.761982269124
 20
436.383259396939
 11
728.761982269124
 21
334.383259396939
  0
LINE
  5
39D
100
AcDbEntity
  8
HIDDEN
100
AcDbLine
  6
BYLAYER
 10
728.761982269124
 20
334.383259396939
 11
735.561982269124
 21
334.383259396939
  0
LINE
  5
39E
100
AcDbEntity
  8
HIDDEN
100
AcDbLine
  6
BYLAYER
 10
735.561982269124
 20
333.183259396939
 11
727.561982269124
 21
333.183259396939
  0
LINE
  5
39F
100
AcDbEntity
  8
HIDDEN
100
AcDbLine
  6
BYLAYER
 10
735.561982269124
 20
437.583259396939
 11
735.561982269124
 21
436.383259396939
  0
LINE
  5
3A0
100
AcDbEntity
  8
HIDDEN
100
AcDbLine
  6
BYLAYER
 10
735.561982269124
 20
436.383259396939
 11
728.761982269124
 21
436.383259396939
  0
LINE
  5
3A1
100
AcDbEntity
  8
HIDDEN
100
AcDbLine
  6
BYLAYER
 10
735.561982269124
 20
437.583259396939
 11
727.561982269124
 21
437.583259396939
  0
LINE
  5
3A2
100
AcDbEntity
  8
HIDDEN
100
AcDbLine
  6
BYLAYER
 10
791.961982269124
 20
437.583259396939
 11
799.961982269124
 21
437.583259396939
  0
LINE
  5
3A3
100
AcDbEntity
  8
HIDDEN
100
AcDbLine
  6
BYLAYER
 10
791.961982269124
 20
436.383259396939
 11
798.761982269124
 21
436.383259396939
  0
LINE
  5
3A4
100
AcDbEntity
  8
HIDDEN
100
AcDbLine
  6
BYLAYER
 10
791.961982269124
 20
437.583259396939
 11
791.961982269124
 21
436.383259396939
  0
LINE
  5
3A5
100
AcDbEntity
  8
HIDDEN
100
AcDbLine
  6
BYLAYER
 10
791.961982269124
 20
333.183259396939
 11
799.961982269124
 21
333.183259396939
  0
LINE
  5
3A6
100
AcDbEntity
  8
HIDDEN
100
AcDbLine
  6
BYLAYER
 10
798.761982269124
 20
334.383259396939
 11
791.961982269124
 21
334.383259396939
  0
LINE
  5
3A7
100
AcDbEntity
  8
HIDDEN
100
AcDbLine
  6
BYLAYER
 10
798.761982269124
 20
436.383259396939
 11
798.761982269124
 21
334.383259396939
  0
LINE
  5
3A8
100
AcDbEntity
  8
HIDDEN
100
AcDbLine
  6
BYLAYER
 10
799.961982269124
 20
437.583259396939
 11
799.961982269124
 21
320.55562254351
  0
LINE
  5
3A9
100
AcDbEntity
  8
HIDDEN
100
AcDbLine
  6
BYLAYER
 10
728.761982269124
 20
334.383259396939
 11
798.761982269124
 21
334.383259396939
  0
LINE
  5
3AA
100
AcDbEntity
  8
HIDDEN
100
AcDbLine
  6
BYLAYER
 10
728.761982269124
 20
335.183259396939
 11
798.761982269124
 21
335.183259396939
  0
LINE
  5
3AB
100
AcDbEntity
  8
HIDDEN
100
AcDbLine
  6
BYLAYER
 10
728.761982269124
 20
435.583259396939
 11
798.761982269124
 21
435.583259396939
  0
LINE
  5
3AC
100
AcDbEntity
  8
HIDDEN
100
AcDbLine
  6
BYLAYER
 10
728.761982269124
 20
436.383259396939
 11
798.761982269124
 21
436.383259396939
  0
LINE
  5
3AD
100
AcDbEntity
  8
HIDDEN
100
AcDbLine
  6
BYLAYER
 10
735.561982269124
 20
436.383259396939
 11
735.561982269124
 21
434.383259396939
  0
LINE
  5
3AE
100
AcDbEntity
  8
HIDDEN
100
AcDbLine
  6
BYLAYER
 10
791.961982269124
 20
436.383259396939
 11
791.961982269124
 21
434.383259396939
  0
LINE
  5
3AF
100
AcDbEntity
  8
HIDDEN
100
AcDbLine
  6
BYLAYER
 10
735.561982269124
 20
336.383259396939
 11
735.561982269124
 21
316.696852444762
  0
LINE
  5
3B0
100
AcDbEntity
  8
HIDDEN
100
AcDbLine
  6
BYLAYER
 10
791.961982269124
 20
336.383259396939
 11
791.961982269124
 21
316.696852444762
  0
ENDBLK
  5
3B1
100
AcDbEntity
  8
0
 67
     1
100
AcDbBlockEnd
  0
BLOCK
  5
3B2
100
AcDbEntity
  8
0
100
AcDbBlockBegin
  2
W_-1
 70
    0
 10
0
 20
0
 30
0.0
  3
W_-1
  1

  0
LINE
  5
3B3
100
AcDbEntity
  8
0
100
AcDbLine
  6
BYLAYER
 10
1
 20
5
 11
0
 21
5
  0
LINE
  5
3B4
100
AcDbEntity
  8
0
100
AcDbLine
  6
BYLAYER
 10
1
 20
-5
 11
0
 21
-5
  0
LINE
  5
3B5
100
AcDbEntity
  8
0
100
AcDbLine
  6
BYLAYER
 10
0
 20
5
 11
0
 21
-5
  0
LINE
  5
3B6
100
AcDbEntity
  8
0
100
AcDbLine
  6
BYLAYER
 10
1.49999999999989
 20
0.5
 11
1.49999999999989
 21
-0.5
  0
LINE
  5
3B7
100
AcDbEntity
  8
0
100
AcDbLine
  6
BYLAYER
 10
1.49999999999989
 20
0.5
 11
3.96862696659696
 21
0.5
  0
LINE
  5
3B8
100
AcDbEntity
  8
0
100
AcDbLine
  6
BYLAYER
 10
1.49999999999989
 20
-0.5
 11
3.96862696659684
 21
-0.5
  0
ARC
  5
3B9
100
AcDbEntity
  8
0
100
AcDbCircle
  6
BYLAYER
 10
0
 20
0
 40
4
100
AcDbArc
 50
284.47751218593
 51
352.819244218542
  0
LINE
  5
3BA
100
AcDbEntity
  8
0
100
AcDbLine
  6
BYLAYER
 10
1
 20
5
 11
1
 21
-5
  0
ARC
  5
3BB
100
AcDbEntity
  8
0
100
AcDbCircle
  6
BYLAYER
 10
0
 20
0
 40
4
100
AcDbArc
 50
7.18075578145815
 51
75.5224878140705
  0
ENDBLK
  5
3BC
100
AcDbEntity
  8
0
 67
     1
100
AcDbBlockEnd
  0
BLOCK
  5
3BD
100
AcDbEntity
  8
0
100
AcDbBlockBegin
  2
W_
 70
    0
 10
0
 20
0
 30
0.0
  3
W_
  1

  0
LINE
  5
3BE
100
AcDbEntity
  8
0
100
AcDbLine
  6
BYLAYER
 10
0.5
 20
2
 11
0.5
 21
2.95803989155001
  0
LINE
  5
3BF
100
AcDbEntity
  8
0
100
AcDbLine
  6
BYLAYER
 10
-0.5
 20
2
 11
-0.5
 21
2.95803989155001
  0
CIRCLE
  5
3C0
100
AcDbEntity
  8
0
100
AcDbCircle
  6
BYLAYER
 10
0
 20
0
 40
3
  0
CIRCLE
  5
3C1
100
AcDbEntity
  8
0
100
AcDbCircle
  6
BYLAYER
 10
0
 20
0
 40
5
  0
ARC
  5
3C2
100
AcDbEntity
  8
0
100
AcDbCircle
  6
BYLAYER
 10
2
 20
2
 40
1.5
100
AcDbArc
 50
180
 51
270
  0
ARC
  5
3C3
100
AcDbEntity
  8
0
100
AcDbCircle
  6
BYLAYER
 10
-2
 20
2
 40
1.5
100
AcDbArc
 50
270
 51
359.999999999997
  0
LINE
  5
3C4
100
AcDbEntity
  8
0
100
AcDbLine
  6
BYLAYER
 10
-2.9580398915499
 20
-0.499999999999545
 11
-1.99999999999977
 21
-0.499999999999545
  0
LINE
  5
3C5
100
AcDbEntity
  8
0
100
AcDbLine
  6
BYLAYER
 10
-0.5
 20
-2.95803989155001
 11
-0.5
 21
-1.99999999999954
  0
ARC
  5
3C6
100
AcDbEntity
  8
0
100
AcDbCircle
  6
BYLAYER
 10
-2
 20
-1.99999999999954
 40
1.5
100
AcDbArc
 50
0
 51
89.9999999999894
  0
LINE
  5
3C7
100
AcDbEntity
  8
0
100
AcDbLine
  6
BYLAYER
 10
0.5
 20
-2.95803989155001
 11
0.5
 21
-2
  0
LINE
  5
3C8
100
AcDbEntity
  8
0
100
AcDbLine
  6
BYLAYER
 10
2
 20
-0.5
 11
2.95803989154979
 21
-0.5
  0
ARC
  5
3C9
100
AcDbEntity
  8
0
100
AcDbCircle
  6
BYLAYER
 10
2
 20
-2
 40
1.5
100
AcDbArc
 50
90
 51
180
  0
LINE
  5
3CA
100
AcDbEntity
  8
0
100
AcDbLine
  6
BYLAYER
 10
2
 20
0.5
 11
2.95803989154979
 21
0.5
  0
LINE
  5
3CB
100
AcDbEntity
  8
0
100
AcDbLine
  6
BYLAYER
 10
-2.95803989154979
 20
0.5
 11
-2
 21
0.5
  0
ENDBLK
  5
3CC
100
AcDbEntity
  8
0
 67
     1
100
AcDbBlockEnd
  0
BLOCK
  5
3CD
100
AcDbEntity
  8
0
100
AcDbBlockBegin
  2
W-_1
 70
    0
 10
0
 20
0
 30
0.0
  3
W-_1
  1

  0
LINE
  5
3CE
100
AcDbEntity
  8
0
100
AcDbLine
  6
BYLAYER
 10
6.1334341162448
 20
-2.03254300516074
 11
3.1334341162448
 21
-2.03254300516073
  0
LINE
  5
3CF
100
AcDbEntity
  8
0
100
AcDbLine
  6
BYLAYER
 10
6.13343411624481
 20
2.58625914835627
 11
3.1334341162448
 21
2.58625914835627
  0
LINE
  5
3D0
100
AcDbEntity
  8
0
100
AcDbLine
  6
BYLAYER
 10
6.1334341162448
 20
-4.34194408191923
 11
3.13343411624481
 21
-4.34194408191923
  0
LINE
  5
3D1
100
AcDbEntity
  8
0
100
AcDbLine
  6
BYLAYER
 10
6.1334341162448
 20
4.89566022511478
 11
3.1334341162448
 21
4.89566022511478
  0
LINE
  5
3D2
100
AcDbEntity
  8
0
100
AcDbLine
  6
BYLAYER
 10
3.13343411624481
 20
-0.473141928402225
 11
3.13343411624481
 21
-4.34194408191923
  0
LINE
  5
3D3
100
AcDbEntity
  8
0
100
AcDbLine
  6
BYLAYER
 10
4.24838865794215
 20
-0.209747983998691
 11
3.1334341162448
 21
-0.473141928402225
  0
LINE
  5
3D4
100
AcDbEntity
  8
0
100
AcDbLine
  6
BYLAYER
 10
4.24838865794215
 20
0.763464127194242
 11
3.1334341162448
 21
1.02685807159778
  0
ARC
  5
3D5
100
AcDbEntity
  8
0
100
AcDbCircle
  6
BYLAYER
 10
4.1334341162448
 20
0.276858071597775
 40
0.5
100
AcDbArc
 50
283.291719167642
 51
76.7082808323578
  0
LINE
  5
3D6
100
AcDbEntity
  8
0
100
AcDbLine
  6
BYLAYER
 10
3.1334341162448
 20
4.89566022511478
 11
3.13343411624481
 21
1.02685807159777
  0
LINE
  5
3D7
100
AcDbEntity
  8
0
100
AcDbLine
  6
BYLAYER
 10
6.1334341162448
 20
6.27685807159777
 11
6.1334341162448
 21
-5.72314192840222
  0
LINE
  5
3D8
100
AcDbEntity
  8
0
100
AcDbLine
  6
BYLAYER
 10
7.1334341162448
 20
-5.72314192840222
 11
6.13343411624481
 21
-5.72314192840222
  0
LINE
  5
3D9
100
AcDbEntity
  8
0
100
AcDbLine
  6
BYLAYER
 10
7.1334341162448
 20
6.27685807159777
 11
6.1334341162448
 21
6.27685807159777
  0
LINE
  5
3DA
100
AcDbEntity
  8
0
100
AcDbLine
  6
BYLAYER
 10
7.1334341162448
 20
6.27685807159777
 11
7.1334341162448
 21
-5.72314192840222
  0
ENDBLK
  5
3DB
100
AcDbEntity
  8
0
 67
     1
100
AcDbBlockEnd
  0
BLOCK
  5
3DC
100
AcDbEntity
  8
0
100
AcDbBlockBegin
  2
ASOL
 70
    0
 10
0
 20
0
 30
0.0
  3
ASOL
  1

  0
LINE
  5
3DD
100
AcDbEntity
  8
DIM
100
AcDbLine
  6
BYLAYER
 62
0
370
  -2
 10
-398.70389491145
 20
-107.456562711776
 11
-398.70389491145
 21
-88.0871583747033
  0
LINE
  5
3DE
100
AcDbEntity
  8
DIM
100
AcDbLine
  6
BYLAYER
 62
0
370
  -2
 10
-360.70389491145
 20
-108.706562711776
 11
-360.70389491145
 21
-88.0871583747033
  0
LINE
  5
3DF
100
AcDbEntity
  8
DIM
100
AcDbLine
  6
BYLAYER
 62
0
370
  -2
 10
-392.20389491145
 20
-88.5551583747033
 11
-385.354561578116
 21
-88.5551583747033
  0
LINE
  5
3E0
100
AcDbEntity
  8
DIM
100
AcDbLine
  6
BYLAYER
 62
0
370
  -2
 10
-367.20389491145
 20
-88.5551583747033
 11
-374.053228244783
 21
-88.5551583747033
  0
SOLID
  5
3E1
100
AcDbEntity
  8
DIM
100
AcDbTrace
 10
-398.70389491145
 20
-88.5551583747033
 30
0.0
 11
-392.20389491145
 21
-89.6384917080366
 31
0.0
 12
-392.20389491145
 22
-87.47182504137
 32
0.0
 13
-392.20389491145
 23
-87.47182504137
 33
0.0
  0
SOLID
  5
3E2
100
AcDbEntity
  8
DIM
100
AcDbTrace
 10
-367.20389491145
 20
-87.47182504137
 30
0.0
 11
-367.20389491145
 21
-89.6384917080366
 31
0.0
 12
-360.70389491145
 22
-88.5551583747033
 32
0.0
 13
-360.70389491145
 23
-88.5551583747033
 33
0.0
  0
TEXT
  5
3E3
100
AcDbEntity
  8
DIM
 62
0
100
AcDbText
  6
BYLAYER
 62
0
 10
-382.95389491145
 20
-91.8051583747033
 40
6.5
  1
38
  7
Font_0
 72
1
 11
-379.70389491145
 21
-88.5551583747033
100
AcDbText
 73
2
  0
LINE
  5
3E4
100
AcDbEntity
  8
DIM
100
AcDbLine
  6
BYLAYER
 62
0
370
  -2
 10
-395.703894911449
 20
-107.706562711776
 11
-395.703894911449
 21
-96.6398375582497
  0
LINE
  5
3E5
100
AcDbEntity
  8
DIM
100
AcDbLine
  6
BYLAYER
 62
0
370
  -2
 10
-360.70389491145
 20
-108.706562711776
 11
-360.70389491145
 21
-96.6398375582497
  0
LINE
  5
3E6
100
AcDbEntity
  8
DIM
100
AcDbLine
  6
BYLAYER
 62
0
370
  -2
 10
-389.203894911449
 20
-97.1078375582497
 11
-383.854561578116
 21
-97.1078375582497
  0
LINE
  5
3E7
100
AcDbEntity
  8
DIM
100
AcDbLine
  6
BYLAYER
 62
0
370
  -2
 10
-367.20389491145
 20
-97.1078375582497
 11
-372.553228244783
 21
-97.1078375582497
  0
SOLID
  5
3E8
100
AcDbEntity
  8
DIM
100
AcDbTrace
 10
-395.703894911449
 20
-97.1078375582497
 30
0.0
 11
-389.203894911449
 21
-98.191170891583
 31
0.0
 12
-389.203894911449
 22
-96.0245042249164
 32
0.0
 13
-389.203894911449
 23
-96.0245042249164
 33
0.0
  0
SOLID
  5
3E9
100
AcDbEntity
  8
DIM
100
AcDbTrace
 10
-367.20389491145
 20
-96.0245042249164
 30
0.0
 11
-367.20389491145
 21
-98.191170891583
 31
0.0
 12
-360.70389491145
 22
-97.1078375582497
 32
0.0
 13
-360.70389491145
 23
-97.1078375582497
 33
0.0
  0
TEXT
  5
3EA
100
AcDbEntity
  8
DIM
 62
0
100
AcDbText
  6
BYLAYER
 62
0
 10
-381.453894911449
 20
-100.35783755825
 40
6.5
  1
35
  7
Font_0
 72
1
 11
-378.203894911449
 21
-97.1078375582497
100
AcDbText
 73
2
  0
LINE
  5
3EB
100
AcDbEntity
  8
DIM
100
AcDbLine
  6
BYLAYER
 62
0
370
  -2
 10
-601.70389491145
 20
-72.2065627117762
 11
-601.70389491145
 21
-4.1545005750266
  0
LINE
  5
3EC
100
AcDbEntity
  8
DIM
100
AcDbLine
  6
BYLAYER
 62
0
370
  -2
 10
-360.70389491145
 20
-108.706562711776
 11
-360.70389491145
 21
-4.1545005750266
  0
LINE
  5
3ED
100
AcDbEntity
  8
DIM
100
AcDbLine
  6
BYLAYER
 62
0
370
  -2
 10
-595.20389491145
 20
-4.62250057502661
 11
-492.054561578116
 21
-4.62250057502661
  0
LINE
  5
3EE
100
AcDbEntity
  8
DIM
100
AcDbLine
  6
BYLAYER
 62
0
370
  -2
 10
-367.20389491145
 20
-4.62250057502661
 11
-470.353228244783
 21
-4.62250057502661
  0
SOLID
  5
3EF
100
AcDbEntity
  8
DIM
100
AcDbTrace
 10
-601.70389491145
 20
-4.62250057502661
 30
0.0
 11
-595.20389491145
 21
-5.70583390835994
 31
0.0
 12
-595.20389491145
 22
-3.53916724169327
 32
0.0
 13
-595.20389491145
 23
-3.53916724169327
 33
0.0
  0
SOLID
  5
3F0
100
AcDbEntity
  8
DIM
100
AcDbTrace
 10
-367.20389491145
 20
-3.53916724169327
 30
0.0
 11
-367.20389491145
 21
-5.70583390835994
 31
0.0
 12
-360.70389491145
 22
-4.62250057502661
 32
0.0
 13
-360.70389491145
 23
-4.62250057502661
 33
0.0
  0
TEXT
  5
3F1
100
AcDbEntity
  8
DIM
 62
0
100
AcDbText
  6
BYLAYER
 62
0
 10
-488.02889491145
 20
-9.17250057502661
 40
9.1
  1
241
  7
Font_0
 72
1
 11
-481.20389491145
 21
-4.62250057502661
100
AcDbText
 73
2
  0
LINE
  5
3F2
100
AcDbEntity
  8
0
100
AcDbLine
  6
BYLAYER
 10
-411.703894911449
 20
-60.7065627117762
 11
-411.70389491145
 21
-173.906562711776
  0
LINE
  5
3F3
100
AcDbEntity
  8
0
100
AcDbLine
  6
BYLAYER
 10
-465.703894911449
 20
-82.8065627117762
 11
-465.703894911449
 21
-151.806562711776
  0
LINE
  5
3F4
100
AcDbEntity
  8
0
100
AcDbLine
  6
BYLAYER
 10
-459.203894911449
 20
-76.3065627117763
 11
-459.203894911449
 21
-158.306562711776
  0
LINE
  5
3F5
100
AcDbEntity
  8
0
100
AcDbLine
  6
BYLAYER
 10
-398.70389491145
 20
-67.3065627117762
 11
-398.70389491145
 21
-117.306562711776
  0
LINE
  5
3F6
100
AcDbEntity
  8
0
100
AcDbLine
  6
BYLAYER
 10
-411.70389491145
 20
-60.3065627117762
 11
-411.70389491145
 21
-117.306562711776
  0
LINE
  5
3F7
100
AcDbEntity
  8
0
100
AcDbLine
  6
BYLAYER
 10
-409.70389491145
 20
-38.3065627117762
 11
-409.703894911449
 21
-117.306562711776
  0
LINE
  5
3F8
100
AcDbEntity
  8
0
100
AcDbLine
  6
BYLAYER
 10
-401.70389491145
 20
-38.3065627117762
 11
-401.70389491145
 21
-117.306562711776
  0
LINE
  5
3F9
100
AcDbEntity
  8
DIM
100
AcDbLine
  6
BYLAYER
 62
0
370
  -2
 10
-584.30389491145
 20
-53.8065627117762
 11
-611.241650731039
 21
-53.8065627117762
  0
LINE
  5
3FA
100
AcDbEntity
  8
DIM
100
AcDbLine
  6
BYLAYER
 62
0
370
  -2
 10
-584.30389491145
 20
-180.806562711776
 11
-611.241650731039
 21
-180.806562711776
  0
LINE
  5
3FB
100
AcDbEntity
  8
DIM
100
AcDbLine
  6
BYLAYER
 62
0
370
  -2
 10
-610.773650731039
 20
-60.3065627117762
 11
-610.773650731039
 21
-106.455896045109
  0
LINE
  5
3FC
100
AcDbEntity
  8
DIM
100
AcDbLine
  6
BYLAYER
 62
0
370
  -2
 10
-610.773650731039
 20
-174.306562711776
 11
-610.773650731039
 21
-128.157229378443
  0
SOLID
  5
3FD
100
AcDbEntity
  8
DIM
100
AcDbTrace
 10
-611.856984064372
 20
-60.3065627117762
 30
0.0
 11
-609.690317397706
 21
-60.3065627117762
 31
0.0
 12
-610.773650731039
 22
-53.8065627117762
 32
0.0
 13
-610.773650731039
 23
-53.8065627117762
 33
0.0
  0
SOLID
  5
3FE
100
AcDbEntity
  8
DIM
100
AcDbTrace
 10
-610.773650731039
 20
-180.806562711776
 30
0.0
 11
-609.690317397706
 21
-174.306562711776
 31
0.0
 12
-611.856984064372
 22
-174.306562711776
 32
0.0
 13
-611.856984064372
 23
-174.306562711776
 33
0.0
  0
TEXT
  5
3FF
100
AcDbEntity
  8
DIM
 62
0
100
AcDbText
  6
BYLAYER
 62
0
 10
-606.223650731039
 20
-124.131562711776
 40
9.1
  1
127
  7
Font_0
 50
90
 72
1
 11
-610.773650731039
 21
-117.306562711776
100
AcDbText
 73
2
  0
LINE
  5
400
100
AcDbEntity
  8
0
100
AcDbLine
  6
BYLAYER
 10
-597.20389491145
 20
-70.3065627117762
 11
-597.20389491145
 21
-164.306562711776
  0
LINE
  5
401
100
AcDbEntity
  8
0
100
AcDbLine
  6
BYLAYER
 10
-601.70389491145
 20
-74.8065627117762
 11
-601.70389491145
 21
-159.806562711776
  0
LINE
  5
402
100
AcDbEntity
  8
0
100
AcDbLine
  6
BYLAYER
 10
-540.70389491145
 20
-82.8065627117761
 11
-540.70389491145
 21
-151.806562711776
  0
LINE
  5
403
100
AcDbEntity
  8
0
100
AcDbLine
  6
BYLAYER
 10
-547.20389491145
 20
-76.3065627117762
 11
-547.20389491145
 21
-158.306562711776
  0
LINE
  5
404
100
AcDbEntity
  8
DIM
100
AcDbLine
  6
BYLAYER
 62
0
370
  -2
 10
-233.216945322899
 20
-22.1065627117762
 11
-142.703702392751
 21
-22.1065627117762
  0
LINE
  5
405
100
AcDbEntity
  8
DIM
100
AcDbLine
  6
BYLAYER
 62
0
370
  -2
 10
-233.216945322899
 20
-197.306562711776
 11
-142.703702392751
 21
-197.306562711776
  0
LINE
  5
406
100
AcDbEntity
  8
DIM
100
AcDbLine
  6
BYLAYER
 62
0
370
  -2
 10
-143.171702392751
 20
-28.6065627117762
 11
-143.171702392751
 21
-92.7892293784429
  0
LINE
  5
407
100
AcDbEntity
  8
DIM
100
AcDbLine
  6
BYLAYER
 62
0
370
  -2
 10
-143.171702392751
 20
-190.806562711776
 11
-143.171702392751
 21
-126.62389604511
  0
SOLID
  5
408
100
AcDbEntity
  8
DIM
100
AcDbTrace
 10
-144.255035726085
 20
-28.6065627117762
 30
0.0
 11
-142.088369059418
 21
-28.6065627117762
 31
0.0
 12
-143.171702392751
 22
-22.1065627117762
 32
0.0
 13
-143.171702392751
 23
-22.1065627117762
 33
0.0
  0
SOLID
  5
409
100
AcDbEntity
  8
DIM
100
AcDbTrace
 10
-143.171702392751
 20
-197.306562711776
 30
0.0
 11
-142.088369059418
 21
-190.806562711776
 31
0.0
 12
-144.255035726085
 22
-190.806562711776
 32
0.0
 13
-144.255035726085
 23
-190.806562711776
 33
0.0
  0
TEXT
  5
40A
100
AcDbEntity
  8
DIM
 62
0
100
AcDbText
  6
BYLAYER
 62
0
 10
-138.621702392751
 20
-121.081562711776
 40
9.1
  1
175.2
  7
Font_0
 50
90
 72
1
 11
-143.171702392751
 21
-109.706562711776
100
AcDbText
 73
2
  0
LINE
  5
40B
100
AcDbEntity
  8
CENTER
100
AcDbLine
  6
BYLAYER
 10
-235.816945322899
 20
-33.8838821257372
 11
-235.816945322899
 21
-200.909534646818
  0
ARC
  5
40C
100
AcDbEntity
  8
0
100
AcDbCircle
  6
BYLAYER
 10
-235.816945322899
 20
-117.306562711776
 40
50
100
AcDbArc
 50
270
 51
90
  0
ARC
  5
40D
100
AcDbEntity
  8
0
100
AcDbCircle
  6
BYLAYER
 10
-235.816945322899
 20
-117.306562711776
 40
80
100
AcDbArc
 50
270
 51
90
  0
LINE
  5
40E
100
AcDbEntity
  8
0
100
AcDbLine
  6
BYLAYER
 10
-337.829794502843
 20
-168.306562711776
 11
-312.654756224928
 21
-65.5924065378822
  0
LINE
  5
40F
100
AcDbEntity
  8
0
100
AcDbLine
  6
BYLAYER
 10
-334.740999035441
 20
-168.306562711776
 11
-309.740999035441
 21
-66.3065627117762
  0
LINE
  5
410
100
AcDbEntity
  8
0
100
AcDbLine
  6
BYLAYER
 10
-344.740999035441
 20
-82.8065627117761
 11
-344.740999035441
 21
-151.806562711776
  0
LINE
  5
411
100
AcDbEntity
  8
DIM
100
AcDbLine
  6
BYLAYER
 62
0
370
  -2
 10
-178.100360068028
 20
-39.6801406969075
 11
-184.600360068028
 21
-39.6801406969075
  0
LINE
  5
412
100
AcDbEntity
  8
DIM
100
AcDbLine
  6
BYLAYER
 62
0
370
  -2
 10
-184.600360068028
 20
-39.6801406969075
 11
-188.180013876164
 21
-45.1056433108499
  0
TEXT
  5
413
100
AcDbEntity
  8
DIM
 62
0
100
AcDbText
  6
BYLAYER
 62
0
 10
-174.833026734695
 20
-44.2301406969075
 40
9.1
  1
φ160
  7
Font_0
 72
1
 11
-163.458026734695
 21
-39.6801406969075
100
AcDbText
 73
2
  0
SOLID
  5
414
100
AcDbEntity
  8
DIM
100
AcDbTrace
 10
-191.7596676843
 20
-50.5311459247924
 30
0.0
 11
-187.275763440507
 21
-45.7022522788726
 31
0.0
 12
-189.084264311821
 22
-44.5090343428272
 32
0.0
 13
-189.084264311821
 23
-44.5090343428272
 33
0.0
  0
LINE
  5
415
100
AcDbEntity
  8
DIM
100
AcDbLine
  6
BYLAYER
 62
0
370
  -2
 10
-236.050945322899
 20
-117.306562711776
 11
-235.582945322899
 21
-117.306562711776
  0
LINE
  5
416
100
AcDbEntity
  8
DIM
100
AcDbLine
  6
BYLAYER
 62
0
370
  -2
 10
-235.816945322899
 20
-117.540562711776
 11
-235.816945322899
 21
-117.072562711776
  0
CIRCLE
  5
417
100
AcDbEntity
  8
CEN
100
AcDbCircle
  6
BYLAYER
 10
-235.816945322899
 20
-117.306562711776
 40
70
  0
LINE
  5
418
100
AcDbEntity
  8
DIM
100
AcDbLine
  6
BYLAYER
 62
0
370
  -2
 10
-155.816945322899
 20
-114.706562711776
 11
-155.816945322899
 21
-12.6651417672434
  0
LINE
  5
419
100
AcDbEntity
  8
DIM
100
AcDbLine
  6
BYLAYER
 62
0
370
  -2
 10
-344.740999035441
 20
-80.2065627117761
 11
-344.740999035441
 21
-12.6651417672434
  0
LINE
  5
41A
100
AcDbEntity
  8
DIM
100
AcDbLine
  6
BYLAYER
 62
0
370
  -2
 10
-162.316945322899
 20
-13.1331417672434
 11
-233.361638845837
 21
-13.1331417672434
  0
LINE
  5
41B
100
AcDbEntity
  8
DIM
100
AcDbLine
  6
BYLAYER
 62
0
370
  -2
 10
-338.240999035441
 20
-13.1331417672434
 11
-267.196305512503
 21
-13.1331417672434
  0
SOLID
  5
41C
100
AcDbEntity
  8
DIM
100
AcDbTrace
 10
-162.316945322899
 20
-12.04980843391
 30
0.0
 11
-162.316945322899
 21
-14.2164751005767
 31
0.0
 12
-155.816945322899
 22
-13.1331417672434
 32
0.0
 13
-155.816945322899
 23
-13.1331417672434
 33
0.0
  0
SOLID
  5
41D
100
AcDbEntity
  8
DIM
100
AcDbTrace
 10
-344.740999035441
 20
-13.1331417672434
 30
0.0
 11
-338.240999035441
 21
-14.2164751005767
 31
0.0
 12
-338.240999035441
 22
-12.04980843391
 32
0.0
 13
-338.240999035441
 23
-12.04980843391
 33
0.0
  0
TEXT
  5
41E
100
AcDbEntity
  8
DIM
 62
0
100
AcDbText
  6
BYLAYER
 62
0
 10
-261.65397217917
 20
-17.6831417672434
 40
9.1
  1
188.9
  7
Font_0
 72
1
 11
-250.27897217917
 21
-13.1331417672434
100
AcDbText
 73
2
  0
CIRCLE
  5
41F
100
AcDbEntity
  8
0
100
AcDbCircle
  6
BYLAYER
 10
-235.816945322899
 20
-117.306562711776
 40
56.6
  0
CIRCLE
  5
420
100
AcDbEntity
  8
0
100
AcDbCircle
  6
BYLAYER
 10
-235.816945322899
 20
-117.306562711776
 40
55
  0
ARC
  5
421
100
AcDbEntity
  8
0
100
AcDbCircle
  6
BYLAYER
 10
-235.816945322899
 20
-117.306562711776
 40
80
100
AcDbArc
 50
90
 51
270
  0
ARC
  5
422
100
AcDbEntity
  8
0
100
AcDbCircle
  6
BYLAYER
 10
-235.816945322899
 20
-117.306562711776
 40
50
100
AcDbArc
 50
90
 51
270
  0
LINE
  5
423
100
AcDbEntity
  8
DIM
100
AcDbLine
  6
BYLAYER
 62
0
370
  -2
 10
-390.70389491145
 20
-107.706562711776
 11
-390.70389491145
 21
-104.854984847136
  0
LINE
  5
424
100
AcDbEntity
  8
DIM
100
AcDbLine
  6
BYLAYER
 62
0
370
  -2
 10
-360.70389491145
 20
-108.706562711776
 11
-360.70389491145
 21
-104.854984847136
  0
LINE
  5
425
100
AcDbEntity
  8
DIM
100
AcDbLine
  6
BYLAYER
 62
0
370
  -2
 10
-384.20389491145
 20
-105.322984847136
 11
-380.81289491145
 21
-105.322984847136
  0
LINE
  5
426
100
AcDbEntity
  8
DIM
100
AcDbLine
  6
BYLAYER
 62
0
370
  -2
 10
-367.20389491145
 20
-105.322984847136
 11
-370.59489491145
 21
-105.322984847136
  0
SOLID
  5
427
100
AcDbEntity
  8
DIM
100
AcDbTrace
 10
-390.70389491145
 20
-105.322984847136
 30
0.0
 11
-384.20389491145
 21
-106.40631818047
 31
0.0
 12
-384.20389491145
 22
-104.239651513803
 32
0.0
 13
-384.20389491145
 23
-104.239651513803
 33
0.0
  0
SOLID
  5
428
100
AcDbEntity
  8
DIM
100
AcDbTrace
 10
-367.20389491145
 20
-104.239651513803
 30
0.0
 11
-367.20389491145
 21
-106.40631818047
 31
0.0
 12
-360.70389491145
 22
-105.322984847136
 32
0.0
 13
-360.70389491145
 23
-105.322984847136
 33
0.0
  0
TEXT
  5
429
100
AcDbEntity
  8
DIM
 62
0
100
AcDbText
  6
BYLAYER
 62
0
 10
-378.95389491145
 20
-108.572984847136
 40
6.5
  1
30
  7
Font_0
 72
1
 11
-375.70389491145
 21
-105.322984847136
100
AcDbText
 73
2
  0
LINE
  5
42A
100
AcDbEntity
  8
CENTER
100
AcDbLine
  6
BYLAYER
 10
-605.68726286336
 20
-117.306562711776
 11
-355.50949480774
 21
-117.306562711776
  0
LINE
  5
42B
100
AcDbEntity
  8
0
100
AcDbLine
  6
BYLAYER
 10
-361.70389491145
 20
-124.306562711776
 11
-395.70389491145
 21
-124.306562711776
  0
LINE
  5
42C
100
AcDbEntity
  8
0
100
AcDbLine
  6
BYLAYER
 10
-360.70389491145
 20
-111.306562711776
 11
-390.703894911449
 21
-111.306562711776
  0
LINE
  5
42D
100
AcDbEntity
  8
0
100
AcDbLine
  6
BYLAYER
 10
-541.70389491145
 20
-180.806562711776
 11
-581.70389491145
 21
-180.806562711776
  0
ELLIPSE
  5
42E
100
AcDbEntity
  8
0
100
AcDbEllipse
  6
BYLAYER
 10
-548.45389491145
 20
-149.463469787119
 30
0.0
 11
-6
 21
7.34763812293426E-16
 31
0.0
210
0.0
220
0.0
230
1.0
 40
0.866025403784448
 41
4.50251838812194
 42
6.28318530717959
  0
ELLIPSE
  5
42F
100
AcDbEntity
  8
0
100
AcDbEllipse
  6
BYLAYER
 10
-548.453894911449
 20
-149.463469787119
 30
0.0
 11
6
 21
0
 31
0.0
210
0.0
220
0.0
230
1.0
 40
0.866025403784448
 41
1.36092573453217
 42
4.59992806710878
  0
ELLIPSE
  5
430
100
AcDbEntity
  8
0
100
AcDbEllipse
  6
BYLAYER
 10
-548.453894911449
 20
-148.963469787119
 30
0.0
 11
6
 21
0
 31
0.0
210
0.0
220
0.0
230
1.0
 40
0.866025403784446
 41
1.36092573453217
 42
3.14159265358979
  0
LINE
  5
431
100
AcDbEntity
  8
0
100
AcDbLine
  6
BYLAYER
 10
-548.453894911449
 20
-154.963469787119
 11
-552.453894911449
 21
-152.963469787119
  0
ARC
  5
432
100
AcDbEntity
  8
0
100
AcDbCircle
  6
BYLAYER
 10
-549.70389491145
 20
-152.112988839958
 40
0.5
100
AcDbArc
 50
359.999999999994
 51
90
  0
ARC
  5
433
100
AcDbEntity
  8
0
100
AcDbCircle
  6
BYLAYER
 10
-549.703894911449
 20
-149.813950734281
 40
0.5
100
AcDbArc
 50
270
 51
0
  0
LINE
  5
434
100
AcDbEntity
  8
0
100
AcDbLine
  6
BYLAYER
 10
-548.453894911449
 20
-145.463469787119
 11
-552.453894911449
 21
-147.410664433824
  0
LINE
  5
435
100
AcDbEntity
  8
0
100
AcDbLine
  6
BYLAYER
 10
-548.453894911449
 20
-146.963469787119
 11
-552.453262060532
 21
-148.963469787119
  0
ARC
  5
436
100
AcDbEntity
  8
0
100
AcDbCircle
  6
BYLAYER
 10
-597.20389491145
 20
-159.806562711776
 40
4.5
100
AcDbArc
 50
180
 51
270
  0
ARC
  5
437
100
AcDbEntity
  8
0
100
AcDbCircle
  6
BYLAYER
 10
-581.70389491145
 20
-170.806562711776
 40
10
100
AcDbArc
 50
210.738949511305
 51
270
  0
LINE
  5
438
100
AcDbEntity
  8
0
100
AcDbLine
  6
BYLAYER
 10
-597.20389491145
 20
-164.306562711776
 11
-590.298944984359
 21
-175.91783596256
  0
LINE
  5
439
100
AcDbEntity
  8
0
100
AcDbLine
  6
BYLAYER
 10
-552.453894911449
 20
-147.410664433824
 11
-552.453894911449
 21
-152.963469787119
  0
LINE
  5
43A
100
AcDbEntity
  8
0
100
AcDbLine
  6
BYLAYER
 10
-552.453894911449
 20
-150.313950734281
 11
-549.703894911449
 21
-150.313950734281
  0
LINE
  5
43B
100
AcDbEntity
  8
0
100
AcDbLine
  6
BYLAYER
 10
-552.453894911449
 20
-151.612988839958
 11
-549.70389491145
 21
-151.612988839958
  0
LINE
  5
43C
100
AcDbEntity
  8
0
100
AcDbLine
  6
BYLAYER
 10
-549.95389491145
 20
-150.313950734281
 11
-549.953894911449
 21
-151.612988839958
  0
ARC
  5
43D
100
AcDbEntity
  8
0
100
AcDbCircle
  6
BYLAYER
 10
-537.20389491145
 20
-158.306562711776
 40
10
100
AcDbArc
 50
180
 51
270
  0
LINE
  5
43E
100
AcDbEntity
  8
0
100
AcDbLine
  6
BYLAYER
 10
-411.70389491145
 20
-174.306562711776
 11
-411.70389491145
 21
-117.306562711776
  0
LINE
  5
43F
100
AcDbEntity
  8
0
100
AcDbLine
  6
BYLAYER
 10
-398.70389491145
 20
-167.306562711776
 11
-398.70389491145
 21
-117.306562711776
  0
LINE
  5
440
100
AcDbEntity
  8
0
100
AcDbLine
  6
BYLAYER
 10
-401.70389491145
 20
-196.306562711776
 11
-401.70389491145
 21
-117.306562711776
  0
LINE
  5
441
100
AcDbEntity
  8
0
100
AcDbLine
  6
BYLAYER
 10
-409.70389491145
 20
-196.306562711776
 11
-409.703894911449
 21
-117.306562711776
  0
ARC
  5
442
100
AcDbEntity
  8
0
100
AcDbCircle
  6
BYLAYER
 10
-469.20389491145
 20
-158.306562711776
 40
10
100
AcDbArc
 50
270
 51
0
  0
LINE
  5
443
100
AcDbEntity
  8
0
100
AcDbLine
  6
BYLAYER
 10
-541.70389491145
 20
-173.906562711776
 11
-411.70389491145
 21
-173.906562711776
  0
LINE
  5
444
100
AcDbEntity
  8
0
100
AcDbLine
  6
BYLAYER
 10
-537.20389491145
 20
-168.306562711776
 11
-469.20389491145
 21
-168.306562711776
  0
LINE
  5
445
100
AcDbEntity
  8
0
100
AcDbLine
  6
BYLAYER
 10
-541.70389491145
 20
-167.236848261522
 11
-541.70389491145
 21
-180.806562711776
  0
LINE
  5
446
100
AcDbEntity
  8
0
100
AcDbLine
  6
BYLAYER
 10
-541.70389491145
 20
-167.236848261522
 11
-541.70389491145
 21
-173.906562711776
  0
LINE
  5
447
100
AcDbEntity
  8
0
100
AcDbLine
  6
BYLAYER
 10
-402.70389491145
 20
-197.306562711776
 11
-408.70389491145
 21
-197.306562711776
  0
LINE
  5
448
100
AcDbEntity
  8
0
100
AcDbLine
  6
BYLAYER
 10
-408.70389491145
 20
-197.306562711776
 11
-409.70389491145
 21
-196.306562711776
  0
LINE
  5
449
100
AcDbEntity
  8
0
100
AcDbLine
  6
BYLAYER
 10
-401.70389491145
 20
-196.306562711776
 11
-402.70389491145
 21
-197.306562711776
  0
LINE
  5
44A
100
AcDbEntity
  8
0
100
AcDbLine
  6
BYLAYER
 10
-409.703894911449
 20
-174.306562711776
 11
-411.70389491145
 21
-174.306562711776
  0
LINE
  5
44B
100
AcDbEntity
  8
0
100
AcDbLine
  6
BYLAYER
 10
-398.70389491145
 20
-171.806562711776
 11
-398.70389491145
 21
-167.306562711776
  0
LINE
  5
44C
100
AcDbEntity
  8
0
100
AcDbLine
  6
BYLAYER
 10
-399.20389491145
 20
-172.306562711776
 11
-401.70389491145
 21
-172.306562711776
  0
LINE
  5
44D
100
AcDbEntity
  8
0
100
AcDbLine
  6
BYLAYER
 10
-398.70389491145
 20
-171.806562711776
 11
-399.20389491145
 21
-172.306562711776
  0
ARC
  5
44E
100
AcDbEntity
  8
0
100
AcDbCircle
  6
BYLAYER
 10
-473.703894911449
 20
-151.806562711776
 40
8
100
AcDbArc
 50
270
 51
0
  0
ARC
  5
44F
100
AcDbEntity
  8
0
100
AcDbCircle
  6
BYLAYER
 10
-503.203894911449
 20
-159.806562711776
 40
6
100
AcDbArc
 50
0
 51
180
  0
LINE
  5
450
100
AcDbEntity
  8
0
100
AcDbLine
  6
BYLAYER
 10
-532.70389491145
 20
-159.806562711776
 11
-509.203894911449
 21
-159.806562711776
  0
ARC
  5
451
100
AcDbEntity
  8
0
100
AcDbCircle
  6
BYLAYER
 10
-532.70389491145
 20
-151.806562711776
 40
8
100
AcDbArc
 50
180
 51
270
  0
LINE
  5
452
100
AcDbEntity
  8
0
100
AcDbLine
  6
BYLAYER
 10
-548.453894911449
 20
-154.963469787119
 11
-547.20389491145
 21
-154.338469787119
  0
ELLIPSE
  5
453
100
AcDbEntity
  8
0
100
AcDbEllipse
  6
BYLAYER
 10
-548.45389491145
 20
-149.463469787119
 30
0.0
 11
-6
 21
7.34763812293426E-16
 31
0.0
210
0.0
220
0.0
230
1.0
 40
0.866025403784448
 41
1.68325724007083
 42
1.78066691905764
  0
LINE
  5
454
100
AcDbEntity
  8
0
100
AcDbLine
  6
BYLAYER
 10
-547.703894911449
 20
-148.963469787119
 11
-547.703894911449
 21
-149.813950734281
  0
LINE
  5
455
100
AcDbEntity
  8
0
100
AcDbLine
  6
BYLAYER
 10
-549.203894911449
 20
-148.963469787119
 11
-549.203894911449
 21
-149.813950734281
  0
LINE
  5
456
100
AcDbEntity
  8
0
100
AcDbLine
  6
BYLAYER
 10
-547.70389491145
 20
-152.963469787119
 11
-549.20389491145
 21
-152.963469787119
  0
LINE
  5
457
100
AcDbEntity
  8
0
100
AcDbLine
  6
BYLAYER
 10
-549.20389491145
 20
-152.112988839958
 11
-549.20389491145
 21
-152.963469787119
  0
LINE
  5
458
100
AcDbEntity
  8
0
100
AcDbLine
  6
BYLAYER
 10
-547.703894911449
 20
-152.112988839958
 11
-547.70389491145
 21
-152.963469787119
  0
ARC
  5
459
100
AcDbEntity
  8
0
100
AcDbCircle
  6
BYLAYER
 10
-547.203894911449
 20
-152.112988839958
 40
0.5
100
AcDbArc
 50
90
 51
179.999999999994
  0
ARC
  5
45A
100
AcDbEntity
  8
0
100
AcDbCircle
  6
BYLAYER
 10
-547.203894911449
 20
-149.813950734281
 40
0.5
100
AcDbArc
 50
179.999999999994
 51
270
  0
LINE
  5
45B
100
AcDbEntity
  8
0
100
AcDbLine
  6
BYLAYER
 10
-548.453894911449
 20
-145.463469787119
 11
-547.20389491145
 21
-146.071968114214
  0
LINE
  5
45C
100
AcDbEntity
  8
0
100
AcDbLine
  6
BYLAYER
 10
-548.453894911449
 20
-146.963469787119
 11
-547.20389491145
 21
-147.588568685722
  0
LINE
  5
45D
100
AcDbEntity
  8
0
100
AcDbLine
  6
BYLAYER
 10
-549.203894911449
 20
-148.963469787119
 11
-547.703894911449
 21
-148.963469787119
  0
LINE
  5
45E
100
AcDbEntity
  8
0
100
AcDbLine
  6
BYLAYER
 10
-497.203894911449
 20
-159.806562711776
 11
-473.703894911449
 21
-159.806562711776
  0
LINE
  5
45F
100
AcDbEntity
  8
0
100
AcDbLine
  6
BYLAYER
 10
-395.703894911449
 20
-110.056562711776
 11
-395.70389491145
 21
-124.556562711776
  0
LINE
  5
460
100
AcDbEntity
  8
0
100
AcDbLine
  6
BYLAYER
 10
-398.70389491145
 20
-124.556562711776
 11
-395.70389491145
 21
-124.556562711776
  0
LINE
  5
461
100
AcDbEntity
  8
0
100
AcDbLine
  6
BYLAYER
 10
-398.70389491145
 20
-110.056562711776
 11
-395.703894911449
 21
-110.056562711776
  0
LINE
  5
462
100
AcDbEntity
  8
0
100
AcDbLine
  6
BYLAYER
 10
-390.70389491145
 20
-110.306562711776
 11
-395.70389491145
 21
-110.306562711776
  0
LINE
  5
463
100
AcDbEntity
  8
0
100
AcDbLine
  6
BYLAYER
 10
-390.70389491145
 20
-110.306562711776
 11
-390.703894911449
 21
-111.306562711776
  0
LINE
  5
464
100
AcDbEntity
  8
DIM
100
AcDbLine
  6
BYLAYER
 62
0
370
  -2
 10
-195.614051450837
 20
-192.738779702729
 11
-202.114051450837
 21
-192.738779702729
  0
LINE
  5
465
100
AcDbEntity
  8
DIM
100
AcDbLine
  6
BYLAYER
 62
0
370
  -2
 10
-202.114051450837
 20
-192.738779702729
 11
-230.303867011264
 21
-129.728123211197
  0
TEXT
  5
466
100
AcDbEntity
  8
DIM
 62
0
100
AcDbText
  6
BYLAYER
 62
0
 10
-193.86338478417
 20
-197.288779702729
 40
9.1
  1
φ14
  7
Font_0
 72
1
 11
-184.76338478417
 21
-192.738779702729
100
AcDbText
 73
2
  0
SOLID
  5
467
100
AcDbEntity
  8
DIM
100
AcDbTrace
 10
-232.958312124274
 20
-123.794833976547
 30
0.0
 11
-231.292748550372
 21
-130.170530730032
 31
0.0
 12
-229.314985472156
 22
-129.285715692362
 32
0.0
 13
-229.314985472156
 23
-129.285715692362
 33
0.0
  0
LINE
  5
468
100
AcDbEntity
  8
DIM
100
AcDbLine
  6
BYLAYER
 62
0
370
  -2
 10
-236.050945322899
 20
-117.405137877692
 11
-235.582945322899
 21
-117.405137877692
  0
LINE
  5
469
100
AcDbEntity
  8
DIM
100
AcDbLine
  6
BYLAYER
 62
0
370
  -2
 10
-235.816945322899
 20
-117.639137877692
 11
-235.816945322899
 21
-117.171137877692
  0
LINE
  5
46A
100
AcDbEntity
  8
CENTER
100
AcDbLine
  6
BYLAYER
 10
-235.816945322899
 20
-117.306562711776
 11
-152.588047300242
 21
-117.306562711776
  0
LINE
  5
46B
100
AcDbEntity
  8
0
100
AcDbLine
  6
BYLAYER
 10
-337.829794502843
 20
-168.306562711776
 11
-334.740999035441
 21
-168.306562711776
  0
ARC
  5
46C
100
AcDbEntity
  8
0
100
AcDbCircle
  6
BYLAYER
 10
-235.816945322899
 20
-187.306562711776
 40
5
100
AcDbArc
 50
90
 51
270
  0
ARC
  5
46D
100
AcDbEntity
  8
0
100
AcDbCircle
  6
BYLAYER
 10
-235.816945322899
 20
-187.306562711776
 40
5
100
AcDbArc
 50
270
 51
90
  0
LINE
  5
46E
100
AcDbEntity
  8
CENTER
100
AcDbLine
  6
BYLAYER
 10
-235.816945322899
 20
-117.306562711776
 11
-351.099381663603
 21
-117.306562711776
  0
ARC
  5
46F
100
AcDbEntity
  8
0
100
AcDbCircle
  6
BYLAYER
 10
-307.740999035441
 20
-151.806562711776
 40
8
100
AcDbArc
 50
270
 51
296.852257006836
  0
CIRCLE
  5
470
100
AcDbEntity
  8
0
100
AcDbCircle
  6
BYLAYER
 10
-305.816945322899
 20
-117.306562711776
 40
5
  0
LINE
  5
471
100
AcDbEntity
  8
0
100
AcDbLine
  6
BYLAYER
 10
-332.657665702107
 20
-159.806562711776
 11
-307.740999035441
 21
-159.806562711776
  0
ARC
  5
472
100
AcDbEntity
  8
0
100
AcDbCircle
  6
BYLAYER
 10
-336.740999035441
 20
-151.806562711776
 40
8
100
AcDbArc
 50
180
 51
270
  0
LINE
  5
473
100
AcDbEntity
  8
0
100
AcDbLine
  6
BYLAYER
 10
-336.740999035441
 20
-159.806562711776
 11
-335.74646116951
 21
-159.806562711776
  0
LINE
  5
474
100
AcDbEntity
  8
0
100
AcDbLine
  6
BYLAYER
 10
-360.70389491145
 20
-111.306562711776
 11
-360.70389491145
 21
-117.306562711776
  0
LINE
  5
475
100
AcDbEntity
  8
0
100
AcDbLine
  6
BYLAYER
 10
-360.70389491145
 20
-123.306562711776
 11
-360.70389491145
 21
-117.306562711776
  0
LINE
  5
476
100
AcDbEntity
  8
0
100
AcDbLine
  6
BYLAYER
 10
-360.70389491145
 20
-123.306562711776
 11
-361.70389491145
 21
-124.306562711776
  0
CIRCLE
  5
477
100
AcDbEntity
  8
0
100
AcDbCircle
  6
BYLAYER
 10
-235.816945322899
 20
-117.405137877692
 40
5.90142483408374
  0
CIRCLE
  5
478
100
AcDbEntity
  8
0
100
AcDbCircle
  6
BYLAYER
 10
-235.816945322899
 20
-117.405137877692
 40
7.34857516591603
  0
ARC
  5
479
100
AcDbEntity
  8
0
100
AcDbCircle
  6
BYLAYER
 10
-235.816945322899
 20
-117.405137877692
 40
7
100
AcDbArc
 50
121.002719133873
 51
58.997280866127
  0
ARC
  5
47A
100
AcDbEntity
  8
0
100
AcDbCircle
  6
BYLAYER
 10
-235.816945322899
 20
-117.306562711776
 40
7.5
100
AcDbArc
 50
90
 51
270
  0
ARC
  5
47B
100
AcDbEntity
  8
0
100
AcDbCircle
  6
BYLAYER
 10
-235.816945322899
 20
-117.306562711776
 40
7.5
100
AcDbArc
 50
270
 51
90
  0
LINE
  5
47C
100
AcDbEntity
  8
0
100
AcDbLine
  6
BYLAYER
 10
-239.422496598363
 20
-111.405137877692
 11
-232.211394047435
 21
-111.405137877692
  0
CIRCLE
  5
47D
100
AcDbEntity
  8
0
100
AcDbCircle
  6
BYLAYER
 10
-165.816945322899
 20
-117.306562711776
 40
5
  0
LINE
  5
47E
100
AcDbEntity
  8
DIM
100
AcDbLine
  6
BYLAYER
 62
0
370
  -2
 10
-601.70389491145
 20
-72.2065627117762
 11
-601.70389491145
 21
-15.993350206979
  0
LINE
  5
47F
100
AcDbEntity
  8
DIM
100
AcDbLine
  6
BYLAYER
 62
0
370
  -2
 10
-541.70389491145
 20
-51.2065627117762
 11
-541.70389491145
 21
-15.993350206979
  0
LINE
  5
480
100
AcDbEntity
  8
DIM
100
AcDbLine
  6
BYLAYER
 62
0
370
  -2
 10
-595.20389491145
 20
-16.461350206979
 11
-578.76289491145
 21
-16.461350206979
  0
LINE
  5
481
100
AcDbEntity
  8
DIM
100
AcDbLine
  6
BYLAYER
 62
0
370
  -2
 10
-548.20389491145
 20
-16.461350206979
 11
-564.64489491145
 21
-16.461350206979
  0
SOLID
  5
482
100
AcDbEntity
  8
DIM
100
AcDbTrace
 10
-601.70389491145
 20
-16.461350206979
 30
0.0
 11
-595.20389491145
 21
-17.5446835403123
 31
0.0
 12
-595.20389491145
 22
-15.3780168736456
 32
0.0
 13
-595.20389491145
 23
-15.3780168736456
 33
0.0
  0
SOLID
  5
483
100
AcDbEntity
  8
DIM
100
AcDbTrace
 10
-548.20389491145
 20
-15.3780168736456
 30
0.0
 11
-548.20389491145
 21
-17.5446835403123
 31
0.0
 12
-541.70389491145
 22
-16.461350206979
 32
0.0
 13
-541.70389491145
 23
-16.461350206979
 33
0.0
  0
TEXT
  5
484
100
AcDbEntity
  8
DIM
 62
0
100
AcDbText
  6
BYLAYER
 62
0
 10
-576.25389491145
 20
-21.011350206979
 40
9.1
  1
60
  7
Font_0
 72
1
 11
-571.70389491145
 21
-16.461350206979
100
AcDbText
 73
2
  0
LINE
  5
485
100
AcDbEntity
  8
0
100
AcDbLine
  6
BYLAYER
 10
-541.70389491145
 20
-53.8065627117762
 11
-581.70389491145
 21
-53.8065627117762
  0
LINE
  5
486
100
AcDbEntity
  8
0
100
AcDbLine
  6
BYLAYER
 10
-597.20389491145
 20
-70.3065627117762
 11
-590.298944984359
 21
-58.6952894609923
  0
ARC
  5
487
100
AcDbEntity
  8
0
100
AcDbCircle
  6
BYLAYER
 10
-597.20389491145
 20
-74.8065627117762
 40
4.5
100
AcDbArc
 50
90
 51
180
  0
ARC
  5
488
100
AcDbEntity
  8
0
100
AcDbCircle
  6
BYLAYER
 10
-581.70389491145
 20
-63.8065627117762
 40
10
100
AcDbArc
 50
90
 51
149.261050488695
  0
LINE
  5
489
100
AcDbEntity
  8
DIM
100
AcDbLine
  6
BYLAYER
 62
0
370
  -2
 10
-411.70389491145
 20
-57.7065627117762
 11
-411.70389491145
 21
-15.5771889704143
  0
LINE
  5
48A
100
AcDbEntity
  8
DIM
100
AcDbLine
  6
BYLAYER
 62
0
370
  -2
 10
-541.70389491145
 20
-51.2065627117762
 11
-541.70389491145
 21
-15.5771889704143
  0
LINE
  5
48B
100
AcDbEntity
  8
DIM
100
AcDbLine
  6
BYLAYER
 62
0
370
  -2
 10
-418.20389491145
 20
-16.0451889704143
 11
-466.611561578116
 21
-16.0451889704143
  0
LINE
  5
48C
100
AcDbEntity
  8
DIM
100
AcDbLine
  6
BYLAYER
 62
0
370
  -2
 10
-535.20389491145
 20
-16.0451889704143
 11
-486.796228244783
 21
-16.0451889704143
  0
SOLID
  5
48D
100
AcDbEntity
  8
DIM
100
AcDbTrace
 10
-418.20389491145
 20
-14.961855637081
 30
0.0
 11
-418.20389491145
 21
-17.1285223037476
 31
0.0
 12
-411.70389491145
 22
-16.0451889704143
 32
0.0
 13
-411.70389491145
 23
-16.0451889704143
 33
0.0
  0
SOLID
  5
48E
100
AcDbEntity
  8
DIM
100
AcDbTrace
 10
-541.70389491145
 20
-16.0451889704143
 30
0.0
 11
-535.20389491145
 21
-17.1285223037476
 31
0.0
 12
-535.20389491145
 22
-14.961855637081
 32
0.0
 13
-535.20389491145
 23
-14.961855637081
 33
0.0
  0
TEXT
  5
48F
100
AcDbEntity
  8
DIM
 62
0
100
AcDbText
  6
BYLAYER
 62
0
 10
-483.52889491145
 20
-20.5951889704143
 40
9.1
  1
130
  7
Font_0
 72
1
 11
-476.70389491145
 21
-16.0451889704143
100
AcDbText
 73
2
  0
ARC
  5
490
100
AcDbEntity
  8
0
100
AcDbCircle
  6
BYLAYER
 10
-519.70389491145
 20
-32.1065627117762
 40
10
100
AcDbArc
 50
90
 51
180
  0
ARC
  5
491
100
AcDbEntity
  8
0
100
AcDbCircle
  6
BYLAYER
 10
-464.70389491145
 20
-32.1065627117762
 40
10
100
AcDbArc
 50
0
 51
90
  0
LINE
  5
492
100
AcDbEntity
  8
0
100
AcDbLine
  6
BYLAYER
 10
-459.70389491145
 20
-63.2197713785122
 11
-524.70389491145
 21
-63.2197713785122
  0
LINE
  5
493
100
AcDbEntity
  8
0
100
AcDbLine
  6
BYLAYER
 10
-454.703894911449
 20
-64.4359533736958
 11
-529.70389491145
 21
-64.4359533736958
  0
LINE
  5
494
100
AcDbEntity
  8
0
100
AcDbLine
  6
BYLAYER
 10
-454.703894911449
 20
-65.5298281195855
 11
-529.70389491145
 21
-65.5298281195855
  0
ARC
  5
495
100
AcDbEntity
  8
0
100
AcDbCircle
  6
BYLAYER
 10
-473.703894911449
 20
-82.8065627117762
 40
8
100
AcDbArc
 50
0
 51
90
  0
ARC
  5
496
100
AcDbEntity
  8
0
100
AcDbCircle
  6
BYLAYER
 10
-469.203894911449
 20
-76.3065627117763
 40
10
100
AcDbArc
 50
0
 51
90
  0
ARC
  5
497
100
AcDbEntity
  8
0
100
AcDbCircle
  6
BYLAYER
 10
-529.172652722962
 20
-49.1785751400774
 40
16.35988056994
100
AcDbArc
 50
224.801263800081
 51
268.139149799482
  0
ARC
  5
498
100
AcDbEntity
  8
0
100
AcDbCircle
  6
BYLAYER
 10
-529.172652722961
 20
-48.0847003941878
 40
16.35988056994
100
AcDbArc
 50
224.801263800081
 51
268.139149799482
  0
LINE
  5
499
100
AcDbEntity
  8
CENTER
100
AcDbLine
  6
BYLAYER
 10
-534.70389491145
 20
-53.8065627117762
 11
-534.70389491145
 21
-67.3762771620304
  0
LINE
  5
49A
100
AcDbEntity
  8
0
100
AcDbLine
  6
BYLAYER
 10
-541.70389491145
 20
-60.7065627117763
 11
-541.70389491145
 21
-67.3762771620303
  0
LINE
  5
49B
100
AcDbEntity
  8
0
100
AcDbLine
  6
BYLAYER
 10
-541.70389491145
 20
-53.8065627117762
 11
-541.70389491145
 21
-67.3762771620304
  0
LINE
  5
49C
100
AcDbEntity
  8
0
100
AcDbLine
  6
BYLAYER
 10
-534.70389491145
 20
-56.4497244182675
 11
-534.70389491145
 21
-67.3135419800873
  0
ARC
  5
49D
100
AcDbEntity
  8
0
100
AcDbCircle
  6
BYLAYER
 10
-524.70389491145
 20
-58.2197713785122
 40
5
100
AcDbArc
 50
180
 51
270
  0
LINE
  5
49E
100
AcDbEntity
  8
0
100
AcDbLine
  6
BYLAYER
 10
-537.20389491145
 20
-66.3065627117762
 11
-469.203894911449
 21
-66.3065627117763
  0
LINE
  5
49F
100
AcDbEntity
  8
0
100
AcDbLine
  6
BYLAYER
 10
-532.70389491145
 20
-74.8065627117761
 11
-473.703894911449
 21
-74.8065627117762
  0
ARC
  5
4A0
100
AcDbEntity
  8
0
100
AcDbCircle
  6
BYLAYER
 10
-532.70389491145
 20
-82.8065627117761
 40
8
100
AcDbArc
 50
90
 51
180
  0
ARC
  5
4A1
100
AcDbEntity
  8
0
100
AcDbCircle
  6
BYLAYER
 10
-537.20389491145
 20
-76.3065627117762
 40
10
100
AcDbArc
 50
90
 51
180
  0
LINE
  5
4A2
100
AcDbEntity
  8
0
100
AcDbLine
  6
BYLAYER
 10
-529.70389491145
 20
-64.4359533736958
 11
-529.70389491145
 21
-65.5298281195854
  0
LINE
  5
4A3
100
AcDbEntity
  8
0
100
AcDbLine
  6
BYLAYER
 10
-529.70389491145
 20
-31.6126879658865
 11
-529.70389491145
 21
-58.2197713785122
  0
LINE
  5
4A4
100
AcDbEntity
  8
0
100
AcDbLine
  6
BYLAYER
 10
-540.780890953178
 20
-59.6126879658865
 11
-529.505955238082
 21
-59.6126879658865
  0
LINE
  5
4A5
100
AcDbEntity
  8
0
100
AcDbLine
  6
BYLAYER
 10
-541.703894911449
 20
-60.7065627117761
 11
-540.780890953178
 21
-60.7065627117761
  0
LINE
  5
4A6
100
AcDbEntity
  8
0
100
AcDbLine
  6
BYLAYER
 10
-540.780890953178
 20
-59.6126879658865
 11
-540.780890953178
 21
-60.7065627117764
  0
ARC
  5
4A7
100
AcDbEntity
  8
0
100
AcDbCircle
  6
BYLAYER
 10
-455.235137099938
 20
-48.0847003941878
 40
16.35988056994
100
AcDbArc
 50
271.860850200518
 51
315.198736199919
  0
ARC
  5
4A8
100
AcDbEntity
  8
0
100
AcDbCircle
  6
BYLAYER
 10
-455.235137099937
 20
-49.1785751400774
 40
16.35988056994
100
AcDbArc
 50
271.860850200518
 51
315.198736199919
  0
ARC
  5
4A9
100
AcDbEntity
  8
0
100
AcDbCircle
  6
BYLAYER
 10
-459.70389491145
 20
-58.2197713785122
 40
5
100
AcDbArc
 50
270
 51
0
  0
LINE
  5
4AA
100
AcDbEntity
  8
0
100
AcDbLine
  6
BYLAYER
 10
-398.70389491145
 20
-62.8065627117762
 11
-398.70389491145
 21
-67.3065627117762
  0
LINE
  5
4AB
100
AcDbEntity
  8
CENTER
100
AcDbLine
  6
BYLAYER
 10
-449.70389491145
 20
-55.0726209900698
 11
-449.70389491145
 21
-66.0894499582137
  0
LINE
  5
4AC
100
AcDbEntity
  8
0
100
AcDbLine
  6
BYLAYER
 10
-454.70389491145
 20
-64.4359533736958
 11
-454.70389491145
 21
-65.5298281195854
  0
LINE
  5
4AD
100
AcDbEntity
  8
0
100
AcDbLine
  6
BYLAYER
 10
-443.626898869721
 20
-60.7065627117763
 11
-411.703894911449
 21
-60.7065627117763
  0
LINE
  5
4AE
100
AcDbEntity
  8
0
100
AcDbLine
  6
BYLAYER
 10
-454.70389491145
 20
-44.9162296721993
 11
-454.70389491145
 21
-58.2197713785122
  0
LINE
  5
4AF
100
AcDbEntity
  8
0
100
AcDbLine
  6
BYLAYER
 10
-454.70389491145
 20
-31.6126879658865
 11
-454.70389491145
 21
-58.2197713785122
  0
LINE
  5
4B0
100
AcDbEntity
  8
0
100
AcDbLine
  6
BYLAYER
 10
-443.626898869721
 20
-59.6126879658865
 11
-454.901834584817
 21
-59.6126879658865
  0
LINE
  5
4B1
100
AcDbEntity
  8
0
100
AcDbLine
  6
BYLAYER
 10
-443.626898869721
 20
-59.6126879658865
 11
-443.626898869721
 21
-60.7065627117764
  0
LINE
  5
4B2
100
AcDbEntity
  8
0
100
AcDbLine
  6
BYLAYER
 10
-409.703894911449
 20
-60.3065627117762
 11
-411.70389491145
 21
-60.3065627117762
  0
LINE
  5
4B3
100
AcDbEntity
  8
0
100
AcDbLine
  6
BYLAYER
 10
-399.20389491145
 20
-62.3065627117762
 11
-401.70389491145
 21
-62.3065627117762
  0
LINE
  5
4B4
100
AcDbEntity
  8
0
100
AcDbLine
  6
BYLAYER
 10
-398.70389491145
 20
-62.8065627117762
 11
-399.20389491145
 21
-62.3065627117762
  0
LINE
  5
4B5
100
AcDbEntity
  8
0
100
AcDbLine
  6
BYLAYER
 10
-402.70389491145
 20
-37.3065627117762
 11
-408.70389491145
 21
-37.3065627117762
  0
LINE
  5
4B6
100
AcDbEntity
  8
0
100
AcDbLine
  6
BYLAYER
 10
-408.70389491145
 20
-37.3065627117762
 11
-409.70389491145
 21
-38.3065627117762
  0
LINE
  5
4B7
100
AcDbEntity
  8
0
100
AcDbLine
  6
BYLAYER
 10
-401.70389491145
 20
-38.3065627117762
 11
-402.70389491145
 21
-37.3065627117762
  0
LINE
  5
4B8
100
AcDbEntity
  8
0
100
AcDbLine
  6
BYLAYER
 10
-464.70389491145
 20
-22.1065627117762
 11
-519.70389491145
 21
-22.1065627117762
  0
LINE
  5
4B9
100
AcDbEntity
  8
DIM
100
AcDbLine
  6
BYLAYER
 62
0
370
  -2
 10
-208.162908857681
 20
-27.8780730450058
 11
-214.662908857681
 21
-27.8780730450058
  0
LINE
  5
4BA
100
AcDbEntity
  8
DIM
100
AcDbLine
  6
BYLAYER
 62
0
370
  -2
 10
-214.662908857681
 20
-27.8780730450058
 11
-227.347113579636
 21
-39.527619966081
  0
TEXT
  5
4BB
100
AcDbEntity
  8
DIM
 62
0
100
AcDbText
  6
BYLAYER
 62
0
 10
-202.620575524348
 20
-32.4280730450058
 40
9.1
  1
4-φ10
  7
Font_0
 72
1
 11
-188.970575524348
 21
-27.8780730450058
100
AcDbText
 73
2
  0
SOLID
  5
4BC
100
AcDbEntity
  8
DIM
100
AcDbTrace
 10
-232.13440978235
 20
-43.9244136919087
 30
0.0
 11
-226.614314625331
 21
-40.3255026665333
 31
0.0
 12
-228.07991253394
 22
-38.7297372656286
 32
0.0
 13
-228.07991253394
 23
-38.7297372656286
 33
0.0
  0
LINE
  5
4BD
100
AcDbEntity
  8
DIM
100
AcDbLine
  6
BYLAYER
 62
0
370
  -2
 10
-236.050945322899
 20
-47.3065627117762
 11
-235.582945322899
 21
-47.3065627117762
  0
LINE
  5
4BE
100
AcDbEntity
  8
DIM
100
AcDbLine
  6
BYLAYER
 62
0
370
  -2
 10
-235.816945322899
 20
-47.5405627117762
 11
-235.816945322899
 21
-47.0725627117762
  0
ARC
  5
4BF
100
AcDbEntity
  8
0
100
AcDbCircle
  6
BYLAYER
 10
-235.816945322899
 20
-42.1065627117762
 40
20
100
AcDbArc
 50
6.58521737552646
 51
173.414782624474
  0
LINE
  5
4C0
100
AcDbEntity
  8
CENTER
100
AcDbLine
  6
BYLAYER
 10
-235.816945322899
 20
-65.0459147908325
 11
-235.816945322899
 21
-19.6029756138072
  0
ARC
  5
4C1
100
AcDbEntity
  8
0
100
AcDbCircle
  6
BYLAYER
 10
-307.740999035441
 20
-82.8065627117762
 40
8
100
AcDbArc
 50
63.1477429931631
 51
90
  0
ARC
  5
4C2
100
AcDbEntity
  8
0
100
AcDbCircle
  6
BYLAYER
 10
-336.740999035441
 20
-82.8065627117761
 40
8
100
AcDbArc
 50
90
 51
180
  0
LINE
  5
4C3
100
AcDbEntity
  8
0
100
AcDbLine
  6
BYLAYER
 10
-336.740999035441
 20
-74.8065627117761
 11
-314.913127836176
 21
-74.8065627117762
  0
LINE
  5
4C4
100
AcDbEntity
  8
0
100
AcDbLine
  6
BYLAYER
 10
-311.824332368774
 20
-74.8065627117762
 11
-307.740999035441
 21
-74.8065627117762
  0
LINE
  5
4C5
100
AcDbEntity
  8
0
100
AcDbLine
  6
BYLAYER
 10
-312.829794502843
 20
-66.3065627117762
 11
-309.740999035441
 21
-66.3065627117762
  0
ARC
  5
4C6
100
AcDbEntity
  8
0
100
AcDbCircle
  6
BYLAYER
 10
-235.816945322899
 20
-47.3065627117762
 40
5
100
AcDbArc
 50
90.0000000000008
 51
269.999999999999
  0
ARC
  5
4C7
100
AcDbEntity
  8
0
100
AcDbCircle
  6
BYLAYER
 10
-235.816945322899
 20
-47.3065627117762
 40
5
100
AcDbArc
 50
270.000000000001
 51
89.9999999999992
  0
INSERT
  5
4C8
100
AcDbEntity
  8
0
100
AcDbBlockReference
  6
CONTINUOUS
  2
W_
 10
-503.203894911449
 20
-163.306562711776
 30
0.0
  0
INSERT
  5
4C9
100
AcDbEntity
  8
0
100
AcDbBlockReference
  6
CONTINUOUS
  2
W-_1
 10
-548.730752983047
 20
-46.6731285955315
 30
0.0
 50
270
  0
INSERT
  5
4CA
100
AcDbEntity
  8
0
100
AcDbBlockReference
  6
CONTINUOUS
  2
W_-1
 10
-534.70389491145
 20
-59.6126879658866
 30
0.0
 41
-1
 50
270
  0
INSERT
  5
4CB
100
AcDbEntity
  8
0
100
AcDbBlockReference
  6
CONTINUOUS
  2
W_-1
 10
-449.70389491145
 20
-59.6126879658866
 30
0.0
 50
90
  0
ENDBLK
  5
4CC
100
AcDbEntity
  8
0
 67
     1
100
AcDbBlockEnd
  0
BLOCK
  5
4CD
100
AcDbEntity
  8
0
100
AcDbBlockBegin
  2
A$C20C654D6
 70
    0
 10
0
 20
0
 30
0.0
  3
A$C20C654D6
  1

  0
LINE
  5
4CE
100
AcDbEntity
  8
0
100
AcDbLine
  6
BYLAYER
 62
0
370
0
 10
439.564358205674
 20
101.089814180068
 11
586.610856874801
 21
101.089814180068
  0
ARC
  5
4CF
100
AcDbEntity
  8
0
100
AcDbCircle
  6
BYLAYER
 62
0
370
0
 10
571.429052929847
 20
296.996437000717
 40
196.494000000039
100
AcDbArc
 50
-85.5687141769078
 51
-54.7269955718184
  0
ARC
  5
4D0
100
AcDbEntity
  8
0
100
AcDbCircle
  6
BYLAYER
 62
0
370
0
 10
578.345134678777
 20
290.721321247471
 40
187.387999999982
100
AcDbArc
 50
-55.3454522640415
 51
-24.4731974717779
  0
ARC
  5
4D1
100
AcDbEntity
  8
0
100
AcDbCircle
  6
BYLAYER
 62
0
370
0
 10
587.473744745963
 20
288.766556329032
 40
178.28099999998
100
AcDbArc
 50
-25.1167877712927
 51
5.80686205086289
  0
ARC
  5
4D2
100
AcDbEntity
  8
0
100
AcDbCircle
  6
BYLAYER
 62
0
370
0
 10
596.343684088241
 20
291.664819587623
 40
169.174999999997
100
AcDbArc
 50
5.13424274576233
 51
36.1153253664645
  0
ARC
  5
4D3
100
AcDbEntity
  8
0
100
AcDbCircle
  6
BYLAYER
 62
0
370
0
 10
602.554763608807
 20
298.623437689961
 40
160.067999999988
100
AcDbArc
 50
35.4135506603404
 51
66.459803018555
  0
ARC
  5
4D4
100
AcDbEntity
  8
0
100
AcDbCircle
  6
BYLAYER
 62
0
370
0
 10
604.418162479028
 20
307.75783879108
 40
150.962000000041
100
AcDbArc
 50
65.7235239252995
 51
96.8436811788046
  0
ARC
  5
4D5
100
AcDbEntity
  8
0
100
AcDbCircle
  6
BYLAYER
 62
0
370
0
 10
601.435180051423
 20
316.585135937428
 40
141.854999999994
100
AcDbArc
 50
-263.927741679429
 51
-232.722402024878
  0
ARC
  5
4D6
100
AcDbEntity
  8
0
100
AcDbCircle
  6
BYLAYER
 62
0
370
0
 10
594.412724828404
 20
322.700460077348
 40
132.748999999996
100
AcDbArc
 50
-233.535550875679
 51
-202.231794057778
  0
ARC
  5
4D7
100
AcDbEntity
  8
0
100
AcDbCircle
  6
BYLAYER
 62
0
370
0
 10
585.270796304281
 20
324.440851058735
 40
123.641999999998
100
AcDbArc
 50
-203.088133830786
 51
-172.861068569659
  0
ARC
  5
4D8
100
AcDbEntity
  8
0
100
AcDbCircle
  6
BYLAYER
 62
0
370
0
 10
473.52348064362
 20
229.289814180067
 40
23.7999999999991
100
AcDbArc
 50
-90.0000000000059
 51
-378.215496562597
  0
LINE
  5
4D9
100
AcDbEntity
  8
0
100
AcDbLine
  6
BYLAYER
 62
0
370
0
 10
473.523480643617
 20
205.489814180068
 11
439.564358205674
 21
205.489814180067
  0
CIRCLE
  5
4DA
100
AcDbEntity
  8
0
100
AcDbCircle
  6
BYLAYER
 62
0
 10
667.881638042127
 20
388.007094016521
 40
2.5
  0
CIRCLE
  5
4DB
100
AcDbEntity
  8
0
100
AcDbCircle
  6
BYLAYER
 62
0
 10
701.564358205674
 20
306.689814180068
 40
2.5
  0
CIRCLE
  5
4DC
100
AcDbEntity
  8
0
100
AcDbCircle
  6
BYLAYER
 62
0
 10
667.881638042127
 20
225.372534343615
 40
2.5
  0
LINE
  5
4DD
100
AcDbEntity
  8
0
100
AcDbLine
  6
BYLAYER
 62
0
 10
296.400001529061
 20
214.817291128195
 11
296.400001529061
 21
457.93858879112
  0
CIRCLE
  5
4DE
100
AcDbEntity
  8
0
100
AcDbCircle
  6
BYLAYER
 62
0
 10
586.564358205675
 20
421.689814180068
 40
2.5
  0
CIRCLE
  5
4DF
100
AcDbEntity
  8
0
100
AcDbCircle
  6
BYLAYER
 62
0
 10
505.247078369222
 20
388.007094016521
 40
2.5
  0
CIRCLE
  5
4E0
100
AcDbEntity
  8
0
100
AcDbCircle
  6
BYLAYER
 62
0
 10
471.564358205674
 20
306.689814180068
 40
2.5
  0
LINE
  5
4E1
100
AcDbEntity
  8
0
100
AcDbLine
  6
BYLAYER
 62
0
 10
296.400001529061
 20
457.93858879112
 11
304.400001529061
 21
457.93858879112
  0
CIRCLE
  5
4E2
100
AcDbEntity
  8
0
100
AcDbCircle
  6
BYLAYER
 62
0
 10
586.564358205674
 20
191.689814180068
 40
2.5
  0
CIRCLE
  5
4E3
100
AcDbEntity
  8
0
100
AcDbCircle
  6
BYLAYER
 62
0
 10
505.247078369221
 20
225.372534343615
 40
2.5
  0
LINE
  5
4E4
100
AcDbEntity
  8
0
100
AcDbLine
  6
BYLAYER
 62
0
 10
300.700001529061
 20
197.208564180068
 11
300.700001529061
 21
202.408564180068
  0
LINE
  5
4E5
100
AcDbEntity
  8
0
100
AcDbLine
  6
BYLAYER
 62
0
 10
300.700001529061
 20
197.208564180068
 11
302.100001529061
 21
197.208564180068
  0
LINE
  5
4E6
100
AcDbEntity
  8
0
100
AcDbLine
  6
BYLAYER
 62
0
 10
439.564358205674
 20
101.089814180068
 11
439.564358205674
 21
205.489814180068
  0
LINE
  5
4E7
100
AcDbEntity
  8
0
100
AcDbLine
  6
BYLAYER
 62
0
 10
205.700001529061
 20
197.208564180068
 11
204.300001529061
 21
197.208564180068
  0
LINE
  5
4E8
100
AcDbEntity
  8
0
100
AcDbLine
  6
BYLAYER
 62
0
 10
205.700001529061
 20
197.208564180068
 11
205.700001529061
 21
202.408564180068
  0
LINE
  5
4E9
100
AcDbEntity
  8
0
100
AcDbLine
  6
BYLAYER
 62
0
 10
210.000001529061
 20
457.93858879112
 11
202.000001529061
 21
457.93858879112
  0
LINE
  5
4EA
100
AcDbEntity
  8
0
100
AcDbLine
  6
BYLAYER
 62
0
 10
202.000001529061
 20
457.93858879112
 11
202.000001529061
 21
208.313308500245
  0
LINE
  5
4EB
100
AcDbEntity
  8
0
100
AcDbLine
  6
BYLAYER
 62
0
 10
210.000001529061
 20
214.817291128195
 11
210.000001529061
 21
457.93858879112
  0
CIRCLE
  5
4EC
100
AcDbEntity
  8
0
100
AcDbCircle
  6
BYLAYER
 62
0
 10
253.200001529061
 20
153.508564180068
 40
75
  0
CIRCLE
  5
4ED
100
AcDbEntity
  8
0
100
AcDbCircle
  6
BYLAYER
 62
0
 10
253.200001529061
 20
153.508564180068
 40
74
  0
LINE
  5
4EE
100
AcDbEntity
  8
0
100
AcDbLine
  6
BYLAYER
 62
0
 10
408.564358205675
 20
228.289814180068
 11
408.564358205675
 21
78.2898141800676
  0
LINE
  5
4EF
100
AcDbEntity
  8
0
100
AcDbLine
  6
BYLAYER
 62
0
 10
439.564358205674
 20
83.2898141800676
 11
439.564358205674
 21
223.289814180068
  0
LINE
  5
4F0
100
AcDbEntity
  8
0
100
AcDbLine
  6
BYLAYER
 62
0
 10
434.564358205674
 20
228.289814180068
 11
408.564358205675
 21
228.289814180068
  0
LINE
  5
4F1
100
AcDbEntity
  8
0
100
AcDbLine
  6
BYLAYER
 62
0
 10
408.564358205675
 20
78.2898141800676
 11
434.564358205674
 21
78.2898141800676
  0
ARC
  5
4F2
100
AcDbEntity
  8
0
100
AcDbCircle
  6
BYLAYER
 62
0
 10
434.564358205674
 20
83.2898141800676
 40
5
100
AcDbArc
 50
270
 51
0
  0
ARC
  5
4F3
100
AcDbEntity
  8
0
100
AcDbCircle
  6
BYLAYER
 62
0
 10
434.564358205674
 20
223.289814180068
 40
5
100
AcDbArc
 50
0
 51
90
  0
LINE
  5
4F4
100
AcDbEntity
  8
0
100
AcDbLine
  6
BYLAYER
 62
0
 10
306.400001529061
 20
430.689814180068
 11
306.400001529061
 21
430.689814180068
  0
LINE
  5
4F5
100
AcDbEntity
  8
0
100
AcDbLine
  6
BYLAYER
 62
0
 10
306.400001529061
 20
430.689814180068
 11
306.400001529061
 21
430.689814180068
  0
LINE
  5
4F6
100
AcDbEntity
  8
0
100
AcDbLine
  6
BYLAYER
 62
0
 10
304.400001529061
 20
430.689814180068
 11
306.400001529061
 21
430.689814180068
  0
LINE
  5
4F7
100
AcDbEntity
  8
0
100
AcDbLine
  6
BYLAYER
 62
0
 10
308.200001529061
 20
430.689814180068
 11
307.200001529061
 21
430.689814180068
  0
LINE
  5
4F8
100
AcDbEntity
  8
0
100
AcDbLine
  6
BYLAYER
 62
0
 10
308.200001529061
 20
430.689814180068
 11
308.200001529061
 21
204.498759315996
  0
LINE
  5
4F9
100
AcDbEntity
  8
0
100
AcDbLine
  6
BYLAYER
 62
0
 10
308.200001529061
 20
407.189814180068
 11
347.200001529061
 21
407.189814180068
  0
LINE
  5
4FA
100
AcDbEntity
  8
0
100
AcDbLine
  6
BYLAYER
 62
0
 10
308.200001529061
 20
206.189814180068
 11
347.200001529061
 21
206.189814180068
  0
LINE
  5
4FB
100
AcDbEntity
  8
0
100
AcDbLine
  6
BYLAYER
 62
0
 10
347.200001529061
 20
206.189814180068
 11
347.200001529061
 21
407.189814180068
  0
LINE
  5
4FC
100
AcDbEntity
  8
0
100
AcDbLine
  6
BYLAYER
 62
0
 10
306.400001529061
 20
406.189814180068
 11
306.400001529061
 21
430.689814180068
  0
LINE
  5
4FD
100
AcDbEntity
  8
0
100
AcDbLine
  6
BYLAYER
 62
0
 10
306.400001529061
 20
406.189814180068
 11
306.400001529061
 21
206.374053868521
  0
CIRCLE
  5
4FE
100
AcDbEntity
  8
0
100
AcDbCircle
  6
BYLAYER
 62
0
 10
586.564358205674
 20
306.689814180068
 40
84
  0
CIRCLE
  5
4FF
100
AcDbEntity
  8
0
100
AcDbCircle
  6
BYLAYER
 62
0
 10
586.564358205674
 20
306.689814180068
 40
124
  0
CIRCLE
  5
500
100
AcDbEntity
  8
0
100
AcDbCircle
  6
BYLAYER
 62
0
 10
586.564358205674
 20
306.689814180068
 40
99.5
  0
CIRCLE
  5
501
100
AcDbEntity
  8
0
100
AcDbCircle
  6
BYLAYER
 62
0
 10
586.564358205674
 20
191.689814180068
 40
3.25
  0
CIRCLE
  5
502
100
AcDbEntity
  8
0
100
AcDbCircle
  6
BYLAYER
 62
0
 10
667.881638042127
 20
225.372534343615
 40
3.25
  0
CIRCLE
  5
503
100
AcDbEntity
  8
0
100
AcDbCircle
  6
BYLAYER
 62
0
 10
701.564358205674
 20
306.689814180068
 40
3.25
  0
CIRCLE
  5
504
100
AcDbEntity
  8
0
100
AcDbCircle
  6
BYLAYER
 62
0
 10
667.881638042127
 20
388.007094016521
 40
3.25
  0
CIRCLE
  5
505
100
AcDbEntity
  8
0
100
AcDbCircle
  6
BYLAYER
 62
0
 10
586.564358205674
 20
421.689814180068
 40
3.25
  0
CIRCLE
  5
506
100
AcDbEntity
  8
0
100
AcDbCircle
  6
BYLAYER
 62
0
 10
505.247078369222
 20
388.007094016521
 40
3.25
  0
CIRCLE
  5
507
100
AcDbEntity
  8
0
100
AcDbCircle
  6
BYLAYER
 62
0
 10
471.564358205674
 20
306.689814180068
 40
3.25
  0
CIRCLE
  5
508
100
AcDbEntity
  8
0
100
AcDbCircle
  6
BYLAYER
 62
0
 10
505.247078369221
 20
225.372534343615
 40
3.25
  0
CIRCLE
  5
509
100
AcDbEntity
  8
0
100
AcDbCircle
  6
BYLAYER
 62
0
 10
586.564358205674
 20
306.689814180068
 40
7
  0
LINE
  5
50A
100
AcDbEntity
  8
0
100
AcDbLine
  6
BYLAYER
 62
0
 10
461.564358205674
 20
61.6898141800677
 11
711.564358205674
 21
61.6898141800677
  0
LINE
  5
50B
100
AcDbEntity
  8
0
100
AcDbLine
  6
BYLAYER
 62
0
 10
713.564358205674
 20
160.99073837367
 11
713.564358205674
 21
61.6898141800677
  0
LINE
  5
50C
100
AcDbEntity
  8
0
100
AcDbLine
  6
BYLAYER
 62
0
 10
459.564358205674
 20
101.089814180068
 11
459.564358205674
 21
61.6898141800677
  0
LINE
  5
50D
100
AcDbEntity
  8
0
100
AcDbLine
  6
BYLAYER
 62
0
 10
461.564358205674
 20
61.6898141800677
 11
459.564358205674
 21
61.6898141800677
  0
LINE
  5
50E
100
AcDbEntity
  8
0
100
AcDbLine
  6
BYLAYER
 62
0
 10
711.564358205674
 20
61.6898141800677
 11
713.564358205674
 21
61.6898141800677
  0
LINE
  5
50F
100
AcDbEntity
  8
0
100
AcDbLine
  6
BYLAYER
 62
0
 10
202.000001529061
 20
98.7038198598902
 11
202.000001529061
 21
61.6898141800677
  0
LINE
  5
510
100
AcDbEntity
  8
0
100
AcDbLine
  6
BYLAYER
 62
0
 10
202.000001529061
 20
61.6898141800677
 11
2.00000152906114
 21
61.6898141800677
  0
LINE
  5
511
100
AcDbEntity
  8
0
100
AcDbLine
  6
BYLAYER
 62
0
 10
176.000001529061
 20
87.6898141800677
 11
202.000001529061
 21
61.6898141800677
  0
LINE
  5
512
100
AcDbEntity
  8
0
100
AcDbLine
  6
BYLAYER
 62
0
 10
176.000001529061
 20
87.6898141800677
 11
7.00000152906114
 21
87.6898141800677
  0
LINE
  5
513
100
AcDbEntity
  8
0
100
AcDbLine
  6
BYLAYER
 62
0
 10
176.000001529061
 20
291.689814180068
 11
176.000001529061
 21
87.6898141800677
  0
LINE
  5
514
100
AcDbEntity
  8
0
100
AcDbLine
  6
BYLAYER
 62
0
 10
2.00000152906114
 20
82.6898141800677
 11
2.00000152906114
 21
61.6898141800677
  0
LINE
  5
515
100
AcDbEntity
  8
0
100
AcDbLine
  6
BYLAYER
 62
0
 10
202.000001529061
 20
306.689814180068
 11
191.000001529061
 21
306.689814180068
  0
ARC
  5
516
100
AcDbEntity
  8
0
100
AcDbCircle
  6
BYLAYER
 62
0
 10
191.000001529061
 20
291.689814180068
 40
15
100
AcDbArc
 50
90
 51
180
  0
ARC
  5
517
100
AcDbEntity
  8
0
100
AcDbCircle
  6
BYLAYER
 62
0
 10
7.00000152906114
 20
82.6898141800677
 40
5
100
AcDbArc
 50
90
 51
180
  0
LINE
  5
518
100
AcDbEntity
  8
0
100
AcDbLine
  6
BYLAYER
 62
0
 10
204.300001529061
 20
104.608564180068
 11
204.300001529061
 21
202.408564180068
  0
LINE
  5
519
100
AcDbEntity
  8
0
100
AcDbLine
  6
BYLAYER
 62
0
 10
204.300001529061
 20
104.608564180068
 11
302.100001529061
 21
104.608564180068
  0
LINE
  5
51A
100
AcDbEntity
  8
0
100
AcDbLine
  6
BYLAYER
 62
0
 10
204.300001529061
 20
202.408564180068
 11
302.100001529061
 21
202.408564180068
  0
LINE
  5
51B
100
AcDbEntity
  8
0
100
AcDbLine
  6
BYLAYER
 62
0
 10
302.100001529061
 20
104.608564180068
 11
302.100001529061
 21
202.408564180068
  0
LINE
  5
51C
100
AcDbEntity
  8
0
100
AcDbLine
  6
BYLAYER
 62
0
 10
304.400001529061
 20
457.93858879112
 11
304.400001529061
 21
208.313308500245
  0
LINE
  5
51D
100
AcDbEntity
  8
0
100
AcDbLine
  6
BYLAYER
 62
0
 10
200.000001529061
 20
385.636661509959
 11
200.000001529061
 21
306.689814180068
  0
LINE
  5
51E
100
AcDbEntity
  8
0
100
AcDbLine
  6
BYLAYER
 62
0
 10
192.000001529061
 20
385.636661509959
 11
192.000001529061
 21
306.689814180068
  0
LINE
  5
51F
100
AcDbEntity
  8
0
100
AcDbLine
  6
BYLAYER
 62
0
 10
199.000001529061
 20
386.636661509959
 11
193.000001529061
 21
386.636661509959
  0
LINE
  5
520
100
AcDbEntity
  8
0
100
AcDbLine
  6
BYLAYER
 62
0
 10
192.000001529061
 20
363.689814180068
 11
190.000001529061
 21
363.689814180068
  0
LINE
  5
521
100
AcDbEntity
  8
0
100
AcDbLine
  6
BYLAYER
 62
0
 10
190.000001529061
 20
363.689814180068
 11
190.000001529061
 21
306.656443727164
  0
LINE
  5
522
100
AcDbEntity
  8
0
100
AcDbLine
  6
BYLAYER
 62
0
 10
200.000001529061
 20
385.636661509959
 11
199.000001529061
 21
386.636661509959
  0
LINE
  5
523
100
AcDbEntity
  8
0
100
AcDbLine
  6
BYLAYER
 62
0
 10
193.000001529061
 20
386.636661509959
 11
192.000001529061
 21
385.636661509959
  0
LINE
  5
524
100
AcDbEntity
  8
0
100
AcDbLine
  6
BYLAYER
 62
0
 10
158.076997570789
 20
364.383688925957
 11
146.802061855694
 21
364.383688925957
  0
LINE
  5
525
100
AcDbEntity
  8
0
100
AcDbLine
  6
BYLAYER
 62
0
 10
147.000001529061
 20
365.383688925957
 11
147.000001529061
 21
364.383688925957
  0
LINE
  5
526
100
AcDbEntity
  8
0
100
AcDbLine
  6
BYLAYER
 62
0
 10
157.000001529061
 20
365.383688925957
 11
157.000001529061
 21
364.383688925957
  0
LINE
  5
527
100
AcDbEntity
  8
0
100
AcDbLine
  6
BYLAYER
 62
0
 10
147.000001529061
 20
364.383688925957
 11
157.000001529061
 21
364.383688925957
  0
LINE
  5
528
100
AcDbEntity
  8
0
100
AcDbLine
  6
BYLAYER
 62
0
 10
151.500001529061
 20
365.883688925957
 11
152.500001529061
 21
365.883688925957
  0
LINE
  5
529
100
AcDbEntity
  8
0
100
AcDbLine
  6
BYLAYER
 62
0
 10
151.500001529061
 20
365.883688925957
 11
151.500001529061
 21
368.352315892554
  0
LINE
  5
52A
100
AcDbEntity
  8
0
100
AcDbLine
  6
BYLAYER
 62
0
 10
152.500001529061
 20
365.883688925957
 11
152.500001529061
 21
368.352315892554
  0
ARC
  5
52B
100
AcDbEntity
  8
0
100
AcDbCircle
  6
BYLAYER
 62
0
 10
152.000001529061
 20
364.383688925957
 40
4
100
AcDbArc
 50
14.4775121859295
 51
82.8192442185423
  0
LINE
  5
52C
100
AcDbEntity
  8
0
100
AcDbLine
  6
BYLAYER
 62
0
 10
147.000001529061
 20
365.383688925957
 11
157.000001529061
 21
365.383688925957
  0
ARC
  5
52D
100
AcDbEntity
  8
0
100
AcDbCircle
  6
BYLAYER
 62
0
 10
152.000001529061
 20
364.383688925957
 40
4
100
AcDbArc
 50
97.1807557814577
 51
165.52248781407
  0
LINE
  5
52E
100
AcDbEntity
  8
0
100
AcDbLine
  6
BYLAYER
 62
0
 10
147.000001529061
 20
359.560423518148
 11
147.000001529061
 21
358.466548772259
  0
ARC
  5
52F
100
AcDbEntity
  8
0
100
AcDbCircle
  6
BYLAYER
 62
0
 10
146.468759340573
 20
374.817801751767
 40
16.35988056994
100
AcDbArc
 50
271.860850200518
 51
315.19873619992
  0
ARC
  5
530
100
AcDbEntity
  8
0
100
AcDbCircle
  6
BYLAYER
 62
0
 10
146.468759340573
 20
375.911676497656
 40
16.35988056994
100
AcDbArc
 50
271.860850200518
 51
315.19873619992
  0
LINE
  5
531
100
AcDbEntity
  8
0
100
AcDbLine
  6
BYLAYER
 62
0
 10
147.000001529061
 20
379.080147219645
 11
147.000001529061
 21
365.776605513332
  0
LINE
  5
532
100
AcDbEntity
  8
0
100
AcDbLine
  6
BYLAYER
 62
0
 10
158.076997570789
 20
364.383688925957
 11
158.076997570789
 21
363.289814180067
  0
ARC
  5
533
100
AcDbEntity
  8
0
100
AcDbCircle
  6
BYLAYER
 62
0
 10
137.000001529061
 20
391.889814180068
 40
10
100
AcDbArc
 50
0
 51
90
  0
ARC
  5
534
100
AcDbEntity
  8
0
100
AcDbCircle
  6
BYLAYER
 62
0
 10
142.000001529061
 20
365.776605513332
 40
5
100
AcDbArc
 50
270
 51
0
  0
LINE
  5
535
100
AcDbEntity
  8
0
100
AcDbLine
  6
BYLAYER
 62
0
 10
147.000001529061
 20
392.383688925957
 11
147.000001529061
 21
365.776605513332
  0
LINE
  5
536
100
AcDbEntity
  8
0
100
AcDbLine
  6
BYLAYER
 62
0
 10
158.076997570789
 20
363.289814180068
 11
190.000001529061
 21
363.289814180068
  0
ARC
  5
537
100
AcDbEntity
  8
0
100
AcDbCircle
  6
BYLAYER
 62
0
 10
72.5312437175494
 20
375.911676497656
 40
16.35988056994
100
AcDbArc
 50
224.80126380008
 51
268.139149799482
  0
ARC
  5
538
100
AcDbEntity
  8
0
100
AcDbCircle
  6
BYLAYER
 62
0
 10
72.5312437175489
 20
374.817801751767
 40
16.35988056994
100
AcDbArc
 50
224.80126380008
 51
268.139149799482
  0
LINE
  5
539
100
AcDbEntity
  8
0
100
AcDbLine
  6
BYLAYER
 62
0
 10
72.0000015290611
 20
359.560423518148
 11
72.0000015290611
 21
358.466548772259
  0
LINE
  5
53A
100
AcDbEntity
  8
0
100
AcDbLine
  6
BYLAYER
 62
0
 10
60.9230054873328
 20
364.383688925957
 11
72.1979412024289
 21
364.383688925957
  0
LINE
  5
53B
100
AcDbEntity
  8
0
100
AcDbLine
  6
BYLAYER
 62
0
 10
60.9230054873328
 20
364.383688925957
 11
60.9230054873328
 21
363.289814180067
  0
LINE
  5
53C
100
AcDbEntity
  8
0
100
AcDbLine
  6
BYLAYER
 62
0
 10
72.0000015290611
 20
365.383688925957
 11
72.0000015290611
 21
364.383688925957
  0
LINE
  5
53D
100
AcDbEntity
  8
0
100
AcDbLine
  6
BYLAYER
 62
0
 10
62.0000015290611
 20
365.383688925957
 11
62.0000015290611
 21
364.383688925957
  0
LINE
  5
53E
100
AcDbEntity
  8
0
100
AcDbLine
  6
BYLAYER
 62
0
 10
72.0000015290611
 20
364.383688925957
 11
62.0000015290611
 21
364.383688925957
  0
LINE
  5
53F
100
AcDbEntity
  8
0
100
AcDbLine
  6
BYLAYER
 62
0
 10
67.5000015290611
 20
365.883688925957
 11
66.5000015290611
 21
365.883688925957
  0
LINE
  5
540
100
AcDbEntity
  8
0
100
AcDbLine
  6
BYLAYER
 62
0
 10
67.5000015290611
 20
365.883688925957
 11
67.5000015290611
 21
368.352315892554
  0
LINE
  5
541
100
AcDbEntity
  8
0
100
AcDbLine
  6
BYLAYER
 62
0
 10
66.5000015290611
 20
365.883688925957
 11
66.5000015290611
 21
368.352315892554
  0
ARC
  5
542
100
AcDbEntity
  8
0
100
AcDbCircle
  6
BYLAYER
 62
0
 10
67.0000015290611
 20
364.383688925957
 40
4
100
AcDbArc
 50
97.1807557814577
 51
165.52248781407
  0
LINE
  5
543
100
AcDbEntity
  8
0
100
AcDbLine
  6
BYLAYER
 62
0
 10
72.0000015290611
 20
365.383688925957
 11
62.0000015290611
 21
365.383688925957
  0
ARC
  5
544
100
AcDbEntity
  8
0
100
AcDbCircle
  6
BYLAYER
 62
0
 10
67.0000015290611
 20
364.383688925957
 40
4
100
AcDbArc
 50
14.4775121859295
 51
82.8192442185423
  0
ARC
  5
545
100
AcDbEntity
  8
0
100
AcDbCircle
  6
BYLAYER
 62
0
 10
82.0000015290611
 20
391.889814180068
 40
10
100
AcDbArc
 50
90
 51
180
  0
ARC
  5
546
100
AcDbEntity
  8
0
100
AcDbCircle
  6
BYLAYER
 62
0
 10
77.0000015290611
 20
365.776605513332
 40
5
100
AcDbArc
 50
180
 51
270
  0
LINE
  5
547
100
AcDbEntity
  8
0
100
AcDbLine
  6
BYLAYER
 62
0
 10
72.0000015290611
 20
392.383688925957
 11
72.0000015290611
 21
365.776605513332
  0
LINE
  5
548
100
AcDbEntity
  8
0
100
AcDbLine
  6
BYLAYER
 62
0
 10
60.0000015290611
 20
370.189814180068
 11
60.0000015290611
 21
243.189814180067
  0
LINE
  5
549
100
AcDbEntity
  8
0
100
AcDbLine
  6
BYLAYER
 62
0
 10
60.0000015290611
 20
243.189814180067
 11
20.0000015290611
 21
243.189814180067
  0
LINE
  5
54A
100
AcDbEntity
  8
0
100
AcDbLine
  6
BYLAYER
 62
0
 10
60.0000015290611
 20
370.189814180068
 11
20.0000015290611
 21
370.189814180068
  0
LINE
  5
54B
100
AcDbEntity
  8
0
100
AcDbLine
  6
BYLAYER
 62
0
 10
60.0000015290611
 20
363.289814180068
 11
60.0000015290611
 21
356.620099729814
  0
LINE
  5
54C
100
AcDbEntity
  8
0
100
AcDbLine
  6
BYLAYER
 62
0
 10
60.0000015290614
 20
363.289814180068
 11
60.9230054873328
 21
363.289814180068
  0
LINE
  5
54D
100
AcDbEntity
  8
0
100
AcDbLine
  6
BYLAYER
 62
0
 10
50.9406004523025
 20
371.189814180068
 11
50.9406004523025
 21
374.189814180068
  0
LINE
  5
54E
100
AcDbEntity
  8
0
100
AcDbLine
  6
BYLAYER
 62
0
 10
55.5594026058195
 20
371.189814180068
 11
55.5594026058195
 21
374.189814180068
  0
LINE
  5
54F
100
AcDbEntity
  8
0
100
AcDbLine
  6
BYLAYER
 62
0
 10
48.6311993755439
 20
371.189814180068
 11
48.6311993755439
 21
374.189814180068
  0
LINE
  5
550
100
AcDbEntity
  8
0
100
AcDbLine
  6
BYLAYER
 62
0
 10
57.8688036825781
 20
371.189814180068
 11
57.8688036825781
 21
374.189814180068
  0
LINE
  5
551
100
AcDbEntity
  8
0
100
AcDbLine
  6
BYLAYER
 62
0
 10
52.5000015290611
 20
374.189814180068
 11
48.6311993755439
 21
374.189814180068
  0
LINE
  5
552
100
AcDbEntity
  8
0
100
AcDbLine
  6
BYLAYER
 62
0
 10
52.7633954734645
 20
373.07485963837
 11
52.5000015290611
 21
374.189814180068
  0
LINE
  5
553
100
AcDbEntity
  8
0
100
AcDbLine
  6
BYLAYER
 62
0
 10
53.7366075846576
 20
373.07485963837
 11
54.0000015290611
 21
374.189814180068
  0
ARC
  5
554
100
AcDbEntity
  8
0
100
AcDbCircle
  6
BYLAYER
 62
0
 10
53.2500015290611
 20
373.189814180068
 40
0.5
100
AcDbArc
 50
193.291719167641
 51
346.708280832359
  0
LINE
  5
555
100
AcDbEntity
  8
0
100
AcDbLine
  6
BYLAYER
 62
0
 10
57.8688036825781
 20
374.189814180068
 11
54.0000015290611
 21
374.189814180068
  0
LINE
  5
556
100
AcDbEntity
  8
0
100
AcDbLine
  6
BYLAYER
 62
0
 10
59.2500015290611
 20
371.189814180068
 11
47.2500015290611
 21
371.189814180068
  0
LINE
  5
557
100
AcDbEntity
  8
0
100
AcDbLine
  6
BYLAYER
 62
0
 10
47.2500015290611
 20
370.189814180068
 11
47.2500015290611
 21
371.189814180068
  0
LINE
  5
558
100
AcDbEntity
  8
0
100
AcDbLine
  6
BYLAYER
 62
0
 10
59.2500015290611
 20
370.189814180068
 11
59.2500015290611
 21
371.189814180068
  0
LINE
  5
559
100
AcDbEntity
  8
0
100
AcDbLine
  6
BYLAYER
 62
0
 10
59.2500015290611
 20
370.189814180068
 11
47.2500015290611
 21
370.189814180068
  0
ELLIPSE
  5
55A
100
AcDbEntity
  8
0
100
AcDbEllipse
  6
BYLAYER
 62
0
 10
53.2500015290614
 20
274.532907104724
 30
0.0
 11
6
 21
0
 31
0.0
210
0.0
220
0.0
230
1.0
 40
0.866025403784448
 41
1.5707963267949
 42
4.59992806710878
  0
ELLIPSE
  5
55B
100
AcDbEntity
  8
0
100
AcDbEllipse
  6
BYLAYER
 62
0
 10
53.2500015290614
 20
275.032907104724
 30
0.0
 11
6
 21
0
 31
0.0
210
0.0
220
0.0
230
1.0
 40
0.866025403784446
 41
1.5707963267949
 42
3.14159265358979
  0
LINE
  5
55C
100
AcDbEntity
  8
0
100
AcDbLine
  6
BYLAYER
 62
0
 10
52.5000015290616
 20
275.032907104724
 11
52.5000015290616
 21
274.182426157563
  0
LINE
  5
55D
100
AcDbEntity
  8
0
100
AcDbLine
  6
BYLAYER
 62
0
 10
49.2500015290614
 20
276.58571245802
 11
49.2500015290614
 21
271.032907104724
  0
LINE
  5
55E
100
AcDbEntity
  8
0
100
AcDbLine
  6
BYLAYER
 62
0
 10
51.7500015290611
 20
273.682426157563
 11
51.7500015290614
 21
272.383388051886
  0
ARC
  5
55F
100
AcDbEntity
  8
0
100
AcDbCircle
  6
BYLAYER
 62
0
 10
52.0000015290616
 20
274.182426157563
 40
0.5
100
AcDbArc
 50
270
 51
0
  0
ARC
  5
560
100
AcDbEntity
  8
0
100
AcDbCircle
  6
BYLAYER
 62
0
 10
52.0000015290611
 20
271.883388051886
 40
0.5
100
AcDbArc
 50
0
 51
90
  0
LINE
  5
561
100
AcDbEntity
  8
0
100
AcDbLine
  6
BYLAYER
 62
0
 10
52.5000015290611
 20
271.883388051886
 11
52.5000015290611
 21
271.032907104724
  0
LINE
  5
562
100
AcDbEntity
  8
0
100
AcDbLine
  6
BYLAYER
 62
0
 10
53.2500015290614
 20
271.032907104725
 11
52.5000015290611
 21
271.032907104724
  0
LINE
  5
563
100
AcDbEntity
  8
0
100
AcDbLine
  6
BYLAYER
 62
0
 10
53.2500015290614
 20
269.032907104724
 11
49.2500015290614
 21
271.032907104724
  0
LINE
  5
564
100
AcDbEntity
  8
0
100
AcDbLine
  6
BYLAYER
 62
0
 10
49.2500015290614
 20
272.383388051886
 11
52.0000015290611
 21
272.383388051886
  0
LINE
  5
565
100
AcDbEntity
  8
0
100
AcDbLine
  6
BYLAYER
 62
0
 10
49.2500015290614
 20
273.682426157563
 11
52.0000015290616
 21
273.682426157563
  0
LINE
  5
566
100
AcDbEntity
  8
0
100
AcDbLine
  6
BYLAYER
 62
0
 10
52.5000015290616
 20
275.032907104724
 11
53.2500015290616
 21
275.032907104724
  0
LINE
  5
567
100
AcDbEntity
  8
0
100
AcDbLine
  6
BYLAYER
 62
0
 10
53.2500015290614
 20
277.032907104724
 11
49.2506343799785
 21
275.032907104724
  0
LINE
  5
568
100
AcDbEntity
  8
0
100
AcDbLine
  6
BYLAYER
 62
0
 10
53.2500015290614
 20
278.532907104724
 11
49.2500015290614
 21
276.58571245802
  0
ELLIPSE
  5
569
100
AcDbEntity
  8
0
100
AcDbEllipse
  6
BYLAYER
 62
0
 10
53.2500015290611
 20
274.532907104724
 30
0.0
 11
-6
 21
7.34763812293426E-16
 31
0.0
210
0.0
220
0.0
230
1.0
 40
0.866025403784448
 41
4.71238898038469
 42
6.28318530717959
  0
LINE
  5
56A
100
AcDbEntity
  8
0
100
AcDbLine
  6
BYLAYER
 62
0
 10
1.5290611373E-6
 20
349.189814180068
 11
1.5290611373E-6
 21
264.189814180068
  0
ARC
  5
56B
100
AcDbEntity
  8
0
100
AcDbCircle
  6
BYLAYER
 62
0
 10
4.50000152906114
 20
349.189814180068
 40
4.5
100
AcDbArc
 50
90
 51
180
  0
ARC
  5
56C
100
AcDbEntity
  8
0
100
AcDbCircle
  6
BYLAYER
 62
0
 10
4.50000152906114
 20
264.189814180068
 40
4.5
100
AcDbArc
 50
180
 51
270
  0
LINE
  5
56D
100
AcDbEntity
  8
0
100
AcDbLine
  6
BYLAYER
 62
0
 10
4.50000152906114
 20
353.689814180068
 11
11.4049514561518
 21
365.301087430852
  0
LINE
  5
56E
100
AcDbEntity
  8
0
100
AcDbLine
  6
BYLAYER
 62
0
 10
4.50000152906114
 20
259.689814180068
 11
11.4049514561518
 21
248.078540929284
  0
ARC
  5
56F
100
AcDbEntity
  8
0
100
AcDbCircle
  6
BYLAYER
 62
0
 10
20.0000015290611
 20
360.189814180068
 40
10
100
AcDbArc
 50
90
 51
149.261050488682
  0
ARC
  5
570
100
AcDbEntity
  8
0
100
AcDbCircle
  6
BYLAYER
 62
0
 10
20.0000015290611
 20
253.189814180067
 40
10
100
AcDbArc
 50
210.738949511318
 51
270
  0
LINE
  5
571
100
AcDbEntity
  8
0
100
AcDbLine
  6
BYLAYER
 62
0
 10
147.000001529061
 20
358.466548772259
 11
72.0000015290611
 21
358.466548772259
  0
LINE
  5
572
100
AcDbEntity
  8
0
100
AcDbLine
  6
BYLAYER
 62
0
 10
147.000001529061
 20
359.560423518148
 11
72.0000015290611
 21
359.560423518148
  0
LINE
  5
573
100
AcDbEntity
  8
0
100
AcDbLine
  6
BYLAYER
 62
0
 10
142.000001529061
 20
360.776605513332
 11
77.0000015290611
 21
360.776605513332
  0
LINE
  5
574
100
AcDbEntity
  8
0
100
AcDbLine
  6
BYLAYER
 62
0
 10
137.000001529061
 20
401.889814180068
 11
82.0000015290611
 21
401.889814180068
  0
LINE
  5
575
100
AcDbEntity
  8
0
100
AcDbLine
  6
BYLAYER
 62
0
 10
60.0000015290611
 20
250.089814180068
 11
176.000001529061
 21
250.089814180068
  0
ELLIPSE
  5
576
100
AcDbEntity
  8
0
100
AcDbEllipse
  6
BYLAYER
 62
0
 10
53.2500015290614
 20
274.532907104724
 30
0.0
 11
-6
 21
7.34763812293426E-16
 31
0.0
210
0.0
220
0.0
230
1.0
 40
0.866025403784448
 41
1.68325724007081
 42
4.71238898038469
  0
ELLIPSE
  5
577
100
AcDbEntity
  8
0
100
AcDbEllipse
  6
BYLAYER
 62
0
 10
53.2500015290614
 20
275.032907104724
 30
0.0
 11
-6
 21
7.34763812293426E-16
 31
0.0
210
0.0
220
0.0
230
1.0
 40
0.866025403784446
 41
3.14159265358979
 42
4.71238898038469
  0
LINE
  5
578
100
AcDbEntity
  8
0
100
AcDbLine
  6
BYLAYER
 62
0
 10
54.0000015290611
 20
275.032907104724
 11
54.0000015290611
 21
274.182426157563
  0
LINE
  5
579
100
AcDbEntity
  8
0
100
AcDbLine
  6
BYLAYER
 62
0
 10
57.2500015290614
 20
276.58571245802
 11
57.2500015290614
 21
271.032907104724
  0
LINE
  5
57A
100
AcDbEntity
  8
0
100
AcDbLine
  6
BYLAYER
 62
0
 10
54.7500015290616
 20
273.682426157563
 11
54.7500015290614
 21
272.383388051886
  0
ARC
  5
57B
100
AcDbEntity
  8
0
100
AcDbCircle
  6
BYLAYER
 62
0
 10
54.5000015290611
 20
274.182426157563
 40
0.5
100
AcDbArc
 50
180
 51
270
  0
ARC
  5
57C
100
AcDbEntity
  8
0
100
AcDbCircle
  6
BYLAYER
 62
0
 10
54.5000015290616
 20
271.883388051886
 40
0.5
100
AcDbArc
 50
90
 51
180
  0
LINE
  5
57D
100
AcDbEntity
  8
0
100
AcDbLine
  6
BYLAYER
 62
0
 10
54.0000015290616
 20
271.883388051886
 11
54.0000015290616
 21
271.032907104724
  0
LINE
  5
57E
100
AcDbEntity
  8
0
100
AcDbLine
  6
BYLAYER
 62
0
 10
53.2500015290614
 20
271.032907104725
 11
54.0000015290616
 21
271.032907104724
  0
LINE
  5
57F
100
AcDbEntity
  8
0
100
AcDbLine
  6
BYLAYER
 62
0
 10
53.2500015290614
 20
269.032907104724
 11
57.2500015290614
 21
271.032907104724
  0
LINE
  5
580
100
AcDbEntity
  8
0
100
AcDbLine
  6
BYLAYER
 62
0
 10
57.2500015290614
 20
272.383388051886
 11
54.5000015290616
 21
272.383388051886
  0
LINE
  5
581
100
AcDbEntity
  8
0
100
AcDbLine
  6
BYLAYER
 62
0
 10
57.2500015290614
 20
273.682426157563
 11
54.5000015290611
 21
273.682426157563
  0
LINE
  5
582
100
AcDbEntity
  8
0
100
AcDbLine
  6
BYLAYER
 62
0
 10
54.0000015290611
 20
275.032907104724
 11
53.2500015290611
 21
275.032907104724
  0
LINE
  5
583
100
AcDbEntity
  8
0
100
AcDbLine
  6
BYLAYER
 62
0
 10
53.2500015290614
 20
277.032907104724
 11
57.2493686781443
 21
275.032907104724
  0
LINE
  5
584
100
AcDbEntity
  8
0
100
AcDbLine
  6
BYLAYER
 62
0
 10
53.2500015290614
 20
278.532907104724
 11
57.2500015290614
 21
276.58571245802
  0
ELLIPSE
  5
585
100
AcDbEntity
  8
0
100
AcDbEllipse
  6
BYLAYER
 62
0
 10
53.2500015290616
 20
274.532907104724
 30
0.0
 11
6
 21
0
 31
0.0
210
0.0
220
0.0
230
1.0
 40
0.866025403784448
 41
0
 42
1.5707963267949
  0
LINE
  5
586
100
AcDbEntity
  8
0
100
AcDbLine
  6
BYLAYER
 62
0
 10
461.564358205674
 20
306.689814180068
 11
459.564358205674
 21
306.689814180068
  0
ARC
  5
587
100
AcDbEntity
  8
0
100
AcDbCircle
  6
BYLAYER
 62
0
 10
586.564358205674
 20
306.689814180068
 40
125
100
AcDbArc
 50
175.710275066476
 51
180
  0
LINE
  5
588
100
AcDbEntity
  8
0
100
AcDbLine
  6
BYLAYER
 62
0
 10
459.564358205674
 20
306.689814180068
 11
459.564358205674
 21
205.489814180068
  0
LINE
  5
589
100
AcDbEntity
  8
0
100
AcDbLine
  6
BYLAYER
 62
0
 10
296.400001529061
 20
456.73858879112
 11
210.000001529061
 21
456.73858879112
  0
LINE
  5
58A
100
AcDbEntity
  8
0
100
AcDbLine
  6
BYLAYER
 62
0
 10
307.200001529061
 20
430.689814180068
 11
307.200001529061
 21
205.55661889876
  0
LINE
  5
58B
100
AcDbEntity
  8
0
100
AcDbLine
  6
BYLAYER
 62
0
 10
4.50000152906114
 20
353.689814180068
 11
4.50000152906114
 21
259.689814180068
  0
LINE
  5
58C
100
AcDbEntity
  8
0
100
AcDbLine
  6
BYLAYER
 62
0
 10
200.000001529061
 20
431.689814180068
 11
202.000001529061
 21
431.689814180068
  0
LINE
  5
58D
100
AcDbEntity
  8
0
100
AcDbLine
  6
BYLAYER
 62
0
 10
200.000001529061
 20
385.636661509959
 11
200.000001529061
 21
431.689814180068
  0
LINE
  5
58E
100
AcDbEntity
  8
DIM
100
AcDbLine
  6
BYLAYER
 62
0
370
  -2
 10
2.00000152906114
 20
61.471064180068
 11
2.00000152906114
 21
8.11999905990501
  0
LINE
  5
58F
100
AcDbEntity
  8
DIM
100
AcDbLine
  6
BYLAYER
 62
0
370
  -2
 10
202.000001529061
 20
61.471064180068
 11
202.000001529061
 21
8.11999905990501
  0
LINE
  5
590
100
AcDbEntity
  8
DIM
100
AcDbLine
  6
BYLAYER
 62
0
370
  -2
 10
14.2500015290611
 20
8.74999905990512
 11
64.5013299791622
 21
8.74999905990512
  0
LINE
  5
591
100
AcDbEntity
  8
DIM
100
AcDbLine
  6
BYLAYER
 62
0
370
  -2
 10
189.750001529061
 20
8.74999905990512
 11
126.334663312495
 21
8.74999905990512
  0
SOLID
  5
592
100
AcDbEntity
  8
DIM
100
AcDbTrace
 10
2.00000152906114
 20
8.74999905990512
 30
0.0
 11
14.2500015290611
 21
6.70833239323815
 31
0.0
 12
14.2500015290611
 22
10.7916657265721
 32
0.0
 13
14.2500015290611
 23
10.7916657265721
 33
0.0
  0
SOLID
  5
593
100
AcDbEntity
  8
DIM
100
AcDbTrace
 10
189.750001529061
 20
10.7916657265721
 30
0.0
 11
189.750001529061
 21
6.70833239323815
 31
0.0
 12
202.000001529061
 22
8.74999905990512
 32
0.0
 13
202.000001529061
 23
8.74999905990512
 33
0.0
  0
TEXT
  5
594
100
AcDbEntity
  8
DIM
 62
0
100
AcDbText
  6
BYLAYER
 62
0
 10
82.292996645828
 20
-9.40094878387754E-7
 40
17.5
  1
200
  7
Font_0
 72
1
 11
95.417996645828
 21
8.74999905990512
100
AcDbText
 73
2
  0
LINE
  5
595
100
AcDbEntity
  8
DIM
100
AcDbLine
  6
BYLAYER
 62
0
370
  -2
 10
202.000001529061
 20
458.157338791121
 11
202.000001529061
 21
502.73557017983
  0
LINE
  5
596
100
AcDbEntity
  8
DIM
100
AcDbLine
  6
BYLAYER
 62
0
370
  -2
 10
304.400001529061
 20
458.157338791121
 11
304.400001529061
 21
502.73557017983
  0
LINE
  5
597
100
AcDbEntity
  8
DIM
100
AcDbLine
  6
BYLAYER
 62
0
370
  -2
 10
189.750001529061
 20
502.10557017983
 11
177.500001529061
 21
502.10557017983
  0
LINE
  5
598
100
AcDbEntity
  8
DIM
100
AcDbLine
  6
BYLAYER
 62
0
370
  -2
 10
316.650001529061
 20
502.10557017983
 11
328.900001529061
 21
502.10557017983
  0
SOLID
  5
599
100
AcDbEntity
  8
DIM
100
AcDbTrace
 10
189.750001529061
 20
504.147236846497
 30
0.0
 11
189.750001529061
 21
500.063903513164
 31
0.0
 12
202.000001529061
 22
502.10557017983
 32
0.0
 13
202.000001529061
 23
502.10557017983
 33
0.0
  0
SOLID
  5
59A
100
AcDbEntity
  8
DIM
100
AcDbTrace
 10
304.400001529061
 20
502.10557017983
 30
0.0
 11
316.650001529061
 21
500.063903513164
 31
0.0
 12
316.650001529061
 22
504.147236846497
 32
0.0
 13
316.650001529061
 23
504.147236846497
 33
0.0
  0
TEXT
  5
59B
100
AcDbEntity
  8
DIM
 62
0
100
AcDbText
  6
BYLAYER
 62
0
 10
240.075001529061
 20
493.35557017983
 40
17.5
  1
103
  7
Font_0
 72
1
 11
253.200001529061
 21
502.10557017983
100
AcDbText
 73
2
  0
LINE
  5
59C
100
AcDbEntity
  8
DIM
100
AcDbLine
  6
BYLAYER
 62
0
370
  -2
 10
304.400001529061
 20
458.157338791121
 11
304.400001529061
 21
481.041682930443
  0
LINE
  5
59D
100
AcDbEntity
  8
DIM
100
AcDbLine
  6
BYLAYER
 62
0
370
  -2
 10
347.200001529061
 20
407.408564180068
 11
347.200001529061
 21
481.041682930443
  0
LINE
  5
59E
100
AcDbEntity
  8
DIM
100
AcDbLine
  6
BYLAYER
 62
0
370
  -2
 10
292.150001529061
 20
480.411682930443
 11
279.900001529061
 21
480.411682930443
  0
LINE
  5
59F
100
AcDbEntity
  8
DIM
100
AcDbLine
  6
BYLAYER
 62
0
370
  -2
 10
359.450001529061
 20
480.411682930443
 11
371.700001529061
 21
480.411682930443
  0
SOLID
  5
5A0
100
AcDbEntity
  8
DIM
100
AcDbTrace
 10
292.150001529061
 20
482.45334959711
 30
0.0
 11
292.150001529061
 21
478.370016263777
 31
0.0
 12
304.400001529061
 22
480.411682930443
 32
0.0
 13
304.400001529061
 23
480.411682930443
 33
0.0
  0
SOLID
  5
5A1
100
AcDbEntity
  8
DIM
100
AcDbTrace
 10
347.200001529061
 20
480.411682930443
 30
0.0
 11
359.450001529061
 21
478.370016263777
 31
0.0
 12
359.450001529061
 22
482.45334959711
 32
0.0
 13
359.450001529061
 23
482.45334959711
 33
0.0
  0
TEXT
  5
5A2
100
AcDbEntity
  8
DIM
 62
0
100
AcDbText
  6
BYLAYER
 62
0
 10
317.050001529061
 20
471.661682930443
 40
17.5
  1
43
  7
Font_0
 72
1
 11
325.800001529061
 21
480.411682930443
100
AcDbText
 73
2
  0
LINE
  5
5A3
100
AcDbEntity
  8
DIM
100
AcDbLine
  6
BYLAYER
 62
0
370
  -2
 10
202.000001529061
 20
61.471064180068
 11
202.000001529061
 21
37.861904931201
  0
LINE
  5
5A4
100
AcDbEntity
  8
DIM
100
AcDbLine
  6
BYLAYER
 62
0
370
  -2
 10
170.500001529061
 20
61.471064180068
 11
170.500001529061
 21
37.861904931201
  0
LINE
  5
5A5
100
AcDbEntity
  8
DIM
100
AcDbLine
  6
BYLAYER
 62
0
370
  -2
 10
158.250001529061
 20
38.4919049312011
 11
146.000001529061
 21
38.4919049312011
  0
LINE
  5
5A6
100
AcDbEntity
  8
DIM
100
AcDbLine
  6
BYLAYER
 62
0
370
  -2
 10
214.250001529061
 20
38.4919049312011
 11
226.500001529061
 21
38.4919049312011
  0
SOLID
  5
5A7
100
AcDbEntity
  8
DIM
100
AcDbTrace
 10
158.250001529061
 20
40.5335715978681
 30
0.0
 11
158.250001529061
 21
36.4502382645339
 31
0.0
 12
170.500001529061
 22
38.4919049312011
 32
0.0
 13
170.500001529061
 23
38.4919049312011
 33
0.0
  0
SOLID
  5
5A8
100
AcDbEntity
  8
DIM
100
AcDbTrace
 10
202.000001529061
 20
38.4919049312011
 30
0.0
 11
214.250001529061
 21
36.4502382645339
 31
0.0
 12
214.250001529061
 22
40.5335715978681
 32
0.0
 13
214.250001529061
 23
40.5335715978681
 33
0.0
  0
TEXT
  5
5A9
100
AcDbEntity
  8
DIM
 62
0
100
AcDbText
  6
BYLAYER
 62
0
 10
242.833334862394
 20
29.7419049312011
 40
17.5
  1
31.5
  7
Font_0
 72
1
 11
260.333334862394
 21
38.4919049312011
100
AcDbText
 73
2
  0
LINE
  5
5AA
100
AcDbEntity
  8
DIM
100
AcDbLine
  6
BYLAYER
 62
0
370
  -2
 10
170.500001529061
 20
61.471064180068
 11
170.500001529061
 21
37.861904931201
  0
LINE
  5
5AB
100
AcDbEntity
  8
DIM
100
AcDbLine
  6
BYLAYER
 62
0
370
  -2
 10
20.5000015290611
 20
61.471064180068
 11
20.5000015290611
 21
37.861904931201
  0
LINE
  5
5AC
100
AcDbEntity
  8
DIM
100
AcDbLine
  6
BYLAYER
 62
0
370
  -2
 10
158.250001529061
 20
38.4919049312011
 11
124.958334862394
 21
38.4919049312011
  0
LINE
  5
5AD
100
AcDbEntity
  8
DIM
100
AcDbLine
  6
BYLAYER
 62
0
370
  -2
 10
32.7500015290611
 20
38.4919049312011
 11
66.0416681957281
 21
38.4919049312011
  0
SOLID
  5
5AE
100
AcDbEntity
  8
DIM
100
AcDbTrace
 10
158.250001529061
 20
40.5335715978681
 30
0.0
 11
158.250001529061
 21
36.4502382645339
 31
0.0
 12
170.500001529061
 22
38.4919049312011
 32
0.0
 13
170.500001529061
 23
38.4919049312011
 33
0.0
  0
SOLID
  5
5AF
100
AcDbEntity
  8
DIM
100
AcDbTrace
 10
20.5000015290611
 20
38.4919049312011
 30
0.0
 11
32.7500015290611
 21
36.4502382645339
 31
0.0
 12
32.7500015290611
 22
40.5335715978681
 32
0.0
 13
32.7500015290611
 23
40.5335715978681
 33
0.0
  0
TEXT
  5
5B0
100
AcDbEntity
  8
DIM
 62
0
100
AcDbText
  6
BYLAYER
 62
0
 10
82.3750015290611
 20
29.7419049312011
 40
17.5
  1
150
  7
Font_0
 72
1
 11
95.5000015290611
 21
38.4919049312011
100
AcDbText
 73
2
  0
CIRCLE
  5
5B1
100
AcDbEntity
  8
0
100
AcDbCircle
  6
BYLAYER
 62
0
 10
586.564358205674
 20
306.689814180068
 40
100.5
  0
LINE
  5
5B2
100
AcDbEntity
  8
DIM
100
AcDbLine
  6
BYLAYER
 62
0
370
  -2
 10
144.531276487803
 20
198.655749844601
 11
156.781276487803
 21
198.655749844601
  0
LINE
  5
5B3
100
AcDbEntity
  8
DIM
100
AcDbLine
  6
BYLAYER
 62
0
370
  -2
 10
156.781276487803
 20
198.655749844601
 11
174.183255001737
 21
190.507432652451
  0
TEXT
  5
5B4
100
AcDbEntity
  8
DIM
 62
0
100
AcDbText
  6
BYLAYER
 62
0
 10
84.4479431544692
 20
189.905749844601
 40
17.5
  1
φ150
  7
Font_0
 72
1
 11
106.322943154469
 21
198.655749844601
100
AcDbText
 73
2
  0
SOLID
  5
5B5
100
AcDbEntity
  8
DIM
100
AcDbTrace
 10
175.049035591588
 20
192.356439615125
 30
0.0
 11
173.317474411887
 21
188.658425689777
 31
0.0
 12
185.27729677778
 22
185.312749113348
 32
0.0
 13
185.27729677778
 23
185.312749113348
 33
0.0
  0
LINE
  5
5B6
100
AcDbEntity
  8
DIM
100
AcDbLine
  6
BYLAYER
 62
0
370
  -2
 10
252.885001529061
 20
153.508564180067
 11
253.515001529061
 21
153.508564180067
  0
LINE
  5
5B7
100
AcDbEntity
  8
DIM
100
AcDbLine
  6
BYLAYER
 62
0
370
  -2
 10
253.200001529061
 20
153.193564180067
 11
253.200001529061
 21
153.823564180067
  0
LINE
  5
5B8
100
AcDbEntity
  8
DIM
100
AcDbLine
  6
BYLAYER
 62
0
370
  -2
 10
347.200001529061
 20
407.408564180068
 11
347.200001529061
 21
532.106359785942
  0
LINE
  5
5B9
100
AcDbEntity
  8
DIM
100
AcDbLine
  6
BYLAYER
 62
0
370
  -2
 10
1.52906113726203E-6
 20
349.408564180068
 11
1.52906113726203E-6
 21
532.106359785942
  0
LINE
  5
5BA
100
AcDbEntity
  8
DIM
100
AcDbLine
  6
BYLAYER
 62
0
370
  -2
 10
334.950001529061
 20
531.476359785942
 11
207.433334862394
 21
531.476359785942
  0
LINE
  5
5BB
100
AcDbEntity
  8
DIM
100
AcDbLine
  6
BYLAYER
 62
0
370
  -2
 10
12.2500015290611
 20
531.476359785942
 11
139.766668195728
 21
531.476359785942
  0
SOLID
  5
5BC
100
AcDbEntity
  8
DIM
100
AcDbTrace
 10
334.950001529061
 20
533.518026452609
 30
0.0
 11
334.950001529061
 21
529.434693119276
 31
0.0
 12
347.200001529061
 22
531.476359785942
 32
0.0
 13
347.200001529061
 23
531.476359785942
 33
0.0
  0
SOLID
  5
5BD
100
AcDbEntity
  8
DIM
100
AcDbTrace
 10
1.52906113726203E-6
 20
531.476359785942
 30
0.0
 11
12.2500015290611
 21
529.434693119276
 31
0.0
 12
12.2500015290611
 22
533.518026452609
 32
0.0
 13
12.2500015290611
 23
533.518026452609
 33
0.0
  0
TEXT
  5
5BE
100
AcDbEntity
  8
DIM
 62
0
100
AcDbText
  6
BYLAYER
 62
0
 10
160.475001529061
 20
522.726359785942
 40
17.5
  1
347
  7
Font_0
 72
1
 11
173.600001529061
 21
531.476359785942
100
AcDbText
 73
2
  0
LINE
  5
5BF
100
AcDbEntity
  8
DIM
100
AcDbLine
  6
BYLAYER
 62
0
370
  -2
 10
347.418751529061
 20
407.189814180068
 11
365.598983970669
 21
407.189814180068
  0
LINE
  5
5C0
100
AcDbEntity
  8
DIM
100
AcDbLine
  6
BYLAYER
 62
0
370
  -2
 10
347.418751529061
 20
206.189814180068
 11
365.598983970669
 21
206.189814180068
  0
LINE
  5
5C1
100
AcDbEntity
  8
DIM
100
AcDbLine
  6
BYLAYER
 62
0
370
  -2
 10
364.968983970669
 20
394.939814180068
 11
364.968983970669
 21
344.898147513401
  0
LINE
  5
5C2
100
AcDbEntity
  8
DIM
100
AcDbLine
  6
BYLAYER
 62
0
370
  -2
 10
364.968983970669
 20
218.439814180068
 11
364.968983970669
 21
268.481480846735
  0
SOLID
  5
5C3
100
AcDbEntity
  8
DIM
100
AcDbTrace
 10
362.927317304002
 20
394.939814180068
 30
0.0
 11
367.010650637335
 21
394.939814180068
 31
0.0
 12
364.968983970669
 22
407.189814180068
 32
0.0
 13
364.968983970669
 23
407.189814180068
 33
0.0
  0
SOLID
  5
5C4
100
AcDbEntity
  8
DIM
100
AcDbTrace
 10
364.968983970669
 20
206.189814180068
 30
0.0
 11
367.010650637335
 21
218.439814180068
 31
0.0
 12
362.927317304002
 22
218.439814180068
 32
0.0
 13
362.927317304002
 23
218.439814180068
 33
0.0
  0
TEXT
  5
5C5
100
AcDbEntity
  8
DIM
 62
0
100
AcDbText
  6
BYLAYER
 62
0
 10
373.718983970669
 20
284.814814180068
 40
17.5
  1
Φ201
  7
Font_0
 50
90
 72
1
 11
364.968983970669
 21
306.689814180068
100
AcDbText
 73
2
  0
LINE
  5
5C6
100
AcDbEntity
  8
DIM
100
AcDbLine
  6
BYLAYER
 62
0
370
  -2
 10
408.564358205675
 20
228.508564180068
 11
408.564358205675
 21
502.73557017983
  0
LINE
  5
5C7
100
AcDbEntity
  8
DIM
100
AcDbLine
  6
BYLAYER
 62
0
370
  -2
 10
439.564358205675
 20
223.508564180068
 11
439.564358205675
 21
502.73557017983
  0
LINE
  5
5C8
100
AcDbEntity
  8
DIM
100
AcDbLine
  6
BYLAYER
 62
0
370
  -2
 10
396.314358205675
 20
502.10557017983
 11
384.064358205675
 21
502.10557017983
  0
LINE
  5
5C9
100
AcDbEntity
  8
DIM
100
AcDbLine
  6
BYLAYER
 62
0
370
  -2
 10
451.814358205675
 20
502.10557017983
 11
464.064358205675
 21
502.10557017983
  0
SOLID
  5
5CA
100
AcDbEntity
  8
DIM
100
AcDbTrace
 10
396.314358205675
 20
504.147236846497
 30
0.0
 11
396.314358205675
 21
500.063903513164
 31
0.0
 12
408.564358205675
 22
502.10557017983
 32
0.0
 13
408.564358205675
 23
502.10557017983
 33
0.0
  0
SOLID
  5
5CB
100
AcDbEntity
  8
DIM
100
AcDbTrace
 10
439.564358205675
 20
502.10557017983
 30
0.0
 11
451.814358205675
 21
500.063903513164
 31
0.0
 12
451.814358205675
 22
504.147236846497
 32
0.0
 13
451.814358205675
 23
504.147236846497
 33
0.0
  0
TEXT
  5
5CC
100
AcDbEntity
  8
DIM
 62
0
100
AcDbText
  6
BYLAYER
 62
0
 10
415.314358205675
 20
493.35557017983
 40
17.5
  1
31
  7
Font_0
 72
1
 11
424.064358205675
 21
502.10557017983
100
AcDbText
 73
2
  0
LINE
  5
5CD
100
AcDbEntity
  8
DIM
100
AcDbLine
  6
BYLAYER
 62
0
370
  -2
 10
439.564358205675
 20
223.508564180068
 11
439.564358205675
 21
502.73557017983
  0
LINE
  5
5CE
100
AcDbEntity
  8
DIM
100
AcDbLine
  6
BYLAYER
 62
0
370
  -2
 10
586.564358205675
 20
306.908564180068
 11
586.564358205675
 21
502.73557017983
  0
LINE
  5
5CF
100
AcDbEntity
  8
DIM
100
AcDbLine
  6
BYLAYER
 62
0
370
  -2
 10
451.814358205675
 20
502.10557017983
 11
482.147691539008
 21
502.10557017983
  0
LINE
  5
5D0
100
AcDbEntity
  8
DIM
100
AcDbLine
  6
BYLAYER
 62
0
370
  -2
 10
574.314358205674
 20
502.10557017983
 11
543.981024872341
 21
502.10557017983
  0
SOLID
  5
5D1
100
AcDbEntity
  8
DIM
100
AcDbTrace
 10
439.564358205675
 20
502.10557017983
 30
0.0
 11
451.814358205675
 21
500.063903513164
 31
0.0
 12
451.814358205675
 22
504.147236846497
 32
0.0
 13
451.814358205675
 23
504.147236846497
 33
0.0
  0
SOLID
  5
5D2
100
AcDbEntity
  8
DIM
100
AcDbTrace
 10
574.314358205674
 20
504.147236846497
 30
0.0
 11
574.314358205674
 21
500.063903513164
 31
0.0
 12
586.564358205675
 22
502.10557017983
 32
0.0
 13
586.564358205675
 23
502.10557017983
 33
0.0
  0
TEXT
  5
5D3
100
AcDbEntity
  8
DIM
 62
0
100
AcDbText
  6
BYLAYER
 62
0
 10
499.939358205674
 20
493.35557017983
 40
17.5
  1
147
  7
Font_0
 72
1
 11
513.064358205674
 21
502.10557017983
100
AcDbText
 73
2
  0
LINE
  5
5D4
100
AcDbEntity
  8
DIM
100
AcDbLine
  6
BYLAYER
 62
0
370
  -2
 10
586.564358205675
 20
306.908564180068
 11
586.564358205675
 21
502.73557017983
  0
LINE
  5
5D5
100
AcDbEntity
  8
DIM
100
AcDbLine
  6
BYLAYER
 62
0
370
  -2
 10
765.754744745943
 20
288.985306329032
 11
765.754744745943
 21
502.73557017983
  0
LINE
  5
5D6
100
AcDbEntity
  8
DIM
100
AcDbLine
  6
BYLAYER
 62
0
370
  -2
 10
598.814358205674
 20
502.10557017983
 11
645.242884809142
 21
502.10557017983
  0
LINE
  5
5D7
100
AcDbEntity
  8
DIM
100
AcDbLine
  6
BYLAYER
 62
0
370
  -2
 10
753.504744745943
 20
502.10557017983
 11
707.076218142475
 21
502.10557017983
  0
SOLID
  5
5D8
100
AcDbEntity
  8
DIM
100
AcDbTrace
 10
586.564358205675
 20
502.10557017983
 30
0.0
 11
598.814358205674
 21
500.063903513164
 31
0.0
 12
598.814358205674
 22
504.147236846497
 32
0.0
 13
598.814358205674
 23
504.147236846497
 33
0.0
  0
SOLID
  5
5D9
100
AcDbEntity
  8
DIM
100
AcDbTrace
 10
753.504744745943
 20
504.147236846497
 30
0.0
 11
753.504744745943
 21
500.063903513164
 31
0.0
 12
765.754744745943
 22
502.10557017983
 32
0.0
 13
765.754744745943
 23
502.10557017983
 33
0.0
  0
TEXT
  5
5DA
100
AcDbEntity
  8
DIM
 62
0
100
AcDbText
  6
BYLAYER
 62
0
 10
663.034551475808
 20
493.35557017983
 40
17.5
  1
179
  7
Font_0
 72
1
 11
676.159551475808
 21
502.10557017983
100
AcDbText
 73
2
  0
LINE
  5
5DB
100
AcDbEntity
  8
DIM
100
AcDbLine
  6
BYLAYER
 62
0
370
  -2
 10
765.754744745943
 20
288.985306329032
 11
765.754744745943
 21
532.736359785942
  0
LINE
  5
5DC
100
AcDbEntity
  8
DIM
100
AcDbLine
  6
BYLAYER
 62
0
370
  -2
 10
408.564358205675
 20
228.508564180068
 11
408.564358205675
 21
532.736359785942
  0
LINE
  5
5DD
100
AcDbEntity
  8
DIM
100
AcDbLine
  6
BYLAYER
 62
0
370
  -2
 10
753.504744745943
 20
532.106359785942
 11
620.992884809143
 21
532.106359785942
  0
LINE
  5
5DE
100
AcDbEntity
  8
DIM
100
AcDbLine
  6
BYLAYER
 62
0
370
  -2
 10
420.814358205675
 20
532.106359785942
 11
553.326218142475
 21
532.106359785942
  0
SOLID
  5
5DF
100
AcDbEntity
  8
DIM
100
AcDbTrace
 10
753.504744745943
 20
534.148026452609
 30
0.0
 11
753.504744745943
 21
530.064693119276
 31
0.0
 12
765.754744745943
 22
532.106359785942
 32
0.0
 13
765.754744745943
 23
532.106359785942
 33
0.0
  0
SOLID
  5
5E0
100
AcDbEntity
  8
DIM
100
AcDbTrace
 10
408.564358205675
 20
532.106359785942
 30
0.0
 11
420.814358205675
 21
530.064693119276
 31
0.0
 12
420.814358205675
 22
534.148026452609
 32
0.0
 13
420.814358205675
 23
534.148026452609
 33
0.0
  0
TEXT
  5
5E1
100
AcDbEntity
  8
DIM
 62
0
100
AcDbText
  6
BYLAYER
 62
0
 10
574.034551475809
 20
523.356359785942
 40
17.5
  1
357
  7
Font_0
 72
1
 11
587.159551475809
 21
532.106359785942
100
AcDbText
 73
2
  0
LINE
  5
5E2
100
AcDbEntity
  8
DIM
100
AcDbLine
  6
BYLAYER
 62
0
370
  -2
 10
408.345608205675
 20
228.289814180068
 11
388.277819640799
 21
228.289814180068
  0
LINE
  5
5E3
100
AcDbEntity
  8
DIM
100
AcDbLine
  6
BYLAYER
 62
0
370
  -2
 10
408.345608205675
 20
78.2898141800681
 11
388.277819640799
 21
78.2898141800681
  0
LINE
  5
5E4
100
AcDbEntity
  8
DIM
100
AcDbLine
  6
BYLAYER
 62
0
370
  -2
 10
388.907819640799
 20
216.039814180068
 11
388.907819640799
 21
191.498147513401
  0
LINE
  5
5E5
100
AcDbEntity
  8
DIM
100
AcDbLine
  6
BYLAYER
 62
0
370
  -2
 10
388.907819640799
 20
90.5398141800681
 11
388.907819640799
 21
115.081480846735
  0
SOLID
  5
5E6
100
AcDbEntity
  8
DIM
100
AcDbTrace
 10
386.866152974132
 20
216.039814180068
 30
0.0
 11
390.949486307466
 21
216.039814180068
 31
0.0
 12
388.907819640799
 22
228.289814180068
 32
0.0
 13
388.907819640799
 23
228.289814180068
 33
0.0
  0
SOLID
  5
5E7
100
AcDbEntity
  8
DIM
100
AcDbTrace
 10
388.907819640799
 20
78.2898141800681
 30
0.0
 11
390.949486307466
 21
90.5398141800681
 31
0.0
 12
386.866152974132
 22
90.5398141800681
 32
0.0
 13
386.866152974132
 23
90.5398141800681
 33
0.0
  0
TEXT
  5
5E8
100
AcDbEntity
  8
DIM
 62
0
100
AcDbText
  6
BYLAYER
 62
0
 10
397.657819640799
 20
131.414814180068
 40
17.5
  1
Φ150
  7
Font_0
 50
90
 72
1
 11
388.907819640799
 21
153.289814180068
100
AcDbText
 73
2
  0
LINE
  5
5E9
100
AcDbEntity
  8
DIM
100
AcDbLine
  6
BYLAYER
 62
0
370
  -2
 10
604.636912479029
 20
458.719838791121
 11
787.765158871849
 21
458.71983879112
  0
LINE
  5
5EA
100
AcDbEntity
  8
DIM
100
AcDbLine
  6
BYLAYER
 62
0
370
  -2
 10
586.783108205674
 20
306.689814180068
 11
787.765158871849
 21
306.689814180068
  0
LINE
  5
5EB
100
AcDbEntity
  8
DIM
100
AcDbLine
  6
BYLAYER
 62
0
370
  -2
 10
787.135158871849
 20
446.46983879112
 11
787.135158871849
 21
413.621493152261
  0
LINE
  5
5EC
100
AcDbEntity
  8
DIM
100
AcDbLine
  6
BYLAYER
 62
0
370
  -2
 10
787.135158871849
 20
318.939814180068
 11
787.135158871849
 21
351.788159818927
  0
SOLID
  5
5ED
100
AcDbEntity
  8
DIM
100
AcDbTrace
 10
785.093492205183
 20
446.46983879112
 30
0.0
 11
789.176825538516
 21
446.46983879112
 31
0.0
 12
787.135158871849
 22
458.71983879112
 32
0.0
 13
787.135158871849
 23
458.71983879112
 33
0.0
  0
SOLID
  5
5EE
100
AcDbEntity
  8
DIM
100
AcDbTrace
 10
787.135158871849
 20
306.689814180068
 30
0.0
 11
789.176825538516
 21
318.939814180068
 31
0.0
 12
785.093492205183
 22
318.939814180068
 32
0.0
 13
785.093492205183
 23
318.939814180068
 33
0.0
  0
TEXT
  5
5EF
100
AcDbEntity
  8
DIM
 62
0
100
AcDbText
  6
BYLAYER
 62
0
 10
795.885158871849
 20
369.579826485595
 40
17.5
  1
152
  7
Font_0
 50
90
 72
1
 11
787.135158871849
 21
382.704826485595
100
AcDbText
 73
2
  0
LINE
  5
5F0
100
AcDbEntity
  8
DIM
100
AcDbLine
  6
BYLAYER
 62
0
370
  -2
 10
586.783108205674
 20
306.689814180068
 11
788.395158871849
 21
306.689814180068
  0
LINE
  5
5F1
100
AcDbEntity
  8
DIM
100
AcDbLine
  6
BYLAYER
 62
0
370
  -2
 10
586.783108205674
 20
101.089814180068
 11
788.395158871849
 21
101.089814180068
  0
LINE
  5
5F2
100
AcDbEntity
  8
DIM
100
AcDbLine
  6
BYLAYER
 62
0
370
  -2
 10
787.765158871849
 20
294.439814180068
 11
787.765158871849
 21
236.264814180068
  0
LINE
  5
5F3
100
AcDbEntity
  8
DIM
100
AcDbLine
  6
BYLAYER
 62
0
370
  -2
 10
787.765158871849
 20
113.339814180068
 11
787.765158871849
 21
171.514814180068
  0
SOLID
  5
5F4
100
AcDbEntity
  8
DIM
100
AcDbTrace
 10
785.723492205183
 20
294.439814180068
 30
0.0
 11
789.806825538516
 21
294.439814180068
 31
0.0
 12
787.765158871849
 22
306.689814180068
 32
0.0
 13
787.765158871849
 23
306.689814180068
 33
0.0
  0
SOLID
  5
5F5
100
AcDbEntity
  8
DIM
100
AcDbTrace
 10
787.765158871849
 20
101.089814180068
 30
0.0
 11
789.806825538515
 21
113.339814180068
 31
0.0
 12
785.723492205182
 22
113.339814180068
 32
0.0
 13
785.723492205182
 23
113.339814180068
 33
0.0
  0
TEXT
  5
5F6
100
AcDbEntity
  8
DIM
 62
0
100
AcDbText
  6
BYLAYER
 62
0
 10
796.515158871849
 20
190.764814180068
 40
17.5
  1
206
  7
Font_0
 50
90
 72
1
 11
787.765158871849
 21
203.889814180068
100
AcDbText
 73
2
  0
LINE
  5
5F7
100
AcDbEntity
  8
DIM
100
AcDbLine
  6
BYLAYER
 62
0
370
  -2
 10
586.783108205674
 20
101.089814180068
 11
788.395158871849
 21
101.089814180068
  0
LINE
  5
5F8
100
AcDbEntity
  8
DIM
100
AcDbLine
  6
BYLAYER
 62
0
370
  -2
 10
713.783108205674
 20
61.689814180068
 11
788.395158871849
 21
61.689814180068
  0
LINE
  5
5F9
100
AcDbEntity
  8
DIM
100
AcDbLine
  6
BYLAYER
 62
0
370
  -2
 10
787.765158871849
 20
113.339814180068
 11
787.765158871849
 21
125.589814180068
  0
LINE
  5
5FA
100
AcDbEntity
  8
DIM
100
AcDbLine
  6
BYLAYER
 62
0
370
  -2
 10
787.765158871849
 20
49.439814180068
 11
787.765158871849
 21
37.189814180068
  0
SOLID
  5
5FB
100
AcDbEntity
  8
DIM
100
AcDbTrace
 10
787.765158871849
 20
101.089814180068
 30
0.0
 11
789.806825538515
 21
113.339814180068
 31
0.0
 12
785.723492205182
 22
113.339814180068
 32
0.0
 13
785.723492205182
 23
113.339814180068
 33
0.0
  0
SOLID
  5
5FC
100
AcDbEntity
  8
DIM
100
AcDbTrace
 10
785.723492205182
 20
49.439814180068
 30
0.0
 11
789.806825538515
 21
49.439814180068
 31
0.0
 12
787.765158871849
 22
61.689814180068
 32
0.0
 13
787.765158871849
 23
61.689814180068
 33
0.0
  0
TEXT
  5
5FD
100
AcDbEntity
  8
DIM
 62
0
100
AcDbText
  6
BYLAYER
 62
0
 10
796.515158871849
 20
72.639814180068
 40
17.5
  1
39
  7
Font_0
 50
90
 72
1
 11
787.765158871849
 21
81.389814180068
100
AcDbText
 73
2
  0
LINE
  5
5FE
100
AcDbEntity
  8
DIM
100
AcDbLine
  6
BYLAYER
 62
0
370
  -2
 10
604.636912479029
 20
458.719838791121
 11
821.512777561205
 21
458.71983879112
  0
LINE
  5
5FF
100
AcDbEntity
  8
DIM
100
AcDbLine
  6
BYLAYER
 62
0
370
  -2
 10
713.783108205674
 20
61.689814180068
 11
821.512777561205
 21
61.689814180068
  0
LINE
  5
600
100
AcDbEntity
  8
DIM
100
AcDbLine
  6
BYLAYER
 62
0
370
  -2
 10
820.882777561205
 20
446.46983879112
 11
820.882777561205
 21
294.038159818928
  0
LINE
  5
601
100
AcDbEntity
  8
DIM
100
AcDbLine
  6
BYLAYER
 62
0
370
  -2
 10
820.882777561205
 20
73.939814180068
 11
820.882777561205
 21
226.371493152261
  0
SOLID
  5
602
100
AcDbEntity
  8
DIM
100
AcDbTrace
 10
818.841110894538
 20
446.46983879112
 30
0.0
 11
822.924444227872
 21
446.46983879112
 31
0.0
 12
820.882777561205
 22
458.71983879112
 32
0.0
 13
820.882777561205
 23
458.71983879112
 33
0.0
  0
SOLID
  5
603
100
AcDbEntity
  8
DIM
100
AcDbTrace
 10
820.882777561205
 20
61.689814180068
 30
0.0
 11
822.924444227871
 21
73.939814180068
 31
0.0
 12
818.841110894538
 22
73.939814180068
 32
0.0
 13
818.841110894538
 23
73.939814180068
 33
0.0
  0
TEXT
  5
604
100
AcDbEntity
  8
DIM
 62
0
100
AcDbText
  6
BYLAYER
 62
0
 10
829.632777561205
 20
247.079826485595
 40
17.5
  1
397
  7
Font_0
 50
90
 72
1
 11
820.882777561205
 21
260.204826485595
100
AcDbText
 73
2
  0
LINE
  5
605
100
AcDbEntity
  8
DIM
100
AcDbLine
  6
BYLAYER
 62
0
370
  -2
 10
713.564358205674
 20
61.471064180068
 11
713.564358205674
 21
8.11999905990501
  0
LINE
  5
606
100
AcDbEntity
  8
DIM
100
AcDbLine
  6
BYLAYER
 62
0
370
  -2
 10
459.564358205674
 20
61.471064180068
 11
459.564358205674
 21
8.11999905990501
  0
LINE
  5
607
100
AcDbEntity
  8
DIM
100
AcDbLine
  6
BYLAYER
 62
0
370
  -2
 10
704.814358205674
 20
8.74999905990512
 11
598.546024872341
 21
8.74999905990512
  0
LINE
  5
608
100
AcDbEntity
  8
DIM
100
AcDbLine
  6
BYLAYER
 62
0
370
  -2
 10
468.314358205674
 20
8.74999905990512
 11
574.582691539008
 21
8.74999905990512
  0
SOLID
  5
609
100
AcDbEntity
  8
DIM
100
AcDbTrace
 10
704.814358205674
 20
10.2083323932382
 30
0.0
 11
704.814358205674
 21
7.29166572657209
 31
0.0
 12
713.564358205674
 22
8.74999905990512
 32
0.0
 13
713.564358205674
 23
8.74999905990512
 33
0.0
  0
SOLID
  5
60A
100
AcDbEntity
  8
DIM
100
AcDbTrace
 10
459.564358205674
 20
8.74999905990512
 30
0.0
 11
468.314358205674
 21
7.29166572657209
 31
0.0
 12
468.314358205674
 22
10.2083323932382
 32
0.0
 13
468.314358205674
 23
10.2083323932382
 33
0.0
  0
TEXT
  5
60B
100
AcDbEntity
  8
DIM
 62
0
100
AcDbText
  6
BYLAYER
 62
0
 10
580.001858205675
 20
4.37499905990512
 40
8.75
  1
254
  7
Font_0
 72
1
 11
586.564358205675
 21
8.74999905990512
100
AcDbText
 73
2
  0
ENDBLK
  5
60C
100
AcDbEntity
  8
0
 67
     1
100
AcDbBlockEnd
  0
ENDSEC
  0
SECTION
  2
ENTITIES
  0
ARC
  5
60D
100
AcDbEntity
  8
0
100
AcDbCircle
  6
BYLAYER
 62
0
370
0
 10
2034.8590833624
 20
-963.940059417882
 40
23.7999999999943
100
AcDbArc
 50
-90.000000000005
 51
-444.501135589207
  0
LINE
  5
60E
100
AcDbEntity
  8
0
100
AcDbLine
  6
BYLAYER
 62
0
370
0
 10
2034.8590833624
 20
-987.740059417876
 11
2000.89996092445
 21
-987.740059417877
  0
CIRCLE
  5
60F
100
AcDbEntity
  8
0
100
AcDbCircle
  6
BYLAYER
 62
0
 10
2229.21724076091
 20
-805.222779581424
 40
2.5
  0
CIRCLE
  5
610
100
AcDbEntity
  8
0
100
AcDbCircle
  6
BYLAYER
 62
0
 10
2262.89996092445
 20
-886.540059417877
 40
2.5
  0
CIRCLE
  5
611
100
AcDbEntity
  8
0
100
AcDbCircle
  6
BYLAYER
 62
0
 10
2229.21724076091
 20
-967.85733925433
 40
2.5
  0
LINE
  5
612
100
AcDbEntity
  8
0
100
AcDbLine
  6
BYLAYER
 62
0
 10
1857.73560424784
 20
-978.41258246975
 11
1857.73560424784
 21
-735.291284806824
  0
CIRCLE
  5
613
100
AcDbEntity
  8
0
100
AcDbCircle
  6
BYLAYER
 62
0
 10
2147.89996092445
 20
-771.540059417877
 40
2.5
  0
CIRCLE
  5
614
100
AcDbEntity
  8
0
100
AcDbCircle
  6
BYLAYER
 62
0
 10
2066.582681088
 20
-805.222779581423
 40
2.5
  0
CIRCLE
  5
615
100
AcDbEntity
  8
0
100
AcDbCircle
  6
BYLAYER
 62
0
 10
2032.89996092445
 20
-886.540059417876
 40
2.5
  0
LINE
  5
616
100
AcDbEntity
  8
0
100
AcDbLine
  6
BYLAYER
 62
0
 10
1857.73560424784
 20
-735.291284806824
 11
1865.73560424784
 21
-735.291284806824
  0
CIRCLE
  5
617
100
AcDbEntity
  8
0
100
AcDbCircle
  6
BYLAYER
 62
0
 10
2147.89996092445
 20
-1001.54005941788
 40
2.5
  0
CIRCLE
  5
618
100
AcDbEntity
  8
0
100
AcDbCircle
  6
BYLAYER
 62
0
 10
2066.582681088
 20
-967.857339254329
 40
2.5
  0
LINE
  5
619
100
AcDbEntity
  8
0
100
AcDbLine
  6
BYLAYER
 62
0
 10
1862.03560424784
 20
-996.021309417877
 11
1862.03560424784
 21
-990.821309417877
  0
LINE
  5
61A
100
AcDbEntity
  8
0
100
AcDbLine
  6
BYLAYER
 62
0
 10
1862.03560424784
 20
-996.021309417877
 11
1863.43560424784
 21
-996.021309417877
  0
LINE
  5
61B
100
AcDbEntity
  8
0
100
AcDbLine
  6
BYLAYER
 62
0
 10
2000.89996092445
 20
-1092.14005941788
 11
2000.89996092445
 21
-987.740059417877
  0
LINE
  5
61C
100
AcDbEntity
  8
0
100
AcDbLine
  6
BYLAYER
 62
0
 10
1767.03560424784
 20
-996.021309417877
 11
1765.63560424784
 21
-996.021309417877
  0
LINE
  5
61D
100
AcDbEntity
  8
0
100
AcDbLine
  6
BYLAYER
 62
0
 10
1767.03560424784
 20
-996.021309417877
 11
1767.03560424784
 21
-990.821309417877
  0
LINE
  5
61E
100
AcDbEntity
  8
0
100
AcDbLine
  6
BYLAYER
 62
0
 10
1771.33560424784
 20
-735.291284806824
 11
1763.33560424784
 21
-735.291284806824
  0
LINE
  5
61F
100
AcDbEntity
  8
0
100
AcDbLine
  6
BYLAYER
 62
0
 10
1763.33560424784
 20
-735.291284806824
 11
1763.33560424784
 21
-984.916565097699
  0
LINE
  5
620
100
AcDbEntity
  8
0
100
AcDbLine
  6
BYLAYER
 62
0
 10
1771.33560424784
 20
-978.412582469749
 11
1771.33560424784
 21
-735.291284806824
  0
CIRCLE
  5
621
100
AcDbEntity
  8
0
100
AcDbCircle
  6
BYLAYER
 62
0
 10
1814.53560424784
 20
-1039.72130941788
 40
75
  0
CIRCLE
  5
622
100
AcDbEntity
  8
0
100
AcDbCircle
  6
BYLAYER
 62
0
 10
1814.53560424784
 20
-1039.72130941788
 40
74
  0
LINE
  5
623
100
AcDbEntity
  8
0
100
AcDbLine
  6
BYLAYER
 62
0
 10
1969.89996092445
 20
-964.940059417877
 11
1969.89996092445
 21
-1114.94005941788
  0
LINE
  5
624
100
AcDbEntity
  8
0
100
AcDbLine
  6
BYLAYER
 62
0
 10
2000.89996092445
 20
-1109.94005941788
 11
2000.89996092445
 21
-969.940059417877
  0
LINE
  5
625
100
AcDbEntity
  8
0
100
AcDbLine
  6
BYLAYER
 62
0
 10
1995.89996092445
 20
-964.940059417877
 11
1969.89996092445
 21
-964.940059417877
  0
LINE
  5
626
100
AcDbEntity
  8
0
100
AcDbLine
  6
BYLAYER
 62
0
 10
1969.89996092445
 20
-1114.94005941788
 11
1995.89996092445
 21
-1114.94005941788
  0
ARC
  5
627
100
AcDbEntity
  8
0
100
AcDbCircle
  6
BYLAYER
 62
0
 10
1995.89996092445
 20
-1109.94005941788
 40
5
100
AcDbArc
 50
270
 51
0
  0
ARC
  5
628
100
AcDbEntity
  8
0
100
AcDbCircle
  6
BYLAYER
 62
0
 10
1995.89996092445
 20
-969.940059417877
 40
5
100
AcDbArc
 50
0
 51
90
  0
LINE
  5
629
100
AcDbEntity
  8
0
100
AcDbLine
  6
BYLAYER
 62
0
 10
1867.73560424784
 20
-762.540059417876
 11
1867.73560424784
 21
-762.540059417876
  0
LINE
  5
62A
100
AcDbEntity
  8
0
100
AcDbLine
  6
BYLAYER
 62
0
 10
1867.73560424784
 20
-762.540059417876
 11
1867.73560424784
 21
-762.540059417876
  0
LINE
  5
62B
100
AcDbEntity
  8
0
100
AcDbLine
  6
BYLAYER
 62
0
 10
1865.73560424784
 20
-762.540059417876
 11
1867.73560424784
 21
-762.540059417876
  0
LINE
  5
62C
100
AcDbEntity
  8
0
100
AcDbLine
  6
BYLAYER
 62
0
 10
1869.53560424784
 20
-762.540059417876
 11
1868.53560424784
 21
-762.540059417876
  0
LINE
  5
62D
100
AcDbEntity
  8
0
100
AcDbLine
  6
BYLAYER
 62
0
 10
1869.53560424784
 20
-762.540059417876
 11
1869.53560424784
 21
-988.731114281948
  0
LINE
  5
62E
100
AcDbEntity
  8
0
100
AcDbLine
  6
BYLAYER
 62
0
 10
1869.53560424784
 20
-786.040059417877
 11
1908.53560424784
 21
-786.040059417877
  0
LINE
  5
62F
100
AcDbEntity
  8
0
100
AcDbLine
  6
BYLAYER
 62
0
 10
1869.53560424784
 20
-987.040059417877
 11
1908.53560424784
 21
-987.040059417877
  0
LINE
  5
630
100
AcDbEntity
  8
0
100
AcDbLine
  6
BYLAYER
 62
0
 10
1908.53560424784
 20
-987.040059417877
 11
1908.53560424784
 21
-786.040059417877
  0
LINE
  5
631
100
AcDbEntity
  8
0
100
AcDbLine
  6
BYLAYER
 62
0
 10
1867.73560424784
 20
-787.040059417876
 11
1867.73560424784
 21
-762.540059417876
  0
LINE
  5
632
100
AcDbEntity
  8
0
100
AcDbLine
  6
BYLAYER
 62
0
 10
1867.73560424784
 20
-787.040059417876
 11
1867.73560424784
 21
-986.855819729423
  0
CIRCLE
  5
633
100
AcDbEntity
  8
0
100
AcDbCircle
  6
BYLAYER
 62
0
 10
2147.89996092445
 20
-886.540059417876
 40
84
  0
CIRCLE
  5
634
100
AcDbEntity
  8
0
100
AcDbCircle
  6
BYLAYER
 62
0
 10
2147.89996092445
 20
-886.540059417876
 40
124
  0
CIRCLE
  5
635
100
AcDbEntity
  8
0
100
AcDbCircle
  6
BYLAYER
 62
0
 10
2147.89996092445
 20
-886.540059417876
 40
99.5
  0
CIRCLE
  5
636
100
AcDbEntity
  8
0
100
AcDbCircle
  6
BYLAYER
 62
0
 10
2147.89996092445
 20
-1001.54005941788
 40
3.25
  0
CIRCLE
  5
637
100
AcDbEntity
  8
0
100
AcDbCircle
  6
BYLAYER
 62
0
 10
2229.21724076091
 20
-967.85733925433
 40
3.25
  0
CIRCLE
  5
638
100
AcDbEntity
  8
0
100
AcDbCircle
  6
BYLAYER
 62
0
 10
2262.89996092445
 20
-886.540059417877
 40
3.25
  0
CIRCLE
  5
639
100
AcDbEntity
  8
0
100
AcDbCircle
  6
BYLAYER
 62
0
 10
2229.21724076091
 20
-805.222779581424
 40
3.25
  0
CIRCLE
  5
63A
100
AcDbEntity
  8
0
100
AcDbCircle
  6
BYLAYER
 62
0
 10
2147.89996092445
 20
-771.540059417877
 40
3.25
  0
CIRCLE
  5
63B
100
AcDbEntity
  8
0
100
AcDbCircle
  6
BYLAYER
 62
0
 10
2066.582681088
 20
-805.222779581424
 40
3.25
  0
CIRCLE
  5
63C
100
AcDbEntity
  8
0
100
AcDbCircle
  6
BYLAYER
 62
0
 10
2032.89996092445
 20
-886.540059417876
 40
3.25
  0
CIRCLE
  5
63D
100
AcDbEntity
  8
0
100
AcDbCircle
  6
BYLAYER
 62
0
 10
2066.582681088
 20
-967.85733925433
 40
3.25
  0
CIRCLE
  5
63E
100
AcDbEntity
  8
0
100
AcDbCircle
  6
BYLAYER
 62
0
 10
2147.89996092445
 20
-886.540059417876
 40
7
  0
LINE
  5
63F
100
AcDbEntity
  8
0
100
AcDbLine
  6
BYLAYER
 62
0
 10
2018.89996092445
 20
-1131.54005941788
 11
2276.89996092445
 21
-1131.54005941788
  0
LINE
  5
640
100
AcDbEntity
  8
0
100
AcDbLine
  6
BYLAYER
 62
0
 10
2276.89996092445
 20
-1024.41089426406
 11
2276.89996092445
 21
-1131.54005941788
  0
LINE
  5
641
100
AcDbEntity
  8
0
100
AcDbLine
  6
BYLAYER
 62
0
 10
2018.89996092445
 20
-1092.14005941788
 11
2018.89996092445
 21
-1131.54005941788
  0
LINE
  5
642
100
AcDbEntity
  8
0
100
AcDbLine
  6
BYLAYER
 62
0
 10
1763.33560424784
 20
-1094.52605373805
 11
1763.33560424784
 21
-1131.54005941788
  0
LINE
  5
643
100
AcDbEntity
  8
0
100
AcDbLine
  6
BYLAYER
 62
0
 10
1763.33560424784
 20
-1131.54005941788
 11
1563.33560424784
 21
-1131.54005941788
  0
LINE
  5
644
100
AcDbEntity
  8
0
100
AcDbLine
  6
BYLAYER
 62
0
 10
1757.96466146629
 20
-1105.54005941788
 11
1568.33560424784
 21
-1105.54005941788
  0
LINE
  5
645
100
AcDbEntity
  8
0
100
AcDbLine
  6
BYLAYER
 62
0
 10
1737.33560424784
 20
-901.540059417877
 11
1737.33560424784
 21
-1105.54005941788
  0
LINE
  5
646
100
AcDbEntity
  8
0
100
AcDbLine
  6
BYLAYER
 62
0
 10
1563.33560424784
 20
-1110.54005941788
 11
1563.33560424784
 21
-1131.54005941788
  0
LINE
  5
647
100
AcDbEntity
  8
0
100
AcDbLine
  6
BYLAYER
 62
0
 10
1763.33560424784
 20
-886.540059417876
 11
1752.33560424784
 21
-886.540059417876
  0
ARC
  5
648
100
AcDbEntity
  8
0
100
AcDbCircle
  6
BYLAYER
 62
0
 10
1752.33560424784
 20
-901.540059417877
 40
15
100
AcDbArc
 50
90
 51
180
  0
ARC
  5
649
100
AcDbEntity
  8
0
100
AcDbCircle
  6
BYLAYER
 62
0
 10
1568.33560424784
 20
-1110.54005941788
 40
5
100
AcDbArc
 50
90
 51
180
  0
LINE
  5
64A
100
AcDbEntity
  8
0
100
AcDbLine
  6
BYLAYER
 62
0
 10
1765.63560424784
 20
-1088.62130941788
 11
1765.63560424784
 21
-990.821309417877
  0
LINE
  5
64B
100
AcDbEntity
  8
0
100
AcDbLine
  6
BYLAYER
 62
0
 10
1765.63560424784
 20
-1088.62130941788
 11
1863.43560424784
 21
-1088.62130941788
  0
LINE
  5
64C
100
AcDbEntity
  8
0
100
AcDbLine
  6
BYLAYER
 62
0
 10
1765.63560424784
 20
-990.821309417877
 11
1863.43560424784
 21
-990.821309417877
  0
LINE
  5
64D
100
AcDbEntity
  8
0
100
AcDbLine
  6
BYLAYER
 62
0
 10
1863.43560424784
 20
-1088.62130941788
 11
1863.43560424784
 21
-990.821309417877
  0
LINE
  5
64E
100
AcDbEntity
  8
0
100
AcDbLine
  6
BYLAYER
 62
0
 10
1865.73560424784
 20
-735.291284806824
 11
1865.73560424784
 21
-984.916565097699
  0
LINE
  5
64F
100
AcDbEntity
  8
0
100
AcDbLine
  6
BYLAYER
 62
0
 10
1761.33560424784
 20
-807.593212087986
 11
1761.33560424784
 21
-886.540059417877
  0
LINE
  5
650
100
AcDbEntity
  8
0
100
AcDbLine
  6
BYLAYER
 62
0
 10
1753.33560424784
 20
-807.593212087986
 11
1753.33560424784
 21
-886.540059417877
  0
LINE
  5
651
100
AcDbEntity
  8
0
100
AcDbLine
  6
BYLAYER
 62
0
 10
1760.33560424784
 20
-806.593212087986
 11
1754.33560424784
 21
-806.593212087986
  0
LINE
  5
652
100
AcDbEntity
  8
0
100
AcDbLine
  6
BYLAYER
 62
0
 10
1753.33560424784
 20
-829.540059417877
 11
1751.33560424784
 21
-829.540059417877
  0
LINE
  5
653
100
AcDbEntity
  8
0
100
AcDbLine
  6
BYLAYER
 62
0
 10
1751.33560424784
 20
-829.540059417877
 11
1751.33560424784
 21
-886.573429870781
  0
LINE
  5
654
100
AcDbEntity
  8
0
100
AcDbLine
  6
BYLAYER
 62
0
 10
1761.33560424784
 20
-807.593212087986
 11
1760.33560424784
 21
-806.593212087986
  0
LINE
  5
655
100
AcDbEntity
  8
0
100
AcDbLine
  6
BYLAYER
 62
0
 10
1754.33560424784
 20
-806.593212087986
 11
1753.33560424784
 21
-807.593212087986
  0
LINE
  5
656
100
AcDbEntity
  8
0
100
AcDbLine
  6
BYLAYER
 62
0
 10
1719.41260028957
 20
-828.846184671987
 11
1708.13766457447
 21
-828.846184671987
  0
LINE
  5
657
100
AcDbEntity
  8
0
100
AcDbLine
  6
BYLAYER
 62
0
 10
1708.33560424784
 20
-827.846184671987
 11
1708.33560424784
 21
-828.846184671987
  0
LINE
  5
658
100
AcDbEntity
  8
0
100
AcDbLine
  6
BYLAYER
 62
0
 10
1718.33560424784
 20
-827.846184671987
 11
1718.33560424784
 21
-828.846184671987
  0
LINE
  5
659
100
AcDbEntity
  8
0
100
AcDbLine
  6
BYLAYER
 62
0
 10
1708.33560424784
 20
-828.846184671987
 11
1718.33560424784
 21
-828.846184671987
  0
LINE
  5
65A
100
AcDbEntity
  8
0
100
AcDbLine
  6
BYLAYER
 62
0
 10
1712.83560424784
 20
-827.346184671987
 11
1713.83560424784
 21
-827.346184671987
  0
LINE
  5
65B
100
AcDbEntity
  8
0
100
AcDbLine
  6
BYLAYER
 62
0
 10
1712.83560424784
 20
-827.346184671987
 11
1712.83560424784
 21
-824.87755770539
  0
LINE
  5
65C
100
AcDbEntity
  8
0
100
AcDbLine
  6
BYLAYER
 62
0
 10
1713.83560424784
 20
-827.346184671987
 11
1713.83560424784
 21
-824.87755770539
  0
ARC
  5
65D
100
AcDbEntity
  8
0
100
AcDbCircle
  6
BYLAYER
 62
0
 10
1713.33560424784
 20
-828.846184671987
 40
4
100
AcDbArc
 50
14.4775121859295
 51
82.8192442185423
  0
LINE
  5
65E
100
AcDbEntity
  8
0
100
AcDbLine
  6
BYLAYER
 62
0
 10
1708.33560424784
 20
-827.846184671987
 11
1718.33560424784
 21
-827.846184671987
  0
ARC
  5
65F
100
AcDbEntity
  8
0
100
AcDbCircle
  6
BYLAYER
 62
0
 10
1713.33560424784
 20
-828.846184671987
 40
4
100
AcDbArc
 50
97.1807557814577
 51
165.52248781407
  0
LINE
  5
660
100
AcDbEntity
  8
0
100
AcDbLine
  6
BYLAYER
 62
0
 10
1708.33560424784
 20
-833.669450079796
 11
1708.33560424784
 21
-834.763324825686
  0
ARC
  5
661
100
AcDbEntity
  8
0
100
AcDbCircle
  6
BYLAYER
 62
0
 10
1707.80436205935
 20
-818.412071846178
 40
16.35988056994
100
AcDbArc
 50
271.860850200518
 51
315.19873619992
  0
ARC
  5
662
100
AcDbEntity
  8
0
100
AcDbCircle
  6
BYLAYER
 62
0
 10
1707.80436205935
 20
-817.318197100288
 40
16.35988056994
100
AcDbArc
 50
271.860850200518
 51
315.19873619992
  0
LINE
  5
663
100
AcDbEntity
  8
0
100
AcDbLine
  6
BYLAYER
 62
0
 10
1708.33560424784
 20
-814.1497263783
 11
1708.33560424784
 21
-827.453268084613
  0
LINE
  5
664
100
AcDbEntity
  8
0
100
AcDbLine
  6
BYLAYER
 62
0
 10
1719.41260028957
 20
-828.846184671987
 11
1719.41260028957
 21
-829.940059417877
  0
ARC
  5
665
100
AcDbEntity
  8
0
100
AcDbCircle
  6
BYLAYER
 62
0
 10
1698.33560424784
 20
-801.340059417877
 40
10
100
AcDbArc
 50
0
 51
90
  0
ARC
  5
666
100
AcDbEntity
  8
0
100
AcDbCircle
  6
BYLAYER
 62
0
 10
1703.33560424784
 20
-827.453268084613
 40
5
100
AcDbArc
 50
270
 51
0
  0
LINE
  5
667
100
AcDbEntity
  8
0
100
AcDbLine
  6
BYLAYER
 62
0
 10
1708.33560424784
 20
-800.846184671987
 11
1708.33560424784
 21
-827.453268084613
  0
LINE
  5
668
100
AcDbEntity
  8
0
100
AcDbLine
  6
BYLAYER
 62
0
 10
1719.41260028957
 20
-829.940059417876
 11
1751.33560424784
 21
-829.940059417876
  0
ARC
  5
669
100
AcDbEntity
  8
0
100
AcDbCircle
  6
BYLAYER
 62
0
 10
1633.86684643633
 20
-817.318197100288
 40
16.35988056994
100
AcDbArc
 50
224.80126380008
 51
268.139149799482
  0
ARC
  5
66A
100
AcDbEntity
  8
0
100
AcDbCircle
  6
BYLAYER
 62
0
 10
1633.86684643633
 20
-818.412071846178
 40
16.35988056994
100
AcDbArc
 50
224.80126380008
 51
268.139149799482
  0
LINE
  5
66B
100
AcDbEntity
  8
0
100
AcDbLine
  6
BYLAYER
 62
0
 10
1633.33560424784
 20
-833.669450079796
 11
1633.33560424784
 21
-834.763324825686
  0
LINE
  5
66C
100
AcDbEntity
  8
0
100
AcDbLine
  6
BYLAYER
 62
0
 10
1622.25860820611
 20
-828.846184671987
 11
1633.53354392121
 21
-828.846184671987
  0
LINE
  5
66D
100
AcDbEntity
  8
0
100
AcDbLine
  6
BYLAYER
 62
0
 10
1622.25860820611
 20
-828.846184671987
 11
1622.25860820611
 21
-829.940059417877
  0
LINE
  5
66E
100
AcDbEntity
  8
0
100
AcDbLine
  6
BYLAYER
 62
0
 10
1633.33560424784
 20
-827.846184671987
 11
1633.33560424784
 21
-828.846184671987
  0
LINE
  5
66F
100
AcDbEntity
  8
0
100
AcDbLine
  6
BYLAYER
 62
0
 10
1623.33560424784
 20
-827.846184671987
 11
1623.33560424784
 21
-828.846184671987
  0
LINE
  5
670
100
AcDbEntity
  8
0
100
AcDbLine
  6
BYLAYER
 62
0
 10
1633.33560424784
 20
-828.846184671987
 11
1623.33560424784
 21
-828.846184671987
  0
LINE
  5
671
100
AcDbEntity
  8
0
100
AcDbLine
  6
BYLAYER
 62
0
 10
1628.83560424784
 20
-827.346184671987
 11
1627.83560424784
 21
-827.346184671987
  0
LINE
  5
672
100
AcDbEntity
  8
0
100
AcDbLine
  6
BYLAYER
 62
0
 10
1628.83560424784
 20
-827.346184671987
 11
1628.83560424784
 21
-824.87755770539
  0
LINE
  5
673
100
AcDbEntity
  8
0
100
AcDbLine
  6
BYLAYER
 62
0
 10
1627.83560424784
 20
-827.346184671987
 11
1627.83560424784
 21
-824.87755770539
  0
ARC
  5
674
100
AcDbEntity
  8
0
100
AcDbCircle
  6
BYLAYER
 62
0
 10
1628.33560424784
 20
-828.846184671987
 40
4
100
AcDbArc
 50
97.1807557814577
 51
165.52248781407
  0
LINE
  5
675
100
AcDbEntity
  8
0
100
AcDbLine
  6
BYLAYER
 62
0
 10
1633.33560424784
 20
-827.846184671987
 11
1623.33560424784
 21
-827.846184671987
  0
ARC
  5
676
100
AcDbEntity
  8
0
100
AcDbCircle
  6
BYLAYER
 62
0
 10
1628.33560424784
 20
-828.846184671987
 40
4
100
AcDbArc
 50
14.4775121859295
 51
82.8192442185423
  0
ARC
  5
677
100
AcDbEntity
  8
0
100
AcDbCircle
  6
BYLAYER
 62
0
 10
1643.33560424784
 20
-801.340059417877
 40
10
100
AcDbArc
 50
90
 51
180
  0
ARC
  5
678
100
AcDbEntity
  8
0
100
AcDbCircle
  6
BYLAYER
 62
0
 10
1638.33560424784
 20
-827.453268084613
 40
5
100
AcDbArc
 50
180
 51
270
  0
LINE
  5
679
100
AcDbEntity
  8
0
100
AcDbLine
  6
BYLAYER
 62
0
 10
1633.33560424784
 20
-800.846184671987
 11
1633.33560424784
 21
-827.453268084613
  0
LINE
  5
67A
100
AcDbEntity
  8
0
100
AcDbLine
  6
BYLAYER
 62
0
 10
1621.33560424784
 20
-823.040059417877
 11
1621.33560424784
 21
-950.040059417877
  0
LINE
  5
67B
100
AcDbEntity
  8
0
100
AcDbLine
  6
BYLAYER
 62
0
 10
1621.33560424784
 20
-950.040059417877
 11
1581.33560424784
 21
-950.040059417877
  0
LINE
  5
67C
100
AcDbEntity
  8
0
100
AcDbLine
  6
BYLAYER
 62
0
 10
1621.33560424784
 20
-823.040059417877
 11
1581.33560424784
 21
-823.040059417877
  0
LINE
  5
67D
100
AcDbEntity
  8
0
100
AcDbLine
  6
BYLAYER
 62
0
 10
1621.33560424784
 20
-829.940059417876
 11
1621.33560424784
 21
-836.609773868131
  0
LINE
  5
67E
100
AcDbEntity
  8
0
100
AcDbLine
  6
BYLAYER
 62
0
 10
1621.33560424784
 20
-829.940059417876
 11
1622.25860820611
 21
-829.940059417876
  0
LINE
  5
67F
100
AcDbEntity
  8
0
100
AcDbLine
  6
BYLAYER
 62
0
 10
1612.27620317108
 20
-822.040059417876
 11
1612.27620317108
 21
-819.040059417876
  0
LINE
  5
680
100
AcDbEntity
  8
0
100
AcDbLine
  6
BYLAYER
 62
0
 10
1616.8950053246
 20
-822.040059417876
 11
1616.8950053246
 21
-819.040059417876
  0
LINE
  5
681
100
AcDbEntity
  8
0
100
AcDbLine
  6
BYLAYER
 62
0
 10
1609.96680209432
 20
-822.040059417876
 11
1609.96680209432
 21
-819.040059417876
  0
LINE
  5
682
100
AcDbEntity
  8
0
100
AcDbLine
  6
BYLAYER
 62
0
 10
1619.20440640136
 20
-822.040059417876
 11
1619.20440640136
 21
-819.040059417876
  0
LINE
  5
683
100
AcDbEntity
  8
0
100
AcDbLine
  6
BYLAYER
 62
0
 10
1613.83560424784
 20
-819.040059417876
 11
1609.96680209432
 21
-819.040059417876
  0
LINE
  5
684
100
AcDbEntity
  8
0
100
AcDbLine
  6
BYLAYER
 62
0
 10
1614.09899819224
 20
-820.155013959574
 11
1613.83560424784
 21
-819.040059417876
  0
LINE
  5
685
100
AcDbEntity
  8
0
100
AcDbLine
  6
BYLAYER
 62
0
 10
1615.07221030344
 20
-820.155013959574
 11
1615.33560424784
 21
-819.040059417876
  0
ARC
  5
686
100
AcDbEntity
  8
0
100
AcDbCircle
  6
BYLAYER
 62
0
 10
1614.58560424784
 20
-820.040059417876
 40
0.5
100
AcDbArc
 50
193.291719167641
 51
346.708280832359
  0
LINE
  5
687
100
AcDbEntity
  8
0
100
AcDbLine
  6
BYLAYER
 62
0
 10
1619.20440640136
 20
-819.040059417876
 11
1615.33560424784
 21
-819.040059417876
  0
LINE
  5
688
100
AcDbEntity
  8
0
100
AcDbLine
  6
BYLAYER
 62
0
 10
1620.58560424784
 20
-822.040059417876
 11
1608.58560424784
 21
-822.040059417876
  0
LINE
  5
689
100
AcDbEntity
  8
0
100
AcDbLine
  6
BYLAYER
 62
0
 10
1608.58560424784
 20
-823.040059417876
 11
1608.58560424784
 21
-822.040059417876
  0
LINE
  5
68A
100
AcDbEntity
  8
0
100
AcDbLine
  6
BYLAYER
 62
0
 10
1620.58560424784
 20
-823.040059417876
 11
1620.58560424784
 21
-822.040059417876
  0
LINE
  5
68B
100
AcDbEntity
  8
0
100
AcDbLine
  6
BYLAYER
 62
0
 10
1620.58560424784
 20
-823.040059417876
 11
1608.58560424784
 21
-823.040059417876
  0
ELLIPSE
  5
68C
100
AcDbEntity
  8
0
100
AcDbEllipse
  6
BYLAYER
 62
0
 10
1614.58560424784
 20
-918.69696649322
 30
0.0
 11
6
 21
0
 31
0.0
210
0.0
220
0.0
230
1.0
 40
0.866025403784448
 41
1.5707963267949
 42
4.59992806710878
  0
ELLIPSE
  5
68D
100
AcDbEntity
  8
0
100
AcDbEllipse
  6
BYLAYER
 62
0
 10
1614.58560424784
 20
-918.19696649322
 30
0.0
 11
6
 21
0
 31
0.0
210
0.0
220
0.0
230
1.0
 40
0.866025403784446
 41
1.5707963267949
 42
3.14159265358979
  0
LINE
  5
68E
100
AcDbEntity
  8
0
100
AcDbLine
  6
BYLAYER
 62
0
 10
1613.83560424784
 20
-918.19696649322
 11
1613.83560424784
 21
-919.047447440381
  0
LINE
  5
68F
100
AcDbEntity
  8
0
100
AcDbLine
  6
BYLAYER
 62
0
 10
1610.58560424784
 20
-916.644161139924
 11
1610.58560424784
 21
-922.19696649322
  0
LINE
  5
690
100
AcDbEntity
  8
0
100
AcDbLine
  6
BYLAYER
 62
0
 10
1613.08560424784
 20
-919.547447440381
 11
1613.08560424784
 21
-920.846485546058
  0
ARC
  5
691
100
AcDbEntity
  8
0
100
AcDbCircle
  6
BYLAYER
 62
0
 10
1613.33560424784
 20
-919.047447440381
 40
0.5
100
AcDbArc
 50
270
 51
0
  0
ARC
  5
692
100
AcDbEntity
  8
0
100
AcDbCircle
  6
BYLAYER
 62
0
 10
1613.33560424784
 20
-921.346485546058
 40
0.5
100
AcDbArc
 50
0
 51
90
  0
LINE
  5
693
100
AcDbEntity
  8
0
100
AcDbLine
  6
BYLAYER
 62
0
 10
1613.83560424784
 20
-921.346485546058
 11
1613.83560424784
 21
-922.19696649322
  0
LINE
  5
694
100
AcDbEntity
  8
0
100
AcDbLine
  6
BYLAYER
 62
0
 10
1614.58560424784
 20
-922.19696649322
 11
1613.83560424784
 21
-922.19696649322
  0
LINE
  5
695
100
AcDbEntity
  8
0
100
AcDbLine
  6
BYLAYER
 62
0
 10
1614.58560424784
 20
-924.19696649322
 11
1610.58560424784
 21
-922.19696649322
  0
LINE
  5
696
100
AcDbEntity
  8
0
100
AcDbLine
  6
BYLAYER
 62
0
 10
1610.58560424784
 20
-920.846485546058
 11
1613.33560424784
 21
-920.846485546058
  0
LINE
  5
697
100
AcDbEntity
  8
0
100
AcDbLine
  6
BYLAYER
 62
0
 10
1610.58560424784
 20
-919.547447440381
 11
1613.33560424784
 21
-919.547447440381
  0
LINE
  5
698
100
AcDbEntity
  8
0
100
AcDbLine
  6
BYLAYER
 62
0
 10
1613.83560424784
 20
-918.19696649322
 11
1614.58560424784
 21
-918.19696649322
  0
LINE
  5
699
100
AcDbEntity
  8
0
100
AcDbLine
  6
BYLAYER
 62
0
 10
1614.58560424784
 20
-916.19696649322
 11
1610.58623709876
 21
-918.19696649322
  0
LINE
  5
69A
100
AcDbEntity
  8
0
100
AcDbLine
  6
BYLAYER
 62
0
 10
1614.58560424784
 20
-914.69696649322
 11
1610.58560424784
 21
-916.644161139924
  0
ELLIPSE
  5
69B
100
AcDbEntity
  8
0
100
AcDbEllipse
  6
BYLAYER
 62
0
 10
1614.58560424784
 20
-918.69696649322
 30
0.0
 11
-6
 21
7.34763812293426E-16
 31
0.0
210
0.0
220
0.0
230
1.0
 40
0.866025403784448
 41
4.71238898038469
 42
6.28318530717959
  0
LINE
  5
69C
100
AcDbEntity
  8
0
100
AcDbLine
  6
BYLAYER
 62
0
 10
1561.33560424784
 20
-844.040059417877
 11
1561.33560424784
 21
-929.040059417877
  0
ARC
  5
69D
100
AcDbEntity
  8
0
100
AcDbCircle
  6
BYLAYER
 62
0
 10
1565.83560424784
 20
-844.040059417877
 40
4.5
100
AcDbArc
 50
90
 51
180
  0
ARC
  5
69E
100
AcDbEntity
  8
0
100
AcDbCircle
  6
BYLAYER
 62
0
 10
1565.83560424784
 20
-929.040059417877
 40
4.5
100
AcDbArc
 50
180
 51
270
  0
LINE
  5
69F
100
AcDbEntity
  8
0
100
AcDbLine
  6
BYLAYER
 62
0
 10
1565.83560424784
 20
-839.540059417877
 11
1572.74055417493
 21
-827.928786167093
  0
LINE
  5
6A0
100
AcDbEntity
  8
0
100
AcDbLine
  6
BYLAYER
 62
0
 10
1565.83560424784
 20
-933.540059417877
 11
1572.74055417493
 21
-945.15133266866
  0
ARC
  5
6A1
100
AcDbEntity
  8
0
100
AcDbCircle
  6
BYLAYER
 62
0
 10
1581.33560424784
 20
-833.040059417877
 40
10
100
AcDbArc
 50
90
 51
149.261050488682
  0
ARC
  5
6A2
100
AcDbEntity
  8
0
100
AcDbCircle
  6
BYLAYER
 62
0
 10
1581.33560424784
 20
-940.040059417877
 40
10
100
AcDbArc
 50
210.738949511318
 51
270
  0
LINE
  5
6A3
100
AcDbEntity
  8
0
100
AcDbLine
  6
BYLAYER
 62
0
 10
1708.33560424784
 20
-834.763324825686
 11
1633.33560424784
 21
-834.763324825686
  0
LINE
  5
6A4
100
AcDbEntity
  8
0
100
AcDbLine
  6
BYLAYER
 62
0
 10
1708.33560424784
 20
-833.669450079796
 11
1633.33560424784
 21
-833.669450079796
  0
LINE
  5
6A5
100
AcDbEntity
  8
0
100
AcDbLine
  6
BYLAYER
 62
0
 10
1703.33560424784
 20
-832.453268084613
 11
1638.33560424784
 21
-832.453268084613
  0
LINE
  5
6A6
100
AcDbEntity
  8
0
100
AcDbLine
  6
BYLAYER
 62
0
 10
1698.33560424784
 20
-791.340059417877
 11
1643.33560424784
 21
-791.340059417877
  0
LINE
  5
6A7
100
AcDbEntity
  8
0
100
AcDbLine
  6
BYLAYER
 62
0
 10
1621.33560424784
 20
-943.140059417877
 11
1737.33560424784
 21
-943.140059417877
  0
ELLIPSE
  5
6A8
100
AcDbEntity
  8
0
100
AcDbEllipse
  6
BYLAYER
 62
0
 10
1614.58560424784
 20
-918.69696649322
 30
0.0
 11
-6
 21
7.34763812293426E-16
 31
0.0
210
0.0
220
0.0
230
1.0
 40
0.866025403784448
 41
1.68325724007081
 42
4.71238898038469
  0
ELLIPSE
  5
6A9
100
AcDbEntity
  8
0
100
AcDbEllipse
  6
BYLAYER
 62
0
 10
1614.58560424784
 20
-918.19696649322
 30
0.0
 11
-6
 21
7.34763812293426E-16
 31
0.0
210
0.0
220
0.0
230
1.0
 40
0.866025403784446
 41
3.14159265358979
 42
4.71238898038469
  0
LINE
  5
6AA
100
AcDbEntity
  8
0
100
AcDbLine
  6
BYLAYER
 62
0
 10
1615.33560424784
 20
-918.19696649322
 11
1615.33560424784
 21
-919.047447440381
  0
LINE
  5
6AB
100
AcDbEntity
  8
0
100
AcDbLine
  6
BYLAYER
 62
0
 10
1618.58560424784
 20
-916.644161139924
 11
1618.58560424784
 21
-922.19696649322
  0
LINE
  5
6AC
100
AcDbEntity
  8
0
100
AcDbLine
  6
BYLAYER
 62
0
 10
1616.08560424784
 20
-919.547447440381
 11
1616.08560424784
 21
-920.846485546058
  0
ARC
  5
6AD
100
AcDbEntity
  8
0
100
AcDbCircle
  6
BYLAYER
 62
0
 10
1615.83560424784
 20
-919.047447440381
 40
0.5
100
AcDbArc
 50
180
 51
270
  0
ARC
  5
6AE
100
AcDbEntity
  8
0
100
AcDbCircle
  6
BYLAYER
 62
0
 10
1615.83560424784
 20
-921.346485546058
 40
0.5
100
AcDbArc
 50
90
 51
180
  0
LINE
  5
6AF
100
AcDbEntity
  8
0
100
AcDbLine
  6
BYLAYER
 62
0
 10
1615.33560424784
 20
-921.346485546058
 11
1615.33560424784
 21
-922.19696649322
  0
LINE
  5
6B0
100
AcDbEntity
  8
0
100
AcDbLine
  6
BYLAYER
 62
0
 10
1614.58560424784
 20
-922.19696649322
 11
1615.33560424784
 21
-922.19696649322
  0
LINE
  5
6B1
100
AcDbEntity
  8
0
100
AcDbLine
  6
BYLAYER
 62
0
 10
1614.58560424784
 20
-924.19696649322
 11
1618.58560424784
 21
-922.19696649322
  0
LINE
  5
6B2
100
AcDbEntity
  8
0
100
AcDbLine
  6
BYLAYER
 62
0
 10
1618.58560424784
 20
-920.846485546058
 11
1615.83560424784
 21
-920.846485546058
  0
LINE
  5
6B3
100
AcDbEntity
  8
0
100
AcDbLine
  6
BYLAYER
 62
0
 10
1618.58560424784
 20
-919.547447440381
 11
1615.83560424784
 21
-919.547447440381
  0
LINE
  5
6B4
100
AcDbEntity
  8
0
100
AcDbLine
  6
BYLAYER
 62
0
 10
1615.33560424784
 20
-918.19696649322
 11
1614.58560424784
 21
-918.19696649322
  0
LINE
  5
6B5
100
AcDbEntity
  8
0
100
AcDbLine
  6
BYLAYER
 62
0
 10
1614.58560424784
 20
-916.19696649322
 11
1618.58497139692
 21
-918.19696649322
  0
LINE
  5
6B6
100
AcDbEntity
  8
0
100
AcDbLine
  6
BYLAYER
 62
0
 10
1614.58560424784
 20
-914.69696649322
 11
1618.58560424784
 21
-916.644161139924
  0
ELLIPSE
  5
6B7
100
AcDbEntity
  8
0
100
AcDbEllipse
  6
BYLAYER
 62
0
 10
1614.58560424784
 20
-918.69696649322
 30
0.0
 11
6
 21
0
 31
0.0
210
0.0
220
0.0
230
1.0
 40
0.866025403784448
 41
0
 42
1.5707963267949
  0
LINE
  5
6B8
100
AcDbEntity
  8
0
100
AcDbLine
  6
BYLAYER
 62
0
 10
1857.73560424784
 20
-736.491284806824
 11
1771.33560424784
 21
-736.491284806824
  0
LINE
  5
6B9
100
AcDbEntity
  8
0
100
AcDbLine
  6
BYLAYER
 62
0
 10
1868.53560424784
 20
-762.540059417876
 11
1868.53560424784
 21
-987.673254699184
  0
LINE
  5
6BA
100
AcDbEntity
  8
0
100
AcDbLine
  6
BYLAYER
 62
0
 10
1565.83560424784
 20
-839.540059417877
 11
1565.83560424784
 21
-933.540059417877
  0
LINE
  5
6BB
100
AcDbEntity
  8
0
100
AcDbLine
  6
BYLAYER
 62
0
 10
1761.33560424784
 20
-761.540059417876
 11
1763.33560424784
 21
-761.540059417876
  0
LINE
  5
6BC
100
AcDbEntity
  8
0
100
AcDbLine
  6
BYLAYER
 62
0
 10
1761.33560424784
 20
-807.593212087986
 11
1761.33560424784
 21
-761.540059417876
  0
LINE
  5
6BD
100
AcDbEntity
  8
DIM
100
AcDbLine
  6
BYLAYER
 62
0
370
  -2
 10
1563.33560424784
 20
-1131.75880941788
 11
1563.33560424784
 21
-1185.10987453804
  0
LINE
  5
6BE
100
AcDbEntity
  8
DIM
100
AcDbLine
  6
BYLAYER
 62
0
370
  -2
 10
1763.33560424784
 20
-1131.75880941788
 11
1763.33560424784
 21
-1185.10987453804
  0
LINE
  5
6BF
100
AcDbEntity
  8
DIM
100
AcDbLine
  6
BYLAYER
 62
0
370
  -2
 10
1575.58560424784
 20
-1184.47987453804
 11
1625.83693269794
 21
-1184.47987453804
  0
LINE
  5
6C0
100
AcDbEntity
  8
DIM
100
AcDbLine
  6
BYLAYER
 62
0
370
  -2
 10
1751.08560424784
 20
-1184.47987453804
 11
1687.67026603127
 21
-1184.47987453804
  0
SOLID
  5
6C1
100
AcDbEntity
  8
DIM
100
AcDbTrace
 10
1563.33560424784
 20
-1184.47987453804
 30
0.0
 11
1575.58560424784
 21
-1186.52154120471
 31
0.0
 12
1575.58560424784
 22
-1182.43820787137
 32
0.0
 13
1575.58560424784
 23
-1182.43820787137
 33
0.0
  0
SOLID
  5
6C2
100
AcDbEntity
  8
DIM
100
AcDbTrace
 10
1751.08560424784
 20
-1182.43820787137
 30
0.0
 11
1751.08560424784
 21
-1186.52154120471
 31
0.0
 12
1763.33560424784
 22
-1184.47987453804
 32
0.0
 13
1763.33560424784
 23
-1184.47987453804
 33
0.0
  0
TEXT
  5
6C3
100
AcDbEntity
  8
DIM
 62
0
100
AcDbText
  6
BYLAYER
 62
0
 10
1643.62859936461
 20
-1193.22987453804
 40
17.5
  1
200
  7
Font_0
 72
1
 11
1656.75359936461
 21
-1184.47987453804
100
AcDbText
 73
2
  0
LINE
  5
6C4
100
AcDbEntity
  8
DIM
100
AcDbLine
  6
BYLAYER
 62
0
370
  -2
 10
1763.33560424784
 20
-735.072534806824
 11
1763.33560424784
 21
-690.494303418114
  0
LINE
  5
6C5
100
AcDbEntity
  8
DIM
100
AcDbLine
  6
BYLAYER
 62
0
370
  -2
 10
1865.73560424784
 20
-735.072534806824
 11
1865.73560424784
 21
-690.494303418114
  0
LINE
  5
6C6
100
AcDbEntity
  8
DIM
100
AcDbLine
  6
BYLAYER
 62
0
370
  -2
 10
1751.08560424784
 20
-691.124303418114
 11
1738.83560424784
 21
-691.124303418114
  0
LINE
  5
6C7
100
AcDbEntity
  8
DIM
100
AcDbLine
  6
BYLAYER
 62
0
370
  -2
 10
1877.98560424784
 20
-691.124303418114
 11
1890.23560424784
 21
-691.124303418114
  0
SOLID
  5
6C8
100
AcDbEntity
  8
DIM
100
AcDbTrace
 10
1751.08560424784
 20
-689.082636751448
 30
0.0
 11
1751.08560424784
 21
-693.165970084781
 31
0.0
 12
1763.33560424784
 22
-691.124303418114
 32
0.0
 13
1763.33560424784
 23
-691.124303418114
 33
0.0
  0
SOLID
  5
6C9
100
AcDbEntity
  8
DIM
100
AcDbTrace
 10
1865.73560424784
 20
-691.124303418114
 30
0.0
 11
1877.98560424784
 21
-693.165970084781
 31
0.0
 12
1877.98560424784
 22
-689.082636751448
 32
0.0
 13
1877.98560424784
 23
-689.082636751448
 33
0.0
  0
TEXT
  5
6CA
100
AcDbEntity
  8
DIM
 62
0
100
AcDbText
  6
BYLAYER
 62
0
 10
1801.41060424784
 20
-699.874303418114
 40
17.5
  1
103
  7
Font_0
 72
1
 11
1814.53560424784
 21
-691.124303418114
100
AcDbText
 73
2
  0
LINE
  5
6CB
100
AcDbEntity
  8
DIM
100
AcDbLine
  6
BYLAYER
 62
0
370
  -2
 10
1865.73560424784
 20
-735.072534806824
 11
1865.73560424784
 21
-712.188190667501
  0
LINE
  5
6CC
100
AcDbEntity
  8
DIM
100
AcDbLine
  6
BYLAYER
 62
0
370
  -2
 10
1908.53560424784
 20
-785.821309417877
 11
1908.53560424784
 21
-712.188190667501
  0
LINE
  5
6CD
100
AcDbEntity
  8
DIM
100
AcDbLine
  6
BYLAYER
 62
0
370
  -2
 10
1853.48560424784
 20
-712.818190667501
 11
1841.23560424784
 21
-712.818190667501
  0
LINE
  5
6CE
100
AcDbEntity
  8
DIM
100
AcDbLine
  6
BYLAYER
 62
0
370
  -2
 10
1920.78560424784
 20
-712.818190667501
 11
1933.03560424784
 21
-712.818190667501
  0
SOLID
  5
6CF
100
AcDbEntity
  8
DIM
100
AcDbTrace
 10
1853.48560424784
 20
-710.776524000835
 30
0.0
 11
1853.48560424784
 21
-714.859857334168
 31
0.0
 12
1865.73560424784
 22
-712.818190667501
 32
0.0
 13
1865.73560424784
 23
-712.818190667501
 33
0.0
  0
SOLID
  5
6D0
100
AcDbEntity
  8
DIM
100
AcDbTrace
 10
1908.53560424784
 20
-712.818190667501
 30
0.0
 11
1920.78560424784
 21
-714.859857334168
 31
0.0
 12
1920.78560424784
 22
-710.776524000835
 32
0.0
 13
1920.78560424784
 23
-710.776524000835
 33
0.0
  0
TEXT
  5
6D1
100
AcDbEntity
  8
DIM
 62
0
100
AcDbText
  6
BYLAYER
 62
0
 10
1878.38560424784
 20
-721.568190667501
 40
17.5
  1
43
  7
Font_0
 72
1
 11
1887.13560424784
 21
-712.818190667501
100
AcDbText
 73
2
  0
LINE
  5
6D2
100
AcDbEntity
  8
DIM
100
AcDbLine
  6
BYLAYER
 62
0
370
  -2
 10
1763.33560424784
 20
-1131.75880941788
 11
1763.33560424784
 21
-1155.36796866674
  0
LINE
  5
6D3
100
AcDbEntity
  8
DIM
100
AcDbLine
  6
BYLAYER
 62
0
370
  -2
 10
1731.83560424784
 20
-1131.75880941788
 11
1731.83560424784
 21
-1155.36796866674
  0
LINE
  5
6D4
100
AcDbEntity
  8
DIM
100
AcDbLine
  6
BYLAYER
 62
0
370
  -2
 10
1719.58560424784
 20
-1154.73796866674
 11
1707.33560424784
 21
-1154.73796866674
  0
LINE
  5
6D5
100
AcDbEntity
  8
DIM
100
AcDbLine
  6
BYLAYER
 62
0
370
  -2
 10
1775.58560424784
 20
-1154.73796866674
 11
1787.83560424784
 21
-1154.73796866674
  0
SOLID
  5
6D6
100
AcDbEntity
  8
DIM
100
AcDbTrace
 10
1719.58560424784
 20
-1152.69630200008
 30
0.0
 11
1719.58560424784
 21
-1156.77963533341
 31
0.0
 12
1731.83560424784
 22
-1154.73796866674
 32
0.0
 13
1731.83560424784
 23
-1154.73796866674
 33
0.0
  0
SOLID
  5
6D7
100
AcDbEntity
  8
DIM
100
AcDbTrace
 10
1763.33560424784
 20
-1154.73796866674
 30
0.0
 11
1775.58560424784
 21
-1156.77963533341
 31
0.0
 12
1775.58560424784
 22
-1152.69630200008
 32
0.0
 13
1775.58560424784
 23
-1152.69630200008
 33
0.0
  0
TEXT
  5
6D8
100
AcDbEntity
  8
DIM
 62
0
100
AcDbText
  6
BYLAYER
 62
0
 10
1804.16893758117
 20
-1163.48796866674
 40
17.5
  1
31.5
  7
Font_0
 72
1
 11
1821.66893758117
 21
-1154.73796866674
100
AcDbText
 73
2
  0
LINE
  5
6D9
100
AcDbEntity
  8
DIM
100
AcDbLine
  6
BYLAYER
 62
0
370
  -2
 10
1731.83560424784
 20
-1131.75880941788
 11
1731.83560424784
 21
-1155.36796866674
  0
LINE
  5
6DA
100
AcDbEntity
  8
DIM
100
AcDbLine
  6
BYLAYER
 62
0
370
  -2
 10
1581.83560424784
 20
-1131.75880941788
 11
1581.83560424784
 21
-1155.36796866674
  0
LINE
  5
6DB
100
AcDbEntity
  8
DIM
100
AcDbLine
  6
BYLAYER
 62
0
370
  -2
 10
1719.58560424784
 20
-1154.73796866674
 11
1686.29393758117
 21
-1154.73796866674
  0
LINE
  5
6DC
100
AcDbEntity
  8
DIM
100
AcDbLine
  6
BYLAYER
 62
0
370
  -2
 10
1594.08560424784
 20
-1154.73796866674
 11
1627.37727091451
 21
-1154.73796866674
  0
SOLID
  5
6DD
100
AcDbEntity
  8
DIM
100
AcDbTrace
 10
1719.58560424784
 20
-1152.69630200008
 30
0.0
 11
1719.58560424784
 21
-1156.77963533341
 31
0.0
 12
1731.83560424784
 22
-1154.73796866674
 32
0.0
 13
1731.83560424784
 23
-1154.73796866674
 33
0.0
  0
SOLID
  5
6DE
100
AcDbEntity
  8
DIM
100
AcDbTrace
 10
1581.83560424784
 20
-1154.73796866674
 30
0.0
 11
1594.08560424784
 21
-1156.77963533341
 31
0.0
 12
1594.08560424784
 22
-1152.69630200008
 32
0.0
 13
1594.08560424784
 23
-1152.69630200008
 33
0.0
  0
TEXT
  5
6DF
100
AcDbEntity
  8
DIM
 62
0
100
AcDbText
  6
BYLAYER
 62
0
 10
1643.71060424784
 20
-1163.48796866674
 40
17.5
  1
150
  7
Font_0
 72
1
 11
1656.83560424784
 21
-1154.73796866674
100
AcDbText
 73
2
  0
CIRCLE
  5
6E0
100
AcDbEntity
  8
0
100
AcDbCircle
  6
BYLAYER
 62
0
 10
2147.89996092445
 20
-886.540059417876
 40
100.5
  0
LINE
  5
6E1
100
AcDbEntity
  8
DIM
100
AcDbLine
  6
BYLAYER
 62
0
370
  -2
 10
1908.53560424784
 20
-785.821309417877
 11
1908.53560424784
 21
-661.123513812002
  0
LINE
  5
6E2
100
AcDbEntity
  8
DIM
100
AcDbLine
  6
BYLAYER
 62
0
370
  -2
 10
1561.33560424784
 20
-843.821309417877
 11
1561.33560424784
 21
-661.123513812002
  0
LINE
  5
6E3
100
AcDbEntity
  8
DIM
100
AcDbLine
  6
BYLAYER
 62
0
370
  -2
 10
1896.28560424784
 20
-661.753513812002
 11
1768.76893758117
 21
-661.753513812002
  0
LINE
  5
6E4
100
AcDbEntity
  8
DIM
100
AcDbLine
  6
BYLAYER
 62
0
370
  -2
 10
1573.58560424784
 20
-661.753513812002
 11
1701.10227091451
 21
-661.753513812002
  0
SOLID
  5
6E5
100
AcDbEntity
  8
DIM
100
AcDbTrace
 10
1896.28560424784
 20
-659.711847145336
 30
0.0
 11
1896.28560424784
 21
-663.795180478669
 31
0.0
 12
1908.53560424784
 22
-661.753513812002
 32
0.0
 13
1908.53560424784
 23
-661.753513812002
 33
0.0
  0
SOLID
  5
6E6
100
AcDbEntity
  8
DIM
100
AcDbTrace
 10
1561.33560424784
 20
-661.753513812002
 30
0.0
 11
1573.58560424784
 21
-663.795180478669
 31
0.0
 12
1573.58560424784
 22
-659.711847145336
 32
0.0
 13
1573.58560424784
 23
-659.711847145336
 33
0.0
  0
TEXT
  5
6E7
100
AcDbEntity
  8
DIM
 62
0
100
AcDbText
  6
BYLAYER
 62
0
 10
1721.81060424784
 20
-670.503513812002
 40
17.5
  1
347
  7
Font_0
 72
1
 11
1734.93560424784
 21
-661.753513812002
100
AcDbText
 73
2
  0
LINE
  5
6E8
100
AcDbEntity
  8
DIM
100
AcDbLine
  6
BYLAYER
 62
0
370
  -2
 10
1908.75435424784
 20
-786.040059417877
 11
1926.93458668945
 21
-786.040059417877
  0
LINE
  5
6E9
100
AcDbEntity
  8
DIM
100
AcDbLine
  6
BYLAYER
 62
0
370
  -2
 10
1908.75435424784
 20
-987.040059417877
 11
1926.93458668945
 21
-987.040059417877
  0
LINE
  5
6EA
100
AcDbEntity
  8
DIM
100
AcDbLine
  6
BYLAYER
 62
0
370
  -2
 10
1926.30458668945
 20
-798.290059417877
 11
1926.30458668945
 21
-848.331726084543
  0
LINE
  5
6EB
100
AcDbEntity
  8
DIM
100
AcDbLine
  6
BYLAYER
 62
0
370
  -2
 10
1926.30458668945
 20
-974.790059417877
 11
1926.30458668945
 21
-924.74839275121
  0
SOLID
  5
6EC
100
AcDbEntity
  8
DIM
100
AcDbTrace
 10
1924.26292002278
 20
-798.290059417877
 30
0.0
 11
1928.34625335611
 21
-798.290059417877
 31
0.0
 12
1926.30458668945
 22
-786.040059417877
 32
0.0
 13
1926.30458668945
 23
-786.040059417877
 33
0.0
  0
SOLID
  5
6ED
100
AcDbEntity
  8
DIM
100
AcDbTrace
 10
1926.30458668945
 20
-987.040059417877
 30
0.0
 11
1928.34625335611
 21
-974.790059417877
 31
0.0
 12
1924.26292002278
 22
-974.790059417877
 32
0.0
 13
1924.26292002278
 23
-974.790059417877
 33
0.0
  0
TEXT
  5
6EE
100
AcDbEntity
  8
DIM
 62
0
100
AcDbText
  6
BYLAYER
 62
0
 10
1935.05458668945
 20
-908.415059417876
 40
17.5
  1
Φ201
  7
Font_0
 50
90
 72
1
 11
1926.30458668945
 21
-886.540059417876
100
AcDbText
 73
2
  0
LINE
  5
6EF
100
AcDbEntity
  8
DIM
100
AcDbLine
  6
BYLAYER
 62
0
370
  -2
 10
1969.89996092445
 20
-964.721309417876
 11
1969.89996092445
 21
-690.494303418114
  0
LINE
  5
6F0
100
AcDbEntity
  8
DIM
100
AcDbLine
  6
BYLAYER
 62
0
370
  -2
 10
2000.89996092445
 20
-969.721309417877
 11
2000.89996092445
 21
-690.494303418114
  0
LINE
  5
6F1
100
AcDbEntity
  8
DIM
100
AcDbLine
  6
BYLAYER
 62
0
370
  -2
 10
1957.64996092445
 20
-691.124303418114
 11
1945.39996092445
 21
-691.124303418114
  0
LINE
  5
6F2
100
AcDbEntity
  8
DIM
100
AcDbLine
  6
BYLAYER
 62
0
370
  -2
 10
2013.14996092445
 20
-691.124303418114
 11
2025.39996092445
 21
-691.124303418114
  0
SOLID
  5
6F3
100
AcDbEntity
  8
DIM
100
AcDbTrace
 10
1957.64996092445
 20
-689.082636751448
 30
0.0
 11
1957.64996092445
 21
-693.165970084781
 31
0.0
 12
1969.89996092445
 22
-691.124303418114
 32
0.0
 13
1969.89996092445
 23
-691.124303418114
 33
0.0
  0
SOLID
  5
6F4
100
AcDbEntity
  8
DIM
100
AcDbTrace
 10
2000.89996092445
 20
-691.124303418114
 30
0.0
 11
2013.14996092445
 21
-693.165970084781
 31
0.0
 12
2013.14996092445
 22
-689.082636751448
 32
0.0
 13
2013.14996092445
 23
-689.082636751448
 33
0.0
  0
TEXT
  5
6F5
100
AcDbEntity
  8
DIM
 62
0
100
AcDbText
  6
BYLAYER
 62
0
 10
1976.64996092445
 20
-699.874303418114
 40
17.5
  1
31
  7
Font_0
 72
1
 11
1985.39996092445
 21
-691.124303418114
100
AcDbText
 73
2
  0
LINE
  5
6F6
100
AcDbEntity
  8
DIM
100
AcDbLine
  6
BYLAYER
 62
0
370
  -2
 10
2000.89996092445
 20
-969.721309417877
 11
2000.89996092445
 21
-690.494303418114
  0
LINE
  5
6F7
100
AcDbEntity
  8
DIM
100
AcDbLine
  6
BYLAYER
 62
0
370
  -2
 10
2147.89996092445
 20
-735.224203214698
 11
2147.89996092445
 21
-690.494303418114
  0
LINE
  5
6F8
100
AcDbEntity
  8
DIM
100
AcDbLine
  6
BYLAYER
 62
0
370
  -2
 10
2013.14996092445
 20
-691.124303418114
 11
2043.48329425779
 21
-691.124303418114
  0
LINE
  5
6F9
100
AcDbEntity
  8
DIM
100
AcDbLine
  6
BYLAYER
 62
0
370
  -2
 10
2135.64996092445
 20
-691.124303418114
 11
2105.31662759112
 21
-691.124303418114
  0
SOLID
  5
6FA
100
AcDbEntity
  8
DIM
100
AcDbTrace
 10
2000.89996092445
 20
-691.124303418114
 30
0.0
 11
2013.14996092445
 21
-693.165970084781
 31
0.0
 12
2013.14996092445
 22
-689.082636751448
 32
0.0
 13
2013.14996092445
 23
-689.082636751448
 33
0.0
  0
SOLID
  5
6FB
100
AcDbEntity
  8
DIM
100
AcDbTrace
 10
2135.64996092445
 20
-689.082636751448
 30
0.0
 11
2135.64996092445
 21
-693.165970084781
 31
0.0
 12
2147.89996092445
 22
-691.124303418114
 32
0.0
 13
2147.89996092445
 23
-691.124303418114
 33
0.0
  0
TEXT
  5
6FC
100
AcDbEntity
  8
DIM
 62
0
100
AcDbText
  6
BYLAYER
 62
0
 10
2061.27496092445
 20
-699.874303418114
 40
17.5
  1
147
  7
Font_0
 72
1
 11
2074.39996092445
 21
-691.124303418114
100
AcDbText
 73
2
  0
LINE
  5
6FD
100
AcDbEntity
  8
DIM
100
AcDbLine
  6
BYLAYER
 62
0
370
  -2
 10
2147.89996092445
 20
-735.224203214698
 11
2147.89996092445
 21
-690.494303418114
  0
LINE
  5
6FE
100
AcDbEntity
  8
DIM
100
AcDbLine
  6
BYLAYER
 62
0
370
  -2
 10
2327.09034746472
 20
-894.069187600202
 11
2327.09034746472
 21
-690.494303418114
  0
LINE
  5
6FF
100
AcDbEntity
  8
DIM
100
AcDbLine
  6
BYLAYER
 62
0
370
  -2
 10
2160.14996092445
 20
-691.124303418114
 11
2206.57848752792
 21
-691.124303418114
  0
LINE
  5
700
100
AcDbEntity
  8
DIM
100
AcDbLine
  6
BYLAYER
 62
0
370
  -2
 10
2314.84034746472
 20
-691.124303418114
 11
2268.41182086125
 21
-691.124303418114
  0
SOLID
  5
701
100
AcDbEntity
  8
DIM
100
AcDbTrace
 10
2147.89996092445
 20
-691.124303418114
 30
0.0
 11
2160.14996092445
 21
-693.165970084781
 31
0.0
 12
2160.14996092445
 22
-689.082636751448
 32
0.0
 13
2160.14996092445
 23
-689.082636751448
 33
0.0
  0
SOLID
  5
702
100
AcDbEntity
  8
DIM
100
AcDbTrace
 10
2314.84034746472
 20
-689.082636751448
 30
0.0
 11
2314.84034746472
 21
-693.165970084781
 31
0.0
 12
2327.09034746472
 22
-691.124303418114
 32
0.0
 13
2327.09034746472
 23
-691.124303418114
 33
0.0
  0
TEXT
  5
703
100
AcDbEntity
  8
DIM
 62
0
100
AcDbText
  6
BYLAYER
 62
0
 10
2224.37015419459
 20
-699.874303418114
 40
17.5
  1
179
  7
Font_0
 72
1
 11
2237.49515419459
 21
-691.124303418114
100
AcDbText
 73
2
  0
LINE
  5
704
100
AcDbEntity
  8
DIM
100
AcDbLine
  6
BYLAYER
 62
0
370
  -2
 10
2327.09034746472
 20
-894.069187600202
 11
2327.09034746472
 21
-660.493513812002
  0
LINE
  5
705
100
AcDbEntity
  8
DIM
100
AcDbLine
  6
BYLAYER
 62
0
370
  -2
 10
1969.89996092445
 20
-964.721309417876
 11
1969.89996092445
 21
-660.493513812002
  0
LINE
  5
706
100
AcDbEntity
  8
DIM
100
AcDbLine
  6
BYLAYER
 62
0
370
  -2
 10
2314.84034746472
 20
-661.123513812002
 11
2182.32848752792
 21
-661.123513812002
  0
LINE
  5
707
100
AcDbEntity
  8
DIM
100
AcDbLine
  6
BYLAYER
 62
0
370
  -2
 10
1982.14996092445
 20
-661.123513812002
 11
2114.66182086125
 21
-661.123513812002
  0
SOLID
  5
708
100
AcDbEntity
  8
DIM
100
AcDbTrace
 10
2314.84034746472
 20
-659.081847145335
 30
0.0
 11
2314.84034746472
 21
-663.165180478669
 31
0.0
 12
2327.09034746472
 22
-661.123513812002
 32
0.0
 13
2327.09034746472
 23
-661.123513812002
 33
0.0
  0
SOLID
  5
709
100
AcDbEntity
  8
DIM
100
AcDbTrace
 10
1969.89996092445
 20
-661.123513812002
 30
0.0
 11
1982.14996092445
 21
-663.165180478669
 31
0.0
 12
1982.14996092445
 22
-659.081847145335
 32
0.0
 13
1982.14996092445
 23
-659.081847145335
 33
0.0
  0
TEXT
  5
70A
100
AcDbEntity
  8
DIM
 62
0
100
AcDbText
  6
BYLAYER
 62
0
 10
2135.37015419459
 20
-669.873513812002
 40
17.5
  1
357
  7
Font_0
 72
1
 11
2148.49515419459
 21
-661.123513812002
100
AcDbText
 73
2
  0
LINE
  5
70B
100
AcDbEntity
  8
DIM
100
AcDbLine
  6
BYLAYER
 62
0
370
  -2
 10
1969.68121092445
 20
-964.940059417877
 11
1949.61342235958
 21
-964.940059417877
  0
LINE
  5
70C
100
AcDbEntity
  8
DIM
100
AcDbLine
  6
BYLAYER
 62
0
370
  -2
 10
1969.68121092445
 20
-1114.94005941788
 11
1949.61342235958
 21
-1114.94005941788
  0
LINE
  5
70D
100
AcDbEntity
  8
DIM
100
AcDbLine
  6
BYLAYER
 62
0
370
  -2
 10
1950.24342235958
 20
-977.190059417876
 11
1950.24342235958
 21
-1001.73172608454
  0
LINE
  5
70E
100
AcDbEntity
  8
DIM
100
AcDbLine
  6
BYLAYER
 62
0
370
  -2
 10
1950.24342235958
 20
-1102.69005941788
 11
1950.24342235958
 21
-1078.14839275121
  0
SOLID
  5
70F
100
AcDbEntity
  8
DIM
100
AcDbTrace
 10
1948.20175569291
 20
-977.190059417876
 30
0.0
 11
1952.28508902624
 21
-977.190059417876
 31
0.0
 12
1950.24342235958
 22
-964.940059417877
 32
0.0
 13
1950.24342235958
 23
-964.940059417877
 33
0.0
  0
SOLID
  5
710
100
AcDbEntity
  8
DIM
100
AcDbTrace
 10
1950.24342235958
 20
-1114.94005941788
 30
0.0
 11
1952.28508902624
 21
-1102.69005941788
 31
0.0
 12
1948.20175569291
 22
-1102.69005941788
 32
0.0
 13
1948.20175569291
 23
-1102.69005941788
 33
0.0
  0
TEXT
  5
711
100
AcDbEntity
  8
DIM
 62
0
100
AcDbText
  6
BYLAYER
 62
0
 10
1958.99342235958
 20
-1061.81505941788
 40
17.5
  1
Φ150
  7
Font_0
 50
90
 72
1
 11
1950.24342235958
 21
-1039.94005941788
100
AcDbText
 73
2
  0
LINE
  5
712
100
AcDbEntity
  8
DIM
100
AcDbLine
  6
BYLAYER
 62
0
370
  -2
 10
2165.97251519781
 20
-734.510034806824
 11
2349.10076159063
 21
-734.510034806824
  0
LINE
  5
713
100
AcDbEntity
  8
DIM
100
AcDbLine
  6
BYLAYER
 62
0
370
  -2
 10
2327.11970564855
 20
-886.505295894878
 11
2349.10076159063
 21
-886.505295894878
  0
LINE
  5
714
100
AcDbEntity
  8
DIM
100
AcDbLine
  6
BYLAYER
 62
0
370
  -2
 10
2348.47076159063
 20
-746.760034806824
 11
2348.47076159063
 21
-779.590998684184
  0
LINE
  5
715
100
AcDbEntity
  8
DIM
100
AcDbLine
  6
BYLAYER
 62
0
370
  -2
 10
2348.47076159063
 20
-874.255295894878
 11
2348.47076159063
 21
-841.424332017518
  0
SOLID
  5
716
100
AcDbEntity
  8
DIM
100
AcDbTrace
 10
2346.42909492396
 20
-746.760034806824
 30
0.0
 11
2350.51242825729
 21
-746.760034806824
 31
0.0
 12
2348.47076159063
 22
-734.510034806824
 32
0.0
 13
2348.47076159063
 23
-734.510034806824
 33
0.0
  0
SOLID
  5
717
100
AcDbEntity
  8
DIM
100
AcDbTrace
 10
2348.47076159063
 20
-886.505295894878
 30
0.0
 11
2350.51242825729
 21
-874.255295894878
 31
0.0
 12
2346.42909492396
 22
-874.255295894878
 32
0.0
 13
2346.42909492396
 23
-874.255295894878
 33
0.0
  0
TEXT
  5
718
100
AcDbEntity
  8
DIM
 62
0
100
AcDbText
  6
BYLAYER
 62
0
 10
2357.22076159063
 20
-823.632665350851
 40
17.5
  1
152
  7
Font_0
 50
90
 72
1
 11
2348.47076159063
 21
-810.507665350851
100
AcDbText
 73
2
  0
LINE
  5
719
100
AcDbEntity
  8
DIM
100
AcDbLine
  6
BYLAYER
 62
0
370
  -2
 10
2327.11970564855
 20
-886.505295894878
 11
2349.73076159063
 21
-886.505295894878
  0
LINE
  5
71A
100
AcDbEntity
  8
DIM
100
AcDbLine
  6
BYLAYER
 62
0
370
  -2
 10
2126.92193825948
 20
-1092.14006103502
 11
2349.73076159063
 21
-1092.14006103502
  0
LINE
  5
71B
100
AcDbEntity
  8
DIM
100
AcDbLine
  6
BYLAYER
 62
0
370
  -2
 10
2349.10076159063
 20
-898.755295894878
 11
2349.10076159063
 21
-956.947678464948
  0
LINE
  5
71C
100
AcDbEntity
  8
DIM
100
AcDbLine
  6
BYLAYER
 62
0
370
  -2
 10
2349.10076159063
 20
-1079.89006103502
 11
2349.10076159063
 21
-1021.69767846495
  0
SOLID
  5
71D
100
AcDbEntity
  8
DIM
100
AcDbTrace
 10
2347.05909492396
 20
-898.755295894878
 30
0.0
 11
2351.14242825729
 21
-898.755295894878
 31
0.0
 12
2349.10076159063
 22
-886.505295894878
 32
0.0
 13
2349.10076159063
 23
-886.505295894878
 33
0.0
  0
SOLID
  5
71E
100
AcDbEntity
  8
DIM
100
AcDbTrace
 10
2349.10076159063
 20
-1092.14006103502
 30
0.0
 11
2351.14242825729
 21
-1079.89006103502
 31
0.0
 12
2347.05909492396
 22
-1079.89006103502
 32
0.0
 13
2347.05909492396
 23
-1079.89006103502
 33
0.0
  0
TEXT
  5
71F
100
AcDbEntity
  8
DIM
 62
0
100
AcDbText
  6
BYLAYER
 62
0
 10
2357.85076159063
 20
-1002.44767846495
 40
17.5
  1
206
  7
Font_0
 50
90
 72
1
 11
2349.10076159063
 21
-989.322678464947
100
AcDbText
 73
2
  0
LINE
  5
720
100
AcDbEntity
  8
DIM
100
AcDbLine
  6
BYLAYER
 62
0
370
  -2
 10
2126.92193825948
 20
-1092.14006103502
 11
2349.73076159063
 21
-1092.14006103502
  0
LINE
  5
721
100
AcDbEntity
  8
DIM
100
AcDbLine
  6
BYLAYER
 62
0
370
  -2
 10
2277.11871092445
 20
-1131.54005941788
 11
2349.73076159063
 21
-1131.54005941788
  0
LINE
  5
722
100
AcDbEntity
  8
DIM
100
AcDbLine
  6
BYLAYER
 62
0
370
  -2
 10
2349.10076159063
 20
-1079.89006103502
 11
2349.10076159063
 21
-1067.64006103502
  0
LINE
  5
723
100
AcDbEntity
  8
DIM
100
AcDbLine
  6
BYLAYER
 62
0
370
  -2
 10
2349.10076159063
 20
-1143.79005941788
 11
2349.10076159063
 21
-1156.04005941788
  0
SOLID
  5
724
100
AcDbEntity
  8
DIM
100
AcDbTrace
 10
2349.10076159063
 20
-1092.14006103502
 30
0.0
 11
2351.14242825729
 21
-1079.89006103502
 31
0.0
 12
2347.05909492396
 22
-1079.89006103502
 32
0.0
 13
2347.05909492396
 23
-1079.89006103502
 33
0.0
  0
SOLID
  5
725
100
AcDbEntity
  8
DIM
100
AcDbTrace
 10
2347.05909492396
 20
-1143.79005941788
 30
0.0
 11
2351.14242825729
 21
-1143.79005941788
 31
0.0
 12
2349.10076159063
 22
-1131.54005941788
 32
0.0
 13
2349.10076159063
 23
-1131.54005941788
 33
0.0
  0
TEXT
  5
726
100
AcDbEntity
  8
DIM
 62
0
100
AcDbText
  6
BYLAYER
 62
0
 10
2357.85076159063
 20
-1120.59006022645
 40
17.5
  1
39
  7
Font_0
 50
90
 72
1
 11
2349.10076159063
 21
-1111.84006022645
100
AcDbText
 73
2
  0
LINE
  5
727
100
AcDbEntity
  8
DIM
100
AcDbLine
  6
BYLAYER
 62
0
370
  -2
 10
2165.97251519781
 20
-734.510034806824
 11
2382.84838027998
 21
-734.510034806824
  0
LINE
  5
728
100
AcDbEntity
  8
DIM
100
AcDbLine
  6
BYLAYER
 62
0
370
  -2
 10
2277.11871092445
 20
-1131.54005941788
 11
2382.84838027998
 21
-1131.54005941788
  0
LINE
  5
729
100
AcDbEntity
  8
DIM
100
AcDbLine
  6
BYLAYER
 62
0
370
  -2
 10
2382.21838027998
 20
-746.760034806824
 11
2382.21838027998
 21
-899.191713779017
  0
LINE
  5
72A
100
AcDbEntity
  8
DIM
100
AcDbLine
  6
BYLAYER
 62
0
370
  -2
 10
2382.21838027998
 20
-1119.29005941788
 11
2382.21838027998
 21
-966.858380445684
  0
SOLID
  5
72B
100
AcDbEntity
  8
DIM
100
AcDbTrace
 10
2380.17671361332
 20
-746.760034806824
 30
0.0
 11
2384.26004694665
 21
-746.760034806824
 31
0.0
 12
2382.21838027998
 22
-734.510034806824
 32
0.0
 13
2382.21838027998
 23
-734.510034806824
 33
0.0
  0
SOLID
  5
72C
100
AcDbEntity
  8
DIM
100
AcDbTrace
 10
2382.21838027998
 20
-1131.54005941788
 30
0.0
 11
2384.26004694665
 21
-1119.29005941788
 31
0.0
 12
2380.17671361332
 22
-1119.29005941788
 32
0.0
 13
2380.17671361332
 23
-1119.29005941788
 33
0.0
  0
TEXT
  5
72D
100
AcDbEntity
  8
DIM
 62
0
100
AcDbText
  6
BYLAYER
 62
0
 10
2390.96838027998
 20
-946.15004711235
 40
17.5
  1
397
  7
Font_0
 50
90
 72
1
 11
2382.21838027998
 21
-933.02504711235
100
AcDbText
 73
2
  0
LINE
  5
72E
100
AcDbEntity
  8
DIM
100
AcDbLine
  6
BYLAYER
 62
0
370
  -2
 10
2276.89996092445
 20
-1131.75880941788
 11
2276.89996092445
 21
-1185.10987453804
  0
LINE
  5
72F
100
AcDbEntity
  8
DIM
100
AcDbLine
  6
BYLAYER
 62
0
370
  -2
 10
2018.89996092445
 20
-1131.75880941788
 11
2018.89996092445
 21
-1185.10987453804
  0
LINE
  5
730
100
AcDbEntity
  8
DIM
100
AcDbLine
  6
BYLAYER
 62
0
370
  -2
 10
2264.64996092445
 20
-1184.47987453804
 11
2181.73329425779
 21
-1184.47987453804
  0
LINE
  5
731
100
AcDbEntity
  8
DIM
100
AcDbLine
  6
BYLAYER
 62
0
370
  -2
 10
2031.14996092445
 20
-1184.47987453804
 11
2114.06662759112
 21
-1184.47987453804
  0
SOLID
  5
732
100
AcDbEntity
  8
DIM
100
AcDbTrace
 10
2264.64996092445
 20
-1182.43820787137
 30
0.0
 11
2264.64996092445
 21
-1186.52154120471
 31
0.0
 12
2276.89996092445
 22
-1184.47987453804
 32
0.0
 13
2276.89996092445
 23
-1184.47987453804
 33
0.0
  0
SOLID
  5
733
100
AcDbEntity
  8
DIM
100
AcDbTrace
 10
2018.89996092445
 20
-1184.47987453804
 30
0.0
 11
2031.14996092445
 21
-1186.52154120471
 31
0.0
 12
2031.14996092445
 22
-1182.43820787137
 32
0.0
 13
2031.14996092445
 23
-1182.43820787137
 33
0.0
  0
TEXT
  5
734
100
AcDbEntity
  8
DIM
 62
0
100
AcDbText
  6
BYLAYER
 62
0
 10
2134.77496092445
 20
-1193.22987453804
 40
17.5
  1
258
  7
Font_0
 72
1
 11
2147.89996092445
 21
-1184.47987453804
100
AcDbText
 73
2
  0
LINE
  5
735
100
AcDbEntity
  8
DIM
100
AcDbLine
  6
BYLAYER
 62
0
370
  -2
 10
2047.89996092445
 20
-1131.75880941788
 11
2047.89996092445
 21
-1152.71524558464
  0
LINE
  5
736
100
AcDbEntity
  8
DIM
100
AcDbLine
  6
BYLAYER
 62
0
370
  -2
 10
2247.89996092445
 20
-1131.75880941788
 11
2247.89996092445
 21
-1152.71524558464
  0
LINE
  5
737
100
AcDbEntity
  8
DIM
100
AcDbLine
  6
BYLAYER
 62
0
370
  -2
 10
2060.14996092445
 20
-1152.08524558464
 11
2116.98329425779
 21
-1152.08524558464
  0
LINE
  5
738
100
AcDbEntity
  8
DIM
100
AcDbLine
  6
BYLAYER
 62
0
370
  -2
 10
2235.64996092445
 20
-1152.08524558464
 11
2178.81662759112
 21
-1152.08524558464
  0
SOLID
  5
739
100
AcDbEntity
  8
DIM
100
AcDbTrace
 10
2047.89996092445
 20
-1152.08524558464
 30
0.0
 11
2060.14996092445
 21
-1154.12691225131
 31
0.0
 12
2060.14996092445
 22
-1150.04357891798
 32
0.0
 13
2060.14996092445
 23
-1150.04357891798
 33
0.0
  0
SOLID
  5
73A
100
AcDbEntity
  8
DIM
100
AcDbTrace
 10
2235.64996092445
 20
-1150.04357891798
 30
0.0
 11
2235.64996092445
 21
-1154.12691225131
 31
0.0
 12
2247.89996092445
 22
-1152.08524558464
 32
0.0
 13
2247.89996092445
 23
-1152.08524558464
 33
0.0
  0
TEXT
  5
73B
100
AcDbEntity
  8
DIM
 62
0
100
AcDbText
  6
BYLAYER
 62
0
 10
2134.77496092445
 20
-1160.83524558464
 40
17.5
  1
200
  7
Font_0
 72
1
 11
2147.89996092445
 21
-1152.08524558464
100
AcDbText
 73
2
  0
LINE
  5
73C
100
AcDbEntity
  8
DIM
100
AcDbLine
  6
BYLAYER
 62
0
370
  -2
 10
2084.6825100549
 20
-1035.63690094808
 11
2096.9325100549
 21
-1035.63690094808
  0
LINE
  5
73D
100
AcDbEntity
  8
DIM
100
AcDbLine
  6
BYLAYER
 62
0
370
  -2
 10
2096.9325100549
 20
-1035.63690094808
 11
2111.42939202372
 21
-993.228672231319
  0
TEXT
  5
73E
100
AcDbEntity
  8
DIM
 62
0
100
AcDbText
  6
BYLAYER
 62
0
 10
2024.59917672157
 20
-1044.38690094808
 40
17.5
  1
φ201
  7
Font_0
 72
1
 11
2046.47417672157
 21
-1035.63690094808
100
AcDbText
 73
2
  0
SOLID
  5
73F
100
AcDbEntity
  8
DIM
100
AcDbTrace
 10
2109.49748440071
 20
-992.568266512126
 30
0.0
 11
2113.36129964673
 21
-993.889077950512
 31
0.0
 12
2115.39182633887
 22
-981.637226493273
 32
0.0
 13
2115.39182633887
 23
-981.637226493273
 33
0.0
  0
LINE
  5
740
100
AcDbEntity
  8
DIM
100
AcDbLine
  6
BYLAYER
 62
0
370
  -2
 10
2147.58496092445
 20
-886.540059417876
 11
2148.21496092445
 21
-886.540059417876
  0
LINE
  5
741
100
AcDbEntity
  8
DIM
100
AcDbLine
  6
BYLAYER
 62
0
370
  -2
 10
2147.89996092445
 20
-886.855059417877
 11
2147.89996092445
 21
-886.225059417877
  0
LINE
  5
742
100
AcDbEntity
  8
BASE
100
AcDbLine
  6
BYLAYER
 10
2022.89996092445
 20
-1546.14730157729
 11
2272.89996092445
 21
-1546.14730157729
  0
LINE
  5
743
100
AcDbEntity
  8
BASE
100
AcDbLine
  6
BYLAYER
 10
2043.64996092445
 20
-1375.14730157729
 11
2043.64996092445
 21
-1380.14730157729
  0
LINE
  5
744
100
AcDbEntity
  8
BASE
100
AcDbLine
  6
BYLAYER
 10
2052.14996092445
 20
-1375.14730157729
 11
2052.14996092445
 21
-1380.14730157729
  0
LINE
  5
745
100
AcDbEntity
  8
BASE
100
AcDbLine
  6
BYLAYER
 10
2243.64996092445
 20
-1375.14730157729
 11
2243.64996092445
 21
-1380.14730157729
  0
ARC
  5
746
100
AcDbEntity
  8
BASE
100
AcDbCircle
  6
BYLAYER
 10
2047.89996092445
 20
-1375.14730157729
 40
4.25
100
AcDbArc
 50
0
 51
180
  0
ARC
  5
747
100
AcDbEntity
  8
BASE
100
AcDbCircle
  6
BYLAYER
 10
2047.89996092445
 20
-1380.14730157729
 40
4.25
100
AcDbArc
 50
180
 51
0
  0
ARC
  5
748
100
AcDbEntity
  8
BASE
100
AcDbCircle
  6
BYLAYER
 10
2047.89996092445
 20
-1525.14730157729
 40
4.25
100
AcDbArc
 50
0
 51
180
  0
ARC
  5
749
100
AcDbEntity
  8
BASE
100
AcDbCircle
  6
BYLAYER
 10
2047.89996092445
 20
-1530.14730157729
 40
4.25
100
AcDbArc
 50
180
 51
0
  0
ARC
  5
74A
100
AcDbEntity
  8
BASE
100
AcDbCircle
  6
BYLAYER
 10
2247.89996092445
 20
-1530.14730157729
 40
4.25
100
AcDbArc
 50
180
 51
0
  0
ARC
  5
74B
100
AcDbEntity
  8
BASE
100
AcDbCircle
  6
BYLAYER
 10
2247.89996092445
 20
-1525.14730157729
 40
4.25
100
AcDbArc
 50
0
 51
180
  0
ARC
  5
74C
100
AcDbEntity
  8
BASE
100
AcDbCircle
  6
BYLAYER
 10
2247.89996092445
 20
-1380.14730157729
 40
4.25
100
AcDbArc
 50
180
 51
0
  0
ARC
  5
74D
100
AcDbEntity
  8
BASE
100
AcDbCircle
  6
BYLAYER
 10
2247.89996092445
 20
-1375.14730157729
 40
4.25
100
AcDbArc
 50
0
 51
180
  0
LINE
  5
74E
100
AcDbEntity
  8
BASE
100
AcDbLine
  6
BYLAYER
 10
2052.14996092445
 20
-1525.14730157729
 11
2052.14996092445
 21
-1530.14730157729
  0
LINE
  5
74F
100
AcDbEntity
  8
BASE
100
AcDbLine
  6
BYLAYER
 10
2043.64996092445
 20
-1525.14730157729
 11
2043.64996092445
 21
-1530.14730157729
  0
LINE
  5
750
100
AcDbEntity
  8
BASE
100
AcDbLine
  6
BYLAYER
 10
2243.64996092445
 20
-1525.14730157729
 11
2243.64996092445
 21
-1530.14730157729
  0
LINE
  5
751
100
AcDbEntity
  8
DIM
100
AcDbLine
  6
BYLAYER
 62
0
370
  -2
 10
2252.36871092445
 20
-1377.64730157729
 11
2306.74817007445
 21
-1377.64730157729
  0
LINE
  5
752
100
AcDbEntity
  8
DIM
100
AcDbLine
  6
BYLAYER
 62
0
370
  -2
 10
2252.36871092445
 20
-1527.64730157728
 11
2306.74817007445
 21
-1527.64730157728
  0
LINE
  5
753
100
AcDbEntity
  8
DIM
100
AcDbLine
  6
BYLAYER
 62
0
370
  -2
 10
2306.11817007445
 20
-1389.89730157729
 11
2306.11817007445
 21
-1423.00070957628
  0
LINE
  5
754
100
AcDbEntity
  8
DIM
100
AcDbLine
  6
BYLAYER
 62
0
370
  -2
 10
2306.11817007445
 20
-1515.39730157729
 11
2306.11817007445
 21
-1481.91737624295
  0
SOLID
  5
755
100
AcDbEntity
  8
DIM
100
AcDbTrace
 10
2304.07650340779
 20
-1389.89730157729
 30
0.0
 11
2308.15983674112
 21
-1389.89730157729
 31
0.0
 12
2306.11817007445
 22
-1377.64730157729
 32
0.0
 13
2306.11817007445
 23
-1377.64730157729
 33
0.0
  0
SOLID
  5
756
100
AcDbEntity
  8
DIM
100
AcDbTrace
 10
2306.11817007445
 20
-1527.64730157728
 30
0.0
 11
2308.15983674112
 21
-1515.39730157729
 31
0.0
 12
2304.07650340779
 22
-1515.39730157729
 32
0.0
 13
2304.07650340779
 23
-1515.39730157729
 33
0.0
  0
TEXT
  5
757
100
AcDbEntity
  8
DIM
 62
0
100
AcDbText
  6
BYLAYER
 62
0
 10
2314.86817007445
 20
-1465.58404290962
 40
17.5
  1
150
  7
Font_0
 50
90
 72
1
 11
2306.11817007445
 21
-1452.45904290962
100
AcDbText
 73
2
  0
LINE
  5
758
100
AcDbEntity
  8
BASE
100
AcDbLine
  6
BYLAYER
 10
2252.14996092445
 20
-1375.14730157729
 11
2252.14996092445
 21
-1380.14730157729
  0
LINE
  5
759
100
AcDbEntity
  8
BASE
100
AcDbLine
  6
BYLAYER
 10
2252.14996092445
 20
-1525.14730157729
 11
2252.14996092445
 21
-1530.14730157729
  0
LINE
  5
75A
100
AcDbEntity
  8
BASE
100
AcDbLine
  6
BYLAYER
 10
2272.89996092445
 20
-1546.14730157729
 11
2276.99996092445
 21
-1546.14730157729
  0
LINE
  5
75B
100
AcDbEntity
  8
0
100
AcDbLine
  6
BYLAYER
 10
2276.99996092445
 20
-1546.14730157728
 11
2018.79996092445
 21
-1546.14730157728
  0
LINE
  5
75C
100
AcDbEntity
  8
0
100
AcDbLine
  6
BYLAYER
 10
1761.33560424784
 20
-1130.75257075435
 11
1761.33560424784
 21
-1130.94005941788
  0
LINE
  5
75D
100
AcDbEntity
  8
0
100
AcDbLine
  6
BYLAYER
 10
1761.33560424784
 20
-1130.94005941788
 11
1760.18687351985
 21
-1130.94005941788
  0
LINE
  5
75E
100
AcDbEntity
  8
0
100
AcDbLine
  6
BYLAYER
 10
1760.18687351985
 20
-1130.94005941788
 11
1757.96466146629
 21
-1105.54005941788
  0
LINE
  5
75F
100
AcDbEntity
  8
0
100
AcDbLine
  6
BYLAYER
 10
1760.16148335331
 20
-1130.64984848647
 11
1761.33560424784
 21
-1130.75257075435
  0
LINE
  5
760
100
AcDbEntity
  8
0
100
AcDbLine
  6
BYLAYER
 10
2018.79996092445
 20
-1346.14730157729
 11
2018.79996092445
 21
-1546.14730157729
  0
LINE
  5
761
100
AcDbEntity
  8
0
100
AcDbLine
  6
BYLAYER
 10
2276.99996092445
 20
-1346.14730157729
 11
2276.99996092445
 21
-1546.14730157729
  0
LINE
  5
762
100
AcDbEntity
  8
0
100
AcDbLine
  6
BYLAYER
 10
2018.79996092445
 20
-1346.14730157729
 11
2276.99996092445
 21
-1346.14730157729
  0
LINE
  5
763
100
AcDbEntity
  8
DIM
100
AcDbLine
  6
BYLAYER
 62
0
370
  -2
 10
2247.89996092445
 20
-1534.61605157729
 11
2247.89996092445
 21
-1575.07088670471
  0
LINE
  5
764
100
AcDbEntity
  8
DIM
100
AcDbLine
  6
BYLAYER
 62
0
370
  -2
 10
2047.89996092445
 20
-1534.61605157729
 11
2047.89996092445
 21
-1575.07088670471
  0
LINE
  5
765
100
AcDbEntity
  8
DIM
100
AcDbLine
  6
BYLAYER
 62
0
370
  -2
 10
2235.64996092445
 20
-1574.44088670471
 11
2178.81662759112
 21
-1574.44088670471
  0
LINE
  5
766
100
AcDbEntity
  8
DIM
100
AcDbLine
  6
BYLAYER
 62
0
370
  -2
 10
2060.14996092445
 20
-1574.44088670471
 11
2116.98329425779
 21
-1574.44088670471
  0
SOLID
  5
767
100
AcDbEntity
  8
DIM
100
AcDbTrace
 10
2235.64996092445
 20
-1572.39922003804
 30
0.0
 11
2235.64996092445
 21
-1576.48255337138
 31
0.0
 12
2247.89996092445
 22
-1574.44088670471
 32
0.0
 13
2247.89996092445
 23
-1574.44088670471
 33
0.0
  0
SOLID
  5
768
100
AcDbEntity
  8
DIM
100
AcDbTrace
 10
2047.89996092445
 20
-1574.44088670471
 30
0.0
 11
2060.14996092445
 21
-1576.48255337138
 31
0.0
 12
2060.14996092445
 22
-1572.39922003804
 32
0.0
 13
2060.14996092445
 23
-1572.39922003804
 33
0.0
  0
TEXT
  5
769
100
AcDbEntity
  8
DIM
 62
0
100
AcDbText
  6
BYLAYER
 62
0
 10
2134.77496092445
 20
-1583.19088670471
 40
17.5
  1
200
  7
Font_0
 72
1
 11
2147.89996092445
 21
-1574.44088670471
100
AcDbText
 73
2
  0
LINE
  5
76A
100
AcDbEntity
  8
DIM
100
AcDbLine
  6
BYLAYER
 62
0
370
  -2
 10
2048.11871092445
 20
-1520.89730157729
 11
2083.34837053305
 21
-1520.89730157729
  0
LINE
  5
76B
100
AcDbEntity
  8
DIM
100
AcDbLine
  6
BYLAYER
 62
0
370
  -2
 10
2048.11871092445
 20
-1534.39730157729
 11
2083.34837053305
 21
-1534.39730157729
  0
LINE
  5
76C
100
AcDbEntity
  8
DIM
100
AcDbLine
  6
BYLAYER
 62
0
370
  -2
 10
2082.71837053304
 20
-1546.64730157729
 11
2082.71837053304
 21
-1558.89730157728
  0
LINE
  5
76D
100
AcDbEntity
  8
DIM
100
AcDbLine
  6
BYLAYER
 62
0
370
  -2
 10
2082.71837053304
 20
-1508.64730157729
 11
2082.71837053304
 21
-1492.89730157728
  0
LINE
  5
76E
100
AcDbEntity
  8
DIM
100
AcDbLine
  6
BYLAYER
 62
0
370
  -2
 10
2082.71837053304
 20
-1492.89730157728
 11
2094.96837053304
 21
-1492.89730157728
  0
SOLID
  5
76F
100
AcDbEntity
  8
DIM
100
AcDbTrace
 10
2080.67670386638
 20
-1546.64730157729
 30
0.0
 11
2084.76003719971
 21
-1546.64730157729
 31
0.0
 12
2082.71837053304
 22
-1534.39730157729
 32
0.0
 13
2082.71837053304
 23
-1534.39730157729
 33
0.0
  0
SOLID
  5
770
100
AcDbEntity
  8
DIM
100
AcDbTrace
 10
2082.71837053304
 20
-1520.89730157729
 30
0.0
 11
2084.76003719971
 21
-1508.64730157729
 31
0.0
 12
2080.67670386638
 22
-1508.64730157729
 32
0.0
 13
2080.67670386638
 23
-1508.64730157729
 33
0.0
  0
TEXT
  5
771
100
AcDbEntity
  8
DIM
 62
0
100
AcDbText
  6
BYLAYER
 62
0
 10
2111.30170386638
 20
-1501.64730157728
 40
17.5
  1
13.5
  7
Font_0
 72
1
 11
2128.80170386638
 21
-1492.89730157728
100
AcDbText
 73
2
  0
LINE
  5
772
100
AcDbEntity
  8
DIM
100
AcDbLine
  6
BYLAYER
 62
0
370
  -2
 10
2252.36871092445
 20
-1377.64730157729
 11
2306.74817007445
 21
-1377.64730157729
  0
LINE
  5
773
100
AcDbEntity
  8
DIM
100
AcDbLine
  6
BYLAYER
 62
0
370
  -2
 10
2277.21871092445
 20
-1346.14730157729
 11
2306.74817007445
 21
-1346.14730157729
  0
LINE
  5
774
100
AcDbEntity
  8
DIM
100
AcDbLine
  6
BYLAYER
 62
0
370
  -2
 10
2306.11817007445
 20
-1389.89730157729
 11
2306.11817007445
 21
-1402.14730157729
  0
LINE
  5
775
100
AcDbEntity
  8
DIM
100
AcDbLine
  6
BYLAYER
 62
0
370
  -2
 10
2306.11817007445
 20
-1333.89730157729
 11
2306.11817007445
 21
-1321.64730157729
  0
LINE
  5
776
100
AcDbEntity
  8
DIM
100
AcDbLine
  6
BYLAYER
 62
0
370
  -2
 10
2306.11817007445
 20
-1321.64730157729
 11
2318.36817007445
 21
-1321.64730157729
  0
SOLID
  5
777
100
AcDbEntity
  8
DIM
100
AcDbTrace
 10
2304.07650340779
 20
-1389.89730157729
 30
0.0
 11
2308.15983674112
 21
-1389.89730157729
 31
0.0
 12
2306.11817007445
 22
-1377.64730157729
 32
0.0
 13
2306.11817007445
 23
-1377.64730157729
 33
0.0
  0
SOLID
  5
778
100
AcDbEntity
  8
DIM
100
AcDbTrace
 10
2306.11817007445
 20
-1346.14730157729
 30
0.0
 11
2308.15983674112
 21
-1333.89730157729
 31
0.0
 12
2304.07650340779
 22
-1333.89730157729
 32
0.0
 13
2304.07650340779
 23
-1333.89730157729
 33
0.0
  0
TEXT
  5
779
100
AcDbEntity
  8
DIM
 62
0
100
AcDbText
  6
BYLAYER
 62
0
 10
2334.70150340779
 20
-1330.39730157729
 40
17.5
  1
31.5
  7
Font_0
 72
1
 11
2352.20150340779
 21
-1321.64730157729
100
AcDbText
 73
2
  0
LINE
  5
77A
100
AcDbEntity
  8
DIM
100
AcDbLine
  6
BYLAYER
 62
0
370
  -2
 10
1700.63162694057
 20
-1000.25293708226
 11
1712.88162694057
 21
-1000.25293708226
  0
LINE
  5
77B
100
AcDbEntity
  8
DIM
100
AcDbLine
  6
BYLAYER
 62
0
370
  -2
 10
1712.88162694057
 20
-1000.25293708226
 11
1733.20098383238
 21
-1008.14217038793
  0
TEXT
  5
77C
100
AcDbEntity
  8
DIM
 62
0
100
AcDbText
  6
BYLAYER
 62
0
 10
1640.54829360724
 20
-1009.00293708226
 40
17.5
  1
φ150
  7
Font_0
 72
1
 11
1662.42329360724
 21
-1000.25293708226
100
AcDbText
 73
2
  0
SOLID
  5
77D
100
AcDbEntity
  8
DIM
100
AcDbTrace
 10
1733.93994171799
 20
-1006.23892473351
 30
0.0
 11
1732.46202594677
 21
-1010.04541604235
 31
0.0
 12
1744.6204577589
 22
-1012.57591770159
 32
0.0
 13
1744.6204577589
 23
-1012.57591770159
 33
0.0
  0
LINE
  5
77E
100
AcDbEntity
  8
DIM
100
AcDbLine
  6
BYLAYER
 62
0
370
  -2
 10
1814.22060424784
 20
-1039.72130941788
 11
1814.85060424784
 21
-1039.72130941788
  0
LINE
  5
77F
100
AcDbEntity
  8
DIM
100
AcDbLine
  6
BYLAYER
 62
0
370
  -2
 10
1814.53560424784
 20
-1040.03630941788
 11
1814.53560424784
 21
-1039.40630941788
  0
LINE
  5
780
100
AcDbEntity
  8
DIM
100
AcDbLine
  6
BYLAYER
 62
0
370
  -2
 10
2211.98253595987
 20
-1406.74162007105
 11
2224.23253595987
 21
-1406.74162007105
  0
LINE
  5
781
100
AcDbEntity
  8
DIM
100
AcDbLine
  6
BYLAYER
 62
0
370
  -2
 10
2224.23253595987
 20
-1406.74162007105
 11
2236.93070213345
 21
-1392.47310222374
  0
TEXT
  5
782
100
AcDbEntity
  8
DIM
 62
0
100
AcDbText
  6
BYLAYER
 62
0
 10
2153.35753595987
 20
-1415.49162007105
 40
17.5
  1
φ8.5
  7
Font_0
 72
1
 11
2175.23253595987
 21
-1406.74162007105
100
AcDbText
 73
2
  0
SOLID
  5
783
100
AcDbEntity
  8
DIM
100
AcDbTrace
 10
2235.40553993225
 20
-1391.1157949491
 30
0.0
 11
2238.45586433466
 21
-1393.83040949838
 31
0.0
 12
2245.07454578132
 22
-1383.32212901652
 32
0.0
 13
2245.07454578132
 23
-1383.32212901652
 33
0.0
  0
LINE
  5
784
100
AcDbEntity
  8
DIM
100
AcDbLine
  6
BYLAYER
 62
0
370
  -2
 10
2247.58496092445
 20
-1380.14730157729
 11
2248.21496092445
 21
-1380.14730157729
  0
LINE
  5
785
100
AcDbEntity
  8
DIM
100
AcDbLine
  6
BYLAYER
 62
0
370
  -2
 10
2247.89996092445
 20
-1380.46230157728
 11
2247.89996092445
 21
-1379.83230157729
  0
ARC
  5
786
100
AcDbEntity
  8
0
100
AcDbCircle
  6
BYLAYER
 62
0
 10
2167.09034746472
 20
-894.287937600215
 40
160
100
AcDbArc
 50
0
 51
215.689418798157
  0
ARC
  5
787
100
AcDbEntity
  8
0
100
AcDbCircle
  6
BYLAYER
 10
2126.70318825948
 20
-891.736661401707
 40
200.40339963331
100
AcDbArc
 50
270
 51
359.270564732855
  0
LINE
  5
788
100
AcDbEntity
  8
0
100
AcDbLine
  6
BYLAYER
 10
2126.70318825948
 20
-1092.14006103502
 11
2000.89996092445
 21
-1092.14005941788
  0
ENDSEC
  0
SECTION
  2
OBJECTS
  0
DICTIONARY
  5
789
100
AcDbDictionary
  3
ACAD_GROUP
350
78A
  3
ACAD_MLINESTYLE
350
78B
  0
DICTIONARY
  5
78A
102
{ACAD_REACTORS
330
789
102
}
100
AcDbDictionary
  0
DICTIONARY
  5
78B
102
{ACAD_REACTORS
330
789
102
}
100
AcDbDictionary
  3
STANDARD
350
78C
  0
MLINESTYLE
  5
78C
102
{ACAD_REACTORS
330
78B
102
}
100
AcDbMlineStyle
  2
Standard
 70
     0
  3

 62
     0
 51
90.0
 52
90.0
 71
     2
 49
0.5
 62
   256
  6
ByLayer
 49
-0.5
 62
   256
  6
ByLayer
  0
ENDSEC
  0
EOF
