999
Outputted By AR_CAD Ver.1.6.0
  0
SECTION
  2
HEADER
  9
$ACADVER
  1
AC1014
  9
$DWGCODEPAGE
  3
ANSI_932
  9
$EXTMIN
 10
0
 20
0
  9
$EXTMAX
 10
297
 20
210
  9
$INSBASE
 10
0.0
 20
0.0
 30
0.0
  9
$HANDLING
 70
     1
  9
$HANDSEED
  5
693
  9
$LTSCALE
 40
1
  0
ENDSEC
  0
SECTION
  2
TABLES
  0
TABLE
  2
VPORT
  5
1
100
AcDbSymbolTable
 70
     1
  0
VPORT
  5
30
100
AcDbSymbolTableRecord
100
AcDbViewportTableRecord
  2
*ACTIVE
 70
     0
 10
0.0
 20
0.0
 11
1.0
 21
1.0
 12
210.0
 22
148.5
 13
0.0
 23
0.0
 14
10.0
 24
10.0
 15
10.0
 25
10.0
 16
0.0
 26
0.0
 36
1.0
 17
0.0
 27
0.0
 37
0.0
 40
302.94
 41
1.333333
 42
50.0
 43
0.0
 44
0.0
 50
0.0
 51
0.0
 71
     0
 72
   100
 73
     1
 74
     1
 75
     0
 76
     0
 77
     0
 78
     0
  0
ENDTAB
  0
TABLE
  2
LTYPE
  5
2
100
AcDbSymbolTable
 70
     10
  0
LTYPE
  5
31
100
AcDbSymbolTableRecord
100
AcDbLinetypeTableRecord
  2
BYBLOCK
 70
    64
 3

 72
    65
 73
    0
 40
    0
  0
LTYPE
  5
32
100
AcDbSymbolTableRecord
100
AcDbLinetypeTableRecord
  2
BYLAYER
 70
    64
 3

 72
    65
 73
    0
 40
    0
  0
LTYPE
  5
33
100
AcDbSymbolTableRecord
100
AcDbLinetypeTableRecord
  2
CONTINUOUS
 70
    64
 3
CONTINUOUS
 72
    65
 73
    0
 40
    0
  0
LTYPE
  5
34
100
AcDbSymbolTableRecord
100
AcDbLinetypeTableRecord
  2
DASHED
 70
    64
 3

 72
    65
 73
    2
 40
    3.5
 49
    2.91666666666667
 74
    0
 49
    -0.583333333333333
 74
    0
  0
LTYPE
  5
35
100
AcDbSymbolTableRecord
100
AcDbLinetypeTableRecord
  2
DOT
 70
    64
 3

 72
    65
 73
    2
 40
    0.5
 49
    0.25
 74
    0
 49
    -0.25
 74
    0
  0
LTYPE
  5
36
100
AcDbSymbolTableRecord
100
AcDbLinetypeTableRecord
  2
DASHDOT
 70
    64
 3

 72
    65
 73
    4
 40
    3.5
 49
    1.84210526315789
 74
    0
 49
    -0.552631578947368
 74
    0
 49
    0.552631578947368
 74
    0
 49
    -0.552631578947368
 74
    0
  0
LTYPE
  5
37
100
AcDbSymbolTableRecord
100
AcDbLinetypeTableRecord
  2
DIVIDE
 70
    64
 3

 72
    65
 73
    6
 40
    3.5
 49
    1.4
 74
    0
 49
    -0.42
 74
    0
 49
    0.42
 74
    0
 49
    -0.42
 74
    0
 49
    0.42
 74
    0
 49
    -0.42
 74
    0
  0
LTYPE
  5
38
100
AcDbSymbolTableRecord
100
AcDbLinetypeTableRecord
  2
HIDDEN
 70
    64
 3

 72
    65
 73
    2
 40
    9.525
 49
    6.35
 74
    0
 49
    -3.175
 74
    0
  0
LTYPE
  5
39
100
AcDbSymbolTableRecord
100
AcDbLinetypeTableRecord
  2
CENTERX2
 70
    64
 3

 72
    65
 73
    4
 40
    4
 49
    2.5
 74
    0
 49
    -0.5
 74
    0
 49
    0.5
 74
    0
 49
    -0.5
 74
    0
  0
LTYPE
  5
3A
100
AcDbSymbolTableRecord
100
AcDbLinetypeTableRecord
  2
CENTER
 70
    64
 3

 72
    65
 73
    4
 40
    50.8
 49
    31.75
 74
    0
 49
    -6.35
 74
    0
 49
    6.35
 74
    0
 49
    -6.35
 74
    0
  0
LTYPE
  5
3B
100
AcDbSymbolTableRecord
100
AcDbLinetypeTableRecord
  2
BORDER
 70
    64
 3

 72
    65
 73
    6
 40
    44.45
 49
    12.7
 74
    0
 49
    -6.35
 74
    0
 49
    12.7
 74
    0
 49
    -6.35
 74
    0
 49
    0
 74
    0
 49
    -6.35
 74
    0
  0
ENDTAB
  0
TABLE
  2
LAYER
  5
3
100
AcDbSymbolTable
 70
   257
  0
LAYER
  5
3C
100
AcDbSymbolTableRecord
100
AcDbLayerTableRecord
  2
0
 70
    0
 62
7
  6
CONTINUOUS
  0
LAYER
  5
3D
100
AcDbSymbolTableRecord
100
AcDbLayerTableRecord
  2
DEFPOINTS
 70
    0
 62
7
  6
CONTINUOUS
  0
LAYER
  5
3E
100
AcDbSymbolTableRecord
100
AcDbLayerTableRecord
  2
ASHADE
 70
    4
 62
7
  6
CONTINUOUS
  0
LAYER
  5
3F
100
AcDbSymbolTableRecord
100
AcDbLayerTableRecord
  2
CEN
 70
    0
 62
3
  6
CONTINUOUS
  0
LAYER
  5
40
100
AcDbSymbolTableRecord
100
AcDbLayerTableRecord
  2
DIM
 70
    0
 62
1
  6
CONTINUOUS
  0
LAYER
  5
41
100
AcDbSymbolTableRecord
100
AcDbLayerTableRecord
  2
HIDDEN
 70
    0
 62
3
  6
CONTINUOUS
  0
LAYER
  5
42
100
AcDbSymbolTableRecord
100
AcDbLayerTableRecord
  2
HATCH
 70
    0
 62
5
  6
CONTINUOUS
  0
LAYER
  5
43
100
AcDbSymbolTableRecord
100
AcDbLayerTableRecord
  2
TEXT
 70
    0
 62
250
  6
CONTINUOUS
  0
LAYER
  5
44
100
AcDbSymbolTableRecord
100
AcDbLayerTableRecord
  2
M
 70
    0
 62
6
  6
CONTINUOUS
  0
LAYER
  5
45
100
AcDbSymbolTableRecord
100
AcDbLayerTableRecord
  2
BREAK
 70
    0
 62
3
  6
CONTINUOUS
  0
LAYER
  5
46
100
AcDbSymbolTableRecord
100
AcDbLayerTableRecord
  2
01
 70
    0
 62
3
  6
CONTINUOUS
  0
LAYER
  5
47
100
AcDbSymbolTableRecord
100
AcDbLayerTableRecord
  2
7475A
 70
    0
 62
1
  6
CONTINUOUS
  0
LAYER
  5
48
100
AcDbSymbolTableRecord
100
AcDbLayerTableRecord
  2
BASE
 70
    0
 62
7
  6
CONTINUOUS
  0
LAYER
  5
49
100
AcDbSymbolTableRecord
100
AcDbLayerTableRecord
  2
AME
 70
    0
 62
7
  6
CONTINUOUS
  0
LAYER
  5
4A
100
AcDbSymbolTableRecord
100
AcDbLayerTableRecord
  2
PV-230
 70
    0
 62
7
  6
CONTINUOUS
  0
LAYER
  5
4B
100
AcDbSymbolTableRecord
100
AcDbLayerTableRecord
  2
ｷsｸ_ｬ__､W_ｭｧj2_
 70
    0
 62
7
  6
CONTINUOUS
  0
LAYER
  5
4C
100
AcDbSymbolTableRecord
100
AcDbLayerTableRecord
  2
画層16
 70
    0
 62
7
  6
CONTINUOUS
  0
LAYER
  5
4D
100
AcDbSymbolTableRecord
100
AcDbLayerTableRecord
  2
画層17
 70
    0
 62
70
  6
CONTINUOUS
  0
LAYER
  5
4E
100
AcDbSymbolTableRecord
100
AcDbLayerTableRecord
  2
画層18
 70
    0
 62
211
  6
CONTINUOUS
  0
LAYER
  5
4F
100
AcDbSymbolTableRecord
100
AcDbLayerTableRecord
  2
画層19
 70
    0
 62
137
  6
CONTINUOUS
  0
LAYER
  5
50
100
AcDbSymbolTableRecord
100
AcDbLayerTableRecord
  2
画層20
 70
    0
 62
4
  6
CONTINUOUS
  0
LAYER
  5
51
100
AcDbSymbolTableRecord
100
AcDbLayerTableRecord
  2
画層21
 70
    0
 62
131
  6
CONTINUOUS
  0
LAYER
  5
52
100
AcDbSymbolTableRecord
100
AcDbLayerTableRecord
  2
画層22
 70
    0
 62
4
  6
CONTINUOUS
  0
LAYER
  5
53
100
AcDbSymbolTableRecord
100
AcDbLayerTableRecord
  2
画層23
 70
    0
 62
4
  6
CONTINUOUS
  0
LAYER
  5
54
100
AcDbSymbolTableRecord
100
AcDbLayerTableRecord
  2
画層24
 70
    0
 62
7
  6
CONTINUOUS
  0
LAYER
  5
55
100
AcDbSymbolTableRecord
100
AcDbLayerTableRecord
  2
画層25
 70
    0
 62
7
  6
CONTINUOUS
  0
LAYER
  5
56
100
AcDbSymbolTableRecord
100
AcDbLayerTableRecord
  2
画層26
 70
    0
 62
7
  6
CONTINUOUS
  0
LAYER
  5
57
100
AcDbSymbolTableRecord
100
AcDbLayerTableRecord
  2
画層27
 70
    0
 62
7
  6
CONTINUOUS
  0
LAYER
  5
58
100
AcDbSymbolTableRecord
100
AcDbLayerTableRecord
  2
画層28
 70
    0
 62
7
  6
CONTINUOUS
  0
LAYER
  5
59
100
AcDbSymbolTableRecord
100
AcDbLayerTableRecord
  2
画層29
 70
    0
 62
7
  6
CONTINUOUS
  0
LAYER
  5
5A
100
AcDbSymbolTableRecord
100
AcDbLayerTableRecord
  2
画層30
 70
    0
 62
7
  6
CONTINUOUS
  0
LAYER
  5
5B
100
AcDbSymbolTableRecord
100
AcDbLayerTableRecord
  2
画層31
 70
    0
 62
7
  6
CONTINUOUS
  0
LAYER
  5
5C
100
AcDbSymbolTableRecord
100
AcDbLayerTableRecord
  2
画層32
 70
    0
 62
7
  6
CONTINUOUS
  0
LAYER
  5
5D
100
AcDbSymbolTableRecord
100
AcDbLayerTableRecord
  2
画層33
 70
    0
 62
7
  6
CONTINUOUS
  0
LAYER
  5
5E
100
AcDbSymbolTableRecord
100
AcDbLayerTableRecord
  2
画層34
 70
    0
 62
7
  6
CONTINUOUS
  0
LAYER
  5
5F
100
AcDbSymbolTableRecord
100
AcDbLayerTableRecord
  2
画層35
 70
    0
 62
7
  6
CONTINUOUS
  0
LAYER
  5
60
100
AcDbSymbolTableRecord
100
AcDbLayerTableRecord
  2
画層36
 70
    0
 62
7
  6
CONTINUOUS
  0
LAYER
  5
61
100
AcDbSymbolTableRecord
100
AcDbLayerTableRecord
  2
画層37
 70
    0
 62
7
  6
CONTINUOUS
  0
LAYER
  5
62
100
AcDbSymbolTableRecord
100
AcDbLayerTableRecord
  2
画層38
 70
    0
 62
7
  6
CONTINUOUS
  0
LAYER
  5
63
100
AcDbSymbolTableRecord
100
AcDbLayerTableRecord
  2
画層39
 70
    0
 62
7
  6
CONTINUOUS
  0
LAYER
  5
64
100
AcDbSymbolTableRecord
100
AcDbLayerTableRecord
  2
画層40
 70
    0
 62
7
  6
CONTINUOUS
  0
LAYER
  5
65
100
AcDbSymbolTableRecord
100
AcDbLayerTableRecord
  2
画層41
 70
    0
 62
7
  6
CONTINUOUS
  0
LAYER
  5
66
100
AcDbSymbolTableRecord
100
AcDbLayerTableRecord
  2
画層42
 70
    0
 62
7
  6
CONTINUOUS
  0
LAYER
  5
67
100
AcDbSymbolTableRecord
100
AcDbLayerTableRecord
  2
画層43
 70
    0
 62
7
  6
CONTINUOUS
  0
LAYER
  5
68
100
AcDbSymbolTableRecord
100
AcDbLayerTableRecord
  2
画層44
 70
    0
 62
7
  6
CONTINUOUS
  0
LAYER
  5
69
100
AcDbSymbolTableRecord
100
AcDbLayerTableRecord
  2
画層45
 70
    0
 62
7
  6
CONTINUOUS
  0
LAYER
  5
6A
100
AcDbSymbolTableRecord
100
AcDbLayerTableRecord
  2
画層46
 70
    0
 62
7
  6
CONTINUOUS
  0
LAYER
  5
6B
100
AcDbSymbolTableRecord
100
AcDbLayerTableRecord
  2
画層47
 70
    0
 62
7
  6
CONTINUOUS
  0
LAYER
  5
6C
100
AcDbSymbolTableRecord
100
AcDbLayerTableRecord
  2
画層48
 70
    0
 62
7
  6
CONTINUOUS
  0
LAYER
  5
6D
100
AcDbSymbolTableRecord
100
AcDbLayerTableRecord
  2
画層49
 70
    0
 62
7
  6
CONTINUOUS
  0
LAYER
  5
6E
100
AcDbSymbolTableRecord
100
AcDbLayerTableRecord
  2
画層50
 70
    0
 62
7
  6
CONTINUOUS
  0
LAYER
  5
6F
100
AcDbSymbolTableRecord
100
AcDbLayerTableRecord
  2
画層51
 70
    0
 62
7
  6
CONTINUOUS
  0
LAYER
  5
70
100
AcDbSymbolTableRecord
100
AcDbLayerTableRecord
  2
画層52
 70
    0
 62
7
  6
CONTINUOUS
  0
LAYER
  5
71
100
AcDbSymbolTableRecord
100
AcDbLayerTableRecord
  2
画層53
 70
    0
 62
7
  6
CONTINUOUS
  0
LAYER
  5
72
100
AcDbSymbolTableRecord
100
AcDbLayerTableRecord
  2
画層54
 70
    0
 62
7
  6
CONTINUOUS
  0
LAYER
  5
73
100
AcDbSymbolTableRecord
100
AcDbLayerTableRecord
  2
画層55
 70
    0
 62
7
  6
CONTINUOUS
  0
LAYER
  5
74
100
AcDbSymbolTableRecord
100
AcDbLayerTableRecord
  2
画層56
 70
    0
 62
7
  6
CONTINUOUS
  0
LAYER
  5
75
100
AcDbSymbolTableRecord
100
AcDbLayerTableRecord
  2
画層57
 70
    0
 62
7
  6
CONTINUOUS
  0
LAYER
  5
76
100
AcDbSymbolTableRecord
100
AcDbLayerTableRecord
  2
画層58
 70
    0
 62
7
  6
CONTINUOUS
  0
LAYER
  5
77
100
AcDbSymbolTableRecord
100
AcDbLayerTableRecord
  2
画層59
 70
    0
 62
7
  6
CONTINUOUS
  0
LAYER
  5
78
100
AcDbSymbolTableRecord
100
AcDbLayerTableRecord
  2
画層60
 70
    0
 62
7
  6
CONTINUOUS
  0
LAYER
  5
79
100
AcDbSymbolTableRecord
100
AcDbLayerTableRecord
  2
画層61
 70
    0
 62
7
  6
CONTINUOUS
  0
LAYER
  5
7A
100
AcDbSymbolTableRecord
100
AcDbLayerTableRecord
  2
画層62
 70
    0
 62
7
  6
CONTINUOUS
  0
LAYER
  5
7B
100
AcDbSymbolTableRecord
100
AcDbLayerTableRecord
  2
画層63
 70
    0
 62
7
  6
CONTINUOUS
  0
LAYER
  5
7C
100
AcDbSymbolTableRecord
100
AcDbLayerTableRecord
  2
画層64
 70
    0
 62
7
  6
CONTINUOUS
  0
LAYER
  5
7D
100
AcDbSymbolTableRecord
100
AcDbLayerTableRecord
  2
画層65
 70
    0
 62
7
  6
CONTINUOUS
  0
LAYER
  5
7E
100
AcDbSymbolTableRecord
100
AcDbLayerTableRecord
  2
画層66
 70
    0
 62
7
  6
CONTINUOUS
  0
LAYER
  5
7F
100
AcDbSymbolTableRecord
100
AcDbLayerTableRecord
  2
画層67
 70
    0
 62
7
  6
CONTINUOUS
  0
LAYER
  5
80
100
AcDbSymbolTableRecord
100
AcDbLayerTableRecord
  2
画層68
 70
    0
 62
7
  6
CONTINUOUS
  0
LAYER
  5
81
100
AcDbSymbolTableRecord
100
AcDbLayerTableRecord
  2
画層69
 70
    0
 62
7
  6
CONTINUOUS
  0
LAYER
  5
82
100
AcDbSymbolTableRecord
100
AcDbLayerTableRecord
  2
画層70
 70
    0
 62
7
  6
CONTINUOUS
  0
LAYER
  5
83
100
AcDbSymbolTableRecord
100
AcDbLayerTableRecord
  2
画層71
 70
    0
 62
7
  6
CONTINUOUS
  0
LAYER
  5
84
100
AcDbSymbolTableRecord
100
AcDbLayerTableRecord
  2
画層72
 70
    0
 62
7
  6
CONTINUOUS
  0
LAYER
  5
85
100
AcDbSymbolTableRecord
100
AcDbLayerTableRecord
  2
画層73
 70
    0
 62
7
  6
CONTINUOUS
  0
LAYER
  5
86
100
AcDbSymbolTableRecord
100
AcDbLayerTableRecord
  2
画層74
 70
    0
 62
7
  6
CONTINUOUS
  0
LAYER
  5
87
100
AcDbSymbolTableRecord
100
AcDbLayerTableRecord
  2
画層75
 70
    0
 62
7
  6
CONTINUOUS
  0
LAYER
  5
88
100
AcDbSymbolTableRecord
100
AcDbLayerTableRecord
  2
画層76
 70
    0
 62
7
  6
CONTINUOUS
  0
LAYER
  5
89
100
AcDbSymbolTableRecord
100
AcDbLayerTableRecord
  2
画層77
 70
    0
 62
7
  6
CONTINUOUS
  0
LAYER
  5
8A
100
AcDbSymbolTableRecord
100
AcDbLayerTableRecord
  2
画層78
 70
    0
 62
7
  6
CONTINUOUS
  0
LAYER
  5
8B
100
AcDbSymbolTableRecord
100
AcDbLayerTableRecord
  2
画層79
 70
    0
 62
7
  6
CONTINUOUS
  0
LAYER
  5
8C
100
AcDbSymbolTableRecord
100
AcDbLayerTableRecord
  2
画層80
 70
    0
 62
7
  6
CONTINUOUS
  0
LAYER
  5
8D
100
AcDbSymbolTableRecord
100
AcDbLayerTableRecord
  2
画層81
 70
    0
 62
7
  6
CONTINUOUS
  0
LAYER
  5
8E
100
AcDbSymbolTableRecord
100
AcDbLayerTableRecord
  2
画層82
 70
    0
 62
7
  6
CONTINUOUS
  0
LAYER
  5
8F
100
AcDbSymbolTableRecord
100
AcDbLayerTableRecord
  2
画層83
 70
    0
 62
7
  6
CONTINUOUS
  0
LAYER
  5
90
100
AcDbSymbolTableRecord
100
AcDbLayerTableRecord
  2
画層84
 70
    0
 62
7
  6
CONTINUOUS
  0
LAYER
  5
91
100
AcDbSymbolTableRecord
100
AcDbLayerTableRecord
  2
画層85
 70
    0
 62
7
  6
CONTINUOUS
  0
LAYER
  5
92
100
AcDbSymbolTableRecord
100
AcDbLayerTableRecord
  2
画層86
 70
    0
 62
7
  6
CONTINUOUS
  0
LAYER
  5
93
100
AcDbSymbolTableRecord
100
AcDbLayerTableRecord
  2
画層87
 70
    0
 62
7
  6
CONTINUOUS
  0
LAYER
  5
94
100
AcDbSymbolTableRecord
100
AcDbLayerTableRecord
  2
画層88
 70
    0
 62
7
  6
CONTINUOUS
  0
LAYER
  5
95
100
AcDbSymbolTableRecord
100
AcDbLayerTableRecord
  2
画層89
 70
    0
 62
7
  6
CONTINUOUS
  0
LAYER
  5
96
100
AcDbSymbolTableRecord
100
AcDbLayerTableRecord
  2
画層90
 70
    0
 62
7
  6
CONTINUOUS
  0
LAYER
  5
97
100
AcDbSymbolTableRecord
100
AcDbLayerTableRecord
  2
画層91
 70
    0
 62
7
  6
CONTINUOUS
  0
LAYER
  5
98
100
AcDbSymbolTableRecord
100
AcDbLayerTableRecord
  2
画層92
 70
    0
 62
7
  6
CONTINUOUS
  0
LAYER
  5
99
100
AcDbSymbolTableRecord
100
AcDbLayerTableRecord
  2
画層93
 70
    0
 62
7
  6
CONTINUOUS
  0
LAYER
  5
9A
100
AcDbSymbolTableRecord
100
AcDbLayerTableRecord
  2
画層94
 70
    0
 62
7
  6
CONTINUOUS
  0
LAYER
  5
9B
100
AcDbSymbolTableRecord
100
AcDbLayerTableRecord
  2
画層95
 70
    0
 62
7
  6
CONTINUOUS
  0
LAYER
  5
9C
100
AcDbSymbolTableRecord
100
AcDbLayerTableRecord
  2
画層96
 70
    0
 62
7
  6
CONTINUOUS
  0
LAYER
  5
9D
100
AcDbSymbolTableRecord
100
AcDbLayerTableRecord
  2
画層97
 70
    0
 62
7
  6
CONTINUOUS
  0
LAYER
  5
9E
100
AcDbSymbolTableRecord
100
AcDbLayerTableRecord
  2
画層98
 70
    0
 62
7
  6
CONTINUOUS
  0
LAYER
  5
9F
100
AcDbSymbolTableRecord
100
AcDbLayerTableRecord
  2
画層99
 70
    0
 62
7
  6
CONTINUOUS
  0
LAYER
  5
A0
100
AcDbSymbolTableRecord
100
AcDbLayerTableRecord
  2
画層100
 70
    0
 62
7
  6
CONTINUOUS
  0
LAYER
  5
A1
100
AcDbSymbolTableRecord
100
AcDbLayerTableRecord
  2
画層101
 70
    0
 62
7
  6
CONTINUOUS
  0
LAYER
  5
A2
100
AcDbSymbolTableRecord
100
AcDbLayerTableRecord
  2
画層102
 70
    0
 62
7
  6
CONTINUOUS
  0
LAYER
  5
A3
100
AcDbSymbolTableRecord
100
AcDbLayerTableRecord
  2
画層103
 70
    0
 62
7
  6
CONTINUOUS
  0
LAYER
  5
A4
100
AcDbSymbolTableRecord
100
AcDbLayerTableRecord
  2
画層104
 70
    0
 62
7
  6
CONTINUOUS
  0
LAYER
  5
A5
100
AcDbSymbolTableRecord
100
AcDbLayerTableRecord
  2
画層105
 70
    0
 62
7
  6
CONTINUOUS
  0
LAYER
  5
A6
100
AcDbSymbolTableRecord
100
AcDbLayerTableRecord
  2
画層106
 70
    0
 62
7
  6
CONTINUOUS
  0
LAYER
  5
A7
100
AcDbSymbolTableRecord
100
AcDbLayerTableRecord
  2
画層107
 70
    0
 62
7
  6
CONTINUOUS
  0
LAYER
  5
A8
100
AcDbSymbolTableRecord
100
AcDbLayerTableRecord
  2
画層108
 70
    0
 62
7
  6
CONTINUOUS
  0
LAYER
  5
A9
100
AcDbSymbolTableRecord
100
AcDbLayerTableRecord
  2
画層109
 70
    0
 62
7
  6
CONTINUOUS
  0
LAYER
  5
AA
100
AcDbSymbolTableRecord
100
AcDbLayerTableRecord
  2
画層110
 70
    0
 62
7
  6
CONTINUOUS
  0
LAYER
  5
AB
100
AcDbSymbolTableRecord
100
AcDbLayerTableRecord
  2
画層111
 70
    0
 62
7
  6
CONTINUOUS
  0
LAYER
  5
AC
100
AcDbSymbolTableRecord
100
AcDbLayerTableRecord
  2
画層112
 70
    0
 62
7
  6
CONTINUOUS
  0
LAYER
  5
AD
100
AcDbSymbolTableRecord
100
AcDbLayerTableRecord
  2
画層113
 70
    0
 62
7
  6
CONTINUOUS
  0
LAYER
  5
AE
100
AcDbSymbolTableRecord
100
AcDbLayerTableRecord
  2
画層114
 70
    0
 62
7
  6
CONTINUOUS
  0
LAYER
  5
AF
100
AcDbSymbolTableRecord
100
AcDbLayerTableRecord
  2
画層115
 70
    0
 62
7
  6
CONTINUOUS
  0
LAYER
  5
B0
100
AcDbSymbolTableRecord
100
AcDbLayerTableRecord
  2
画層116
 70
    0
 62
7
  6
CONTINUOUS
  0
LAYER
  5
B1
100
AcDbSymbolTableRecord
100
AcDbLayerTableRecord
  2
画層117
 70
    0
 62
7
  6
CONTINUOUS
  0
LAYER
  5
B2
100
AcDbSymbolTableRecord
100
AcDbLayerTableRecord
  2
画層118
 70
    0
 62
7
  6
CONTINUOUS
  0
LAYER
  5
B3
100
AcDbSymbolTableRecord
100
AcDbLayerTableRecord
  2
画層119
 70
    0
 62
7
  6
CONTINUOUS
  0
LAYER
  5
B4
100
AcDbSymbolTableRecord
100
AcDbLayerTableRecord
  2
画層120
 70
    0
 62
7
  6
CONTINUOUS
  0
LAYER
  5
B5
100
AcDbSymbolTableRecord
100
AcDbLayerTableRecord
  2
画層121
 70
    0
 62
7
  6
CONTINUOUS
  0
LAYER
  5
B6
100
AcDbSymbolTableRecord
100
AcDbLayerTableRecord
  2
画層122
 70
    0
 62
7
  6
CONTINUOUS
  0
LAYER
  5
B7
100
AcDbSymbolTableRecord
100
AcDbLayerTableRecord
  2
画層123
 70
    0
 62
7
  6
CONTINUOUS
  0
LAYER
  5
B8
100
AcDbSymbolTableRecord
100
AcDbLayerTableRecord
  2
画層124
 70
    0
 62
7
  6
CONTINUOUS
  0
LAYER
  5
B9
100
AcDbSymbolTableRecord
100
AcDbLayerTableRecord
  2
画層125
 70
    0
 62
7
  6
CONTINUOUS
  0
LAYER
  5
BA
100
AcDbSymbolTableRecord
100
AcDbLayerTableRecord
  2
画層126
 70
    0
 62
7
  6
CONTINUOUS
  0
LAYER
  5
BB
100
AcDbSymbolTableRecord
100
AcDbLayerTableRecord
  2
画層127
 70
    0
 62
7
  6
CONTINUOUS
  0
LAYER
  5
BC
100
AcDbSymbolTableRecord
100
AcDbLayerTableRecord
  2
画層128
 70
    0
 62
7
  6
CONTINUOUS
  0
LAYER
  5
BD
100
AcDbSymbolTableRecord
100
AcDbLayerTableRecord
  2
画層129
 70
    0
 62
7
  6
CONTINUOUS
  0
LAYER
  5
BE
100
AcDbSymbolTableRecord
100
AcDbLayerTableRecord
  2
画層130
 70
    0
 62
7
  6
CONTINUOUS
  0
LAYER
  5
BF
100
AcDbSymbolTableRecord
100
AcDbLayerTableRecord
  2
画層131
 70
    0
 62
7
  6
CONTINUOUS
  0
LAYER
  5
C0
100
AcDbSymbolTableRecord
100
AcDbLayerTableRecord
  2
画層132
 70
    0
 62
7
  6
CONTINUOUS
  0
LAYER
  5
C1
100
AcDbSymbolTableRecord
100
AcDbLayerTableRecord
  2
画層133
 70
    0
 62
7
  6
CONTINUOUS
  0
LAYER
  5
C2
100
AcDbSymbolTableRecord
100
AcDbLayerTableRecord
  2
画層134
 70
    0
 62
7
  6
CONTINUOUS
  0
LAYER
  5
C3
100
AcDbSymbolTableRecord
100
AcDbLayerTableRecord
  2
画層135
 70
    0
 62
7
  6
CONTINUOUS
  0
LAYER
  5
C4
100
AcDbSymbolTableRecord
100
AcDbLayerTableRecord
  2
画層136
 70
    0
 62
7
  6
CONTINUOUS
  0
LAYER
  5
C5
100
AcDbSymbolTableRecord
100
AcDbLayerTableRecord
  2
画層137
 70
    0
 62
7
  6
CONTINUOUS
  0
LAYER
  5
C6
100
AcDbSymbolTableRecord
100
AcDbLayerTableRecord
  2
画層138
 70
    0
 62
7
  6
CONTINUOUS
  0
LAYER
  5
C7
100
AcDbSymbolTableRecord
100
AcDbLayerTableRecord
  2
画層139
 70
    0
 62
7
  6
CONTINUOUS
  0
LAYER
  5
C8
100
AcDbSymbolTableRecord
100
AcDbLayerTableRecord
  2
画層140
 70
    0
 62
7
  6
CONTINUOUS
  0
LAYER
  5
C9
100
AcDbSymbolTableRecord
100
AcDbLayerTableRecord
  2
画層141
 70
    0
 62
7
  6
CONTINUOUS
  0
LAYER
  5
CA
100
AcDbSymbolTableRecord
100
AcDbLayerTableRecord
  2
画層142
 70
    0
 62
7
  6
CONTINUOUS
  0
LAYER
  5
CB
100
AcDbSymbolTableRecord
100
AcDbLayerTableRecord
  2
画層143
 70
    0
 62
7
  6
CONTINUOUS
  0
LAYER
  5
CC
100
AcDbSymbolTableRecord
100
AcDbLayerTableRecord
  2
画層144
 70
    0
 62
7
  6
CONTINUOUS
  0
LAYER
  5
CD
100
AcDbSymbolTableRecord
100
AcDbLayerTableRecord
  2
画層145
 70
    0
 62
7
  6
CONTINUOUS
  0
LAYER
  5
CE
100
AcDbSymbolTableRecord
100
AcDbLayerTableRecord
  2
画層146
 70
    0
 62
7
  6
CONTINUOUS
  0
LAYER
  5
CF
100
AcDbSymbolTableRecord
100
AcDbLayerTableRecord
  2
画層147
 70
    0
 62
7
  6
CONTINUOUS
  0
LAYER
  5
D0
100
AcDbSymbolTableRecord
100
AcDbLayerTableRecord
  2
画層148
 70
    0
 62
7
  6
CONTINUOUS
  0
LAYER
  5
D1
100
AcDbSymbolTableRecord
100
AcDbLayerTableRecord
  2
画層149
 70
    0
 62
7
  6
CONTINUOUS
  0
LAYER
  5
D2
100
AcDbSymbolTableRecord
100
AcDbLayerTableRecord
  2
画層150
 70
    0
 62
7
  6
CONTINUOUS
  0
LAYER
  5
D3
100
AcDbSymbolTableRecord
100
AcDbLayerTableRecord
  2
画層151
 70
    0
 62
7
  6
CONTINUOUS
  0
LAYER
  5
D4
100
AcDbSymbolTableRecord
100
AcDbLayerTableRecord
  2
画層152
 70
    0
 62
7
  6
CONTINUOUS
  0
LAYER
  5
D5
100
AcDbSymbolTableRecord
100
AcDbLayerTableRecord
  2
画層153
 70
    0
 62
7
  6
CONTINUOUS
  0
LAYER
  5
D6
100
AcDbSymbolTableRecord
100
AcDbLayerTableRecord
  2
画層154
 70
    0
 62
7
  6
CONTINUOUS
  0
LAYER
  5
D7
100
AcDbSymbolTableRecord
100
AcDbLayerTableRecord
  2
画層155
 70
    0
 62
7
  6
CONTINUOUS
  0
LAYER
  5
D8
100
AcDbSymbolTableRecord
100
AcDbLayerTableRecord
  2
画層156
 70
    0
 62
7
  6
CONTINUOUS
  0
LAYER
  5
D9
100
AcDbSymbolTableRecord
100
AcDbLayerTableRecord
  2
画層157
 70
    0
 62
7
  6
CONTINUOUS
  0
LAYER
  5
DA
100
AcDbSymbolTableRecord
100
AcDbLayerTableRecord
  2
画層158
 70
    0
 62
7
  6
CONTINUOUS
  0
LAYER
  5
DB
100
AcDbSymbolTableRecord
100
AcDbLayerTableRecord
  2
画層159
 70
    0
 62
7
  6
CONTINUOUS
  0
LAYER
  5
DC
100
AcDbSymbolTableRecord
100
AcDbLayerTableRecord
  2
画層160
 70
    0
 62
7
  6
CONTINUOUS
  0
LAYER
  5
DD
100
AcDbSymbolTableRecord
100
AcDbLayerTableRecord
  2
画層161
 70
    0
 62
7
  6
CONTINUOUS
  0
LAYER
  5
DE
100
AcDbSymbolTableRecord
100
AcDbLayerTableRecord
  2
画層162
 70
    0
 62
7
  6
CONTINUOUS
  0
LAYER
  5
DF
100
AcDbSymbolTableRecord
100
AcDbLayerTableRecord
  2
画層163
 70
    0
 62
7
  6
CONTINUOUS
  0
LAYER
  5
E0
100
AcDbSymbolTableRecord
100
AcDbLayerTableRecord
  2
画層164
 70
    0
 62
7
  6
CONTINUOUS
  0
LAYER
  5
E1
100
AcDbSymbolTableRecord
100
AcDbLayerTableRecord
  2
画層165
 70
    0
 62
7
  6
CONTINUOUS
  0
LAYER
  5
E2
100
AcDbSymbolTableRecord
100
AcDbLayerTableRecord
  2
画層166
 70
    0
 62
7
  6
CONTINUOUS
  0
LAYER
  5
E3
100
AcDbSymbolTableRecord
100
AcDbLayerTableRecord
  2
画層167
 70
    0
 62
7
  6
CONTINUOUS
  0
LAYER
  5
E4
100
AcDbSymbolTableRecord
100
AcDbLayerTableRecord
  2
画層168
 70
    0
 62
7
  6
CONTINUOUS
  0
LAYER
  5
E5
100
AcDbSymbolTableRecord
100
AcDbLayerTableRecord
  2
画層169
 70
    0
 62
7
  6
CONTINUOUS
  0
LAYER
  5
E6
100
AcDbSymbolTableRecord
100
AcDbLayerTableRecord
  2
画層170
 70
    0
 62
7
  6
CONTINUOUS
  0
LAYER
  5
E7
100
AcDbSymbolTableRecord
100
AcDbLayerTableRecord
  2
画層171
 70
    0
 62
7
  6
CONTINUOUS
  0
LAYER
  5
E8
100
AcDbSymbolTableRecord
100
AcDbLayerTableRecord
  2
画層172
 70
    0
 62
7
  6
CONTINUOUS
  0
LAYER
  5
E9
100
AcDbSymbolTableRecord
100
AcDbLayerTableRecord
  2
画層173
 70
    0
 62
7
  6
CONTINUOUS
  0
LAYER
  5
EA
100
AcDbSymbolTableRecord
100
AcDbLayerTableRecord
  2
画層174
 70
    0
 62
7
  6
CONTINUOUS
  0
LAYER
  5
EB
100
AcDbSymbolTableRecord
100
AcDbLayerTableRecord
  2
画層175
 70
    0
 62
7
  6
CONTINUOUS
  0
LAYER
  5
EC
100
AcDbSymbolTableRecord
100
AcDbLayerTableRecord
  2
画層176
 70
    0
 62
7
  6
CONTINUOUS
  0
LAYER
  5
ED
100
AcDbSymbolTableRecord
100
AcDbLayerTableRecord
  2
画層177
 70
    0
 62
7
  6
CONTINUOUS
  0
LAYER
  5
EE
100
AcDbSymbolTableRecord
100
AcDbLayerTableRecord
  2
画層178
 70
    0
 62
7
  6
CONTINUOUS
  0
LAYER
  5
EF
100
AcDbSymbolTableRecord
100
AcDbLayerTableRecord
  2
画層179
 70
    0
 62
7
  6
CONTINUOUS
  0
LAYER
  5
F0
100
AcDbSymbolTableRecord
100
AcDbLayerTableRecord
  2
画層180
 70
    0
 62
7
  6
CONTINUOUS
  0
LAYER
  5
F1
100
AcDbSymbolTableRecord
100
AcDbLayerTableRecord
  2
画層181
 70
    0
 62
7
  6
CONTINUOUS
  0
LAYER
  5
F2
100
AcDbSymbolTableRecord
100
AcDbLayerTableRecord
  2
画層182
 70
    0
 62
7
  6
CONTINUOUS
  0
LAYER
  5
F3
100
AcDbSymbolTableRecord
100
AcDbLayerTableRecord
  2
画層183
 70
    0
 62
7
  6
CONTINUOUS
  0
LAYER
  5
F4
100
AcDbSymbolTableRecord
100
AcDbLayerTableRecord
  2
画層184
 70
    0
 62
7
  6
CONTINUOUS
  0
LAYER
  5
F5
100
AcDbSymbolTableRecord
100
AcDbLayerTableRecord
  2
画層185
 70
    0
 62
7
  6
CONTINUOUS
  0
LAYER
  5
F6
100
AcDbSymbolTableRecord
100
AcDbLayerTableRecord
  2
画層186
 70
    0
 62
7
  6
CONTINUOUS
  0
LAYER
  5
F7
100
AcDbSymbolTableRecord
100
AcDbLayerTableRecord
  2
画層187
 70
    0
 62
7
  6
CONTINUOUS
  0
LAYER
  5
F8
100
AcDbSymbolTableRecord
100
AcDbLayerTableRecord
  2
画層188
 70
    0
 62
7
  6
CONTINUOUS
  0
LAYER
  5
F9
100
AcDbSymbolTableRecord
100
AcDbLayerTableRecord
  2
画層189
 70
    0
 62
7
  6
CONTINUOUS
  0
LAYER
  5
FA
100
AcDbSymbolTableRecord
100
AcDbLayerTableRecord
  2
画層190
 70
    0
 62
7
  6
CONTINUOUS
  0
LAYER
  5
FB
100
AcDbSymbolTableRecord
100
AcDbLayerTableRecord
  2
画層191
 70
    0
 62
7
  6
CONTINUOUS
  0
LAYER
  5
FC
100
AcDbSymbolTableRecord
100
AcDbLayerTableRecord
  2
画層192
 70
    0
 62
7
  6
CONTINUOUS
  0
LAYER
  5
FD
100
AcDbSymbolTableRecord
100
AcDbLayerTableRecord
  2
画層193
 70
    0
 62
7
  6
CONTINUOUS
  0
LAYER
  5
FE
100
AcDbSymbolTableRecord
100
AcDbLayerTableRecord
  2
画層194
 70
    0
 62
7
  6
CONTINUOUS
  0
LAYER
  5
FF
100
AcDbSymbolTableRecord
100
AcDbLayerTableRecord
  2
画層195
 70
    0
 62
7
  6
CONTINUOUS
  0
LAYER
  5
100
100
AcDbSymbolTableRecord
100
AcDbLayerTableRecord
  2
画層196
 70
    0
 62
7
  6
CONTINUOUS
  0
LAYER
  5
101
100
AcDbSymbolTableRecord
100
AcDbLayerTableRecord
  2
画層197
 70
    0
 62
7
  6
CONTINUOUS
  0
LAYER
  5
102
100
AcDbSymbolTableRecord
100
AcDbLayerTableRecord
  2
画層198
 70
    0
 62
7
  6
CONTINUOUS
  0
LAYER
  5
103
100
AcDbSymbolTableRecord
100
AcDbLayerTableRecord
  2
画層199
 70
    0
 62
7
  6
CONTINUOUS
  0
LAYER
  5
104
100
AcDbSymbolTableRecord
100
AcDbLayerTableRecord
  2
画層200
 70
    0
 62
7
  6
CONTINUOUS
  0
LAYER
  5
105
100
AcDbSymbolTableRecord
100
AcDbLayerTableRecord
  2
画層201
 70
    0
 62
7
  6
CONTINUOUS
  0
LAYER
  5
106
100
AcDbSymbolTableRecord
100
AcDbLayerTableRecord
  2
画層202
 70
    0
 62
7
  6
CONTINUOUS
  0
LAYER
  5
107
100
AcDbSymbolTableRecord
100
AcDbLayerTableRecord
  2
画層203
 70
    0
 62
7
  6
CONTINUOUS
  0
LAYER
  5
108
100
AcDbSymbolTableRecord
100
AcDbLayerTableRecord
  2
画層204
 70
    0
 62
7
  6
CONTINUOUS
  0
LAYER
  5
109
100
AcDbSymbolTableRecord
100
AcDbLayerTableRecord
  2
画層205
 70
    0
 62
7
  6
CONTINUOUS
  0
LAYER
  5
10A
100
AcDbSymbolTableRecord
100
AcDbLayerTableRecord
  2
画層206
 70
    0
 62
7
  6
CONTINUOUS
  0
LAYER
  5
10B
100
AcDbSymbolTableRecord
100
AcDbLayerTableRecord
  2
画層207
 70
    0
 62
7
  6
CONTINUOUS
  0
LAYER
  5
10C
100
AcDbSymbolTableRecord
100
AcDbLayerTableRecord
  2
画層208
 70
    0
 62
7
  6
CONTINUOUS
  0
LAYER
  5
10D
100
AcDbSymbolTableRecord
100
AcDbLayerTableRecord
  2
画層209
 70
    0
 62
7
  6
CONTINUOUS
  0
LAYER
  5
10E
100
AcDbSymbolTableRecord
100
AcDbLayerTableRecord
  2
画層210
 70
    0
 62
7
  6
CONTINUOUS
  0
LAYER
  5
10F
100
AcDbSymbolTableRecord
100
AcDbLayerTableRecord
  2
画層211
 70
    0
 62
7
  6
CONTINUOUS
  0
LAYER
  5
110
100
AcDbSymbolTableRecord
100
AcDbLayerTableRecord
  2
画層212
 70
    0
 62
7
  6
CONTINUOUS
  0
LAYER
  5
111
100
AcDbSymbolTableRecord
100
AcDbLayerTableRecord
  2
画層213
 70
    0
 62
7
  6
CONTINUOUS
  0
LAYER
  5
112
100
AcDbSymbolTableRecord
100
AcDbLayerTableRecord
  2
画層214
 70
    0
 62
7
  6
CONTINUOUS
  0
LAYER
  5
113
100
AcDbSymbolTableRecord
100
AcDbLayerTableRecord
  2
画層215
 70
    0
 62
7
  6
CONTINUOUS
  0
LAYER
  5
114
100
AcDbSymbolTableRecord
100
AcDbLayerTableRecord
  2
画層216
 70
    0
 62
7
  6
CONTINUOUS
  0
LAYER
  5
115
100
AcDbSymbolTableRecord
100
AcDbLayerTableRecord
  2
画層217
 70
    0
 62
7
  6
CONTINUOUS
  0
LAYER
  5
116
100
AcDbSymbolTableRecord
100
AcDbLayerTableRecord
  2
画層218
 70
    0
 62
7
  6
CONTINUOUS
  0
LAYER
  5
117
100
AcDbSymbolTableRecord
100
AcDbLayerTableRecord
  2
画層219
 70
    0
 62
7
  6
CONTINUOUS
  0
LAYER
  5
118
100
AcDbSymbolTableRecord
100
AcDbLayerTableRecord
  2
画層220
 70
    0
 62
7
  6
CONTINUOUS
  0
LAYER
  5
119
100
AcDbSymbolTableRecord
100
AcDbLayerTableRecord
  2
画層221
 70
    0
 62
7
  6
CONTINUOUS
  0
LAYER
  5
11A
100
AcDbSymbolTableRecord
100
AcDbLayerTableRecord
  2
画層222
 70
    0
 62
7
  6
CONTINUOUS
  0
LAYER
  5
11B
100
AcDbSymbolTableRecord
100
AcDbLayerTableRecord
  2
画層223
 70
    0
 62
7
  6
CONTINUOUS
  0
LAYER
  5
11C
100
AcDbSymbolTableRecord
100
AcDbLayerTableRecord
  2
画層224
 70
    0
 62
7
  6
CONTINUOUS
  0
LAYER
  5
11D
100
AcDbSymbolTableRecord
100
AcDbLayerTableRecord
  2
画層225
 70
    0
 62
7
  6
CONTINUOUS
  0
LAYER
  5
11E
100
AcDbSymbolTableRecord
100
AcDbLayerTableRecord
  2
画層226
 70
    0
 62
7
  6
CONTINUOUS
  0
LAYER
  5
11F
100
AcDbSymbolTableRecord
100
AcDbLayerTableRecord
  2
画層227
 70
    0
 62
7
  6
CONTINUOUS
  0
LAYER
  5
120
100
AcDbSymbolTableRecord
100
AcDbLayerTableRecord
  2
画層228
 70
    0
 62
7
  6
CONTINUOUS
  0
LAYER
  5
121
100
AcDbSymbolTableRecord
100
AcDbLayerTableRecord
  2
画層229
 70
    0
 62
7
  6
CONTINUOUS
  0
LAYER
  5
122
100
AcDbSymbolTableRecord
100
AcDbLayerTableRecord
  2
画層230
 70
    0
 62
7
  6
CONTINUOUS
  0
LAYER
  5
123
100
AcDbSymbolTableRecord
100
AcDbLayerTableRecord
  2
画層231
 70
    0
 62
7
  6
CONTINUOUS
  0
LAYER
  5
124
100
AcDbSymbolTableRecord
100
AcDbLayerTableRecord
  2
画層232
 70
    0
 62
7
  6
CONTINUOUS
  0
LAYER
  5
125
100
AcDbSymbolTableRecord
100
AcDbLayerTableRecord
  2
画層233
 70
    0
 62
7
  6
CONTINUOUS
  0
LAYER
  5
126
100
AcDbSymbolTableRecord
100
AcDbLayerTableRecord
  2
画層234
 70
    0
 62
7
  6
CONTINUOUS
  0
LAYER
  5
127
100
AcDbSymbolTableRecord
100
AcDbLayerTableRecord
  2
画層235
 70
    0
 62
7
  6
CONTINUOUS
  0
LAYER
  5
128
100
AcDbSymbolTableRecord
100
AcDbLayerTableRecord
  2
画層236
 70
    0
 62
7
  6
CONTINUOUS
  0
LAYER
  5
129
100
AcDbSymbolTableRecord
100
AcDbLayerTableRecord
  2
画層237
 70
    0
 62
7
  6
CONTINUOUS
  0
LAYER
  5
12A
100
AcDbSymbolTableRecord
100
AcDbLayerTableRecord
  2
画層238
 70
    0
 62
7
  6
CONTINUOUS
  0
LAYER
  5
12B
100
AcDbSymbolTableRecord
100
AcDbLayerTableRecord
  2
画層239
 70
    0
 62
7
  6
CONTINUOUS
  0
LAYER
  5
12C
100
AcDbSymbolTableRecord
100
AcDbLayerTableRecord
  2
画層240
 70
    0
 62
7
  6
CONTINUOUS
  0
LAYER
  5
12D
100
AcDbSymbolTableRecord
100
AcDbLayerTableRecord
  2
画層241
 70
    0
 62
7
  6
CONTINUOUS
  0
LAYER
  5
12E
100
AcDbSymbolTableRecord
100
AcDbLayerTableRecord
  2
画層242
 70
    0
 62
7
  6
CONTINUOUS
  0
LAYER
  5
12F
100
AcDbSymbolTableRecord
100
AcDbLayerTableRecord
  2
画層243
 70
    0
 62
7
  6
CONTINUOUS
  0
LAYER
  5
130
100
AcDbSymbolTableRecord
100
AcDbLayerTableRecord
  2
画層244
 70
    0
 62
7
  6
CONTINUOUS
  0
LAYER
  5
131
100
AcDbSymbolTableRecord
100
AcDbLayerTableRecord
  2
画層245
 70
    0
 62
7
  6
CONTINUOUS
  0
LAYER
  5
132
100
AcDbSymbolTableRecord
100
AcDbLayerTableRecord
  2
画層246
 70
    0
 62
7
  6
CONTINUOUS
  0
LAYER
  5
133
100
AcDbSymbolTableRecord
100
AcDbLayerTableRecord
  2
画層247
 70
    0
 62
7
  6
CONTINUOUS
  0
LAYER
  5
134
100
AcDbSymbolTableRecord
100
AcDbLayerTableRecord
  2
画層248
 70
    0
 62
7
  6
CONTINUOUS
  0
LAYER
  5
135
100
AcDbSymbolTableRecord
100
AcDbLayerTableRecord
  2
画層249
 70
    0
 62
7
  6
CONTINUOUS
  0
LAYER
  5
136
100
AcDbSymbolTableRecord
100
AcDbLayerTableRecord
  2
画層250
 70
    0
 62
7
  6
CONTINUOUS
  0
LAYER
  5
137
100
AcDbSymbolTableRecord
100
AcDbLayerTableRecord
  2
画層251
 70
    0
 62
7
  6
CONTINUOUS
  0
LAYER
  5
138
100
AcDbSymbolTableRecord
100
AcDbLayerTableRecord
  2
画層252
 70
    0
 62
7
  6
CONTINUOUS
  0
LAYER
  5
139
100
AcDbSymbolTableRecord
100
AcDbLayerTableRecord
  2
画層253
 70
    0
 62
7
  6
CONTINUOUS
  0
LAYER
  5
13A
100
AcDbSymbolTableRecord
100
AcDbLayerTableRecord
  2
画層254
 70
    0
 62
7
  6
CONTINUOUS
  0
LAYER
  5
13B
100
AcDbSymbolTableRecord
100
AcDbLayerTableRecord
  2
画層255
 70
    0
 62
7
  6
CONTINUOUS
  0
ENDTAB
  0
TABLE
  2
STYLE
  5
4
100
AcDbSymbolTable
 70
     1
  0
STYLE
  5
13C
100
AcDbSymbolTableRecord
100
AcDbTextStyleTableRecord
  2
Standard
 70
     0
 40
0.0
 41
1.0
 50
0.0
 71
     0
 42
3.2
  3
TXT
  4
BIGFONT
  0
STYLE
  5
13D
100
AcDbSymbolTableRecord
100
AcDbTextStyleTableRecord
  2
Font_0
 70
     0
 40
0.0
 41
1.0
 50
0.0
 71
     0
 42
3.2
  3
MS Gothic.ttf
  4

1001
ACAD
1000
MS Gothic
1071
  32817
  0
STYLE
  5
13E
100
AcDbSymbolTableRecord
100
AcDbTextStyleTableRecord
  2
Font_1
 70
     0
 40
0.0
 41
1.0
 50
0.0
 71
     0
 42
3.2
  3
MS Gothic.ttf
  4

1001
ACAD
1000
@MS Gothic
1071
  32817
  0
ENDTAB
  0
TABLE
  2
VIEW
  5
5
100
AcDbSymbolTable
 70
     0
  0
ENDTAB
  0
TABLE
  2
UCS
  5
6
100
AcDbSymbolTable
 70
     0
  0
ENDTAB
  0
TABLE
  2
APPID
  5
7
100
AcDbSymbolTable
 70
     1
  0
APPID
  5
13F
100
AcDbSymbolTableRecord
100
AcDbRegAppTableRecord
  2
ACAD
 70
     0
  0
ENDTAB
  0
TABLE
  2
DIMSTYLE
  5
8
100
AcDbSymbolTable
 70
     1
  0
DIMSTYLE
105
2A
100
AcDbSymbolTableRecord
100
AcDbDimStyleTableRecord
  2
STANDARD
 70
     0
  3

  4

  5

  6

  7

 40
1.0
 41
2.5
 42
2.0
 43
7.0
 44
1.25
 45
0.0
 46
0.0
 47
0.0
 48
0.0
 71
     0
 72
     0
 73
     0
 74
     0
 75
     0
 76
     0
 77
     1
 78
     0
140
2.5
141
2.5
142
0.0
143
0.0394
144
1.0
145
0.0
146
1.0
147
1.0
170
     0
171
     2
172
     0
173
     0
174
     1
175
     0
176
     0
177
     0
178
     0
270
     2
271
     2
272
     4
273
     2
274
     2
275
     0
280
     0
281
     0
282
     0
283
     1
284
     0
285
     0
286
     0
287
     3
288
     0
  0
ENDTAB
  0
TABLE
  2
BLOCK_RECORD
  5
9
100
AcDbSymbolTable
 70
     0
  0
BLOCK_RECORD
  5
140
100
AcDbSymbolTableRecord
100
AcDbBlockTableRecord
  2
*MODEL_SPACE
  0
BLOCK_RECORD
  5
141
100
AcDbSymbolTableRecord
100
AcDbBlockTableRecord
  2
*PAPER_SPACE
  0
BLOCK_RECORD
  5
142
100
AcDbSymbolTableRecord
100
AcDbBlockTableRecord
  2
0
  0
BLOCK_RECORD
  5
143
100
AcDbSymbolTableRecord
100
AcDbBlockTableRecord
  2
A4
  0
BLOCK_RECORD
  5
144
100
AcDbSymbolTableRecord
100
AcDbBlockTableRecord
  2
NOTE
  0
BLOCK_RECORD
  5
145
100
AcDbSymbolTableRecord
100
AcDbBlockTableRecord
  2
BASE
  0
BLOCK_RECORD
  5
146
100
AcDbSymbolTableRecord
100
AcDbBlockTableRecord
  2
LIST
  0
BLOCK_RECORD
  5
147
100
AcDbSymbolTableRecord
100
AcDbBlockTableRecord
  2
A4ｹﾏｮﾘ
  0
BLOCK_RECORD
  5
148
100
AcDbSymbolTableRecord
100
AcDbBlockTableRecord
  2
A
  0
BLOCK_RECORD
  5
149
100
AcDbSymbolTableRecord
100
AcDbBlockTableRecord
  2
AR
  0
BLOCK_RECORD
  5
14A
100
AcDbSymbolTableRecord
100
AcDbBlockTableRecord
  2
JAME
  0
BLOCK_RECORD
  5
14B
100
AcDbSymbolTableRecord
100
AcDbBlockTableRecord
  2
A$C7E3A6B22
  0
BLOCK_RECORD
  5
14C
100
AcDbSymbolTableRecord
100
AcDbBlockTableRecord
  2
A$C599E6304
  0
BLOCK_RECORD
  5
14D
100
AcDbSymbolTableRecord
100
AcDbBlockTableRecord
  2
A$C380779D9
  0
BLOCK_RECORD
  5
14E
100
AcDbSymbolTableRecord
100
AcDbBlockTableRecord
  2
A$C117F36C9
  0
BLOCK_RECORD
  5
14F
100
AcDbSymbolTableRecord
100
AcDbBlockTableRecord
  2
A$C240B4253
  0
ENDTAB
  0
ENDSEC
  0
SECTION
  2
BLOCKS
  0
BLOCK
  5
151
100
AcDbEntity
  8
0
100
AcDbBlockBegin
2
*MODEL_SPACE
 70
     0
 10
0.0
 20
0.0
 30
0.0
  3
*MODEL_SPACE
  1

  0
ENDBLK
  5
152
100
AcDbEntity
  8
0
100
AcDbBlockEnd
  0
BLOCK
  5
153
100
AcDbEntity
 67
     1
  8
0
100
AcDbBlockBegin
  2
*PAPER_SPACE
 70
     0
 10
0.0
 20
0.0
 30
0.0
  3
*PAPER_SPACE
  1

  0
ENDBLK
  5
154
100
AcDbEntity
 67
     1
  8
0
100
AcDbBlockEnd
  0
BLOCK
  5
155
100
AcDbEntity
  8
0
100
AcDbBlockBegin
  2
0
 70
    0
 10
0
 20
0
 30
0.0
  3
0
  1

  0
LINE
  5
156
100
AcDbEntity
  8
0
100
AcDbLine
  6
BYLAYER
 10
1
 20
1
 11
97.85
 21
1
  0
LINE
  5
157
100
AcDbEntity
  8
0
100
AcDbLine
  6
BYLAYER
 10
1
 20
201
 11
1
 21
1
  0
LINE
  5
158
100
AcDbEntity
  8
0
100
AcDbLine
  6
BYLAYER
 10
1
 20
1
 11
1
 21
35
  0
LINE
  5
159
100
AcDbEntity
  8
0
100
AcDbLine
  6
BYLAYER
 10
1
 20
7
 11
290
 21
7
  0
LINE
  5
15A
100
AcDbEntity
  8
0
100
AcDbLine
  6
BYLAYER
 10
1
 20
13
 11
290
 21
13
  0
LINE
  5
15B
100
AcDbEntity
  8
0
100
AcDbLine
  6
BYLAYER
 10
97.85
 20
19
 11
290
 21
19
  0
LINE
  5
15C
100
AcDbEntity
  8
0
100
AcDbLine
  6
BYLAYER
 10
98
 20
25
 11
290
 21
25
  0
LINE
  5
15D
100
AcDbEntity
  8
0
100
AcDbLine
  6
BYLAYER
 10
98
 20
31
 11
290
 21
31
  0
LINE
  5
15E
100
AcDbEntity
  8
0
100
AcDbLine
  6
BYLAYER
 10
214
 20
37
 11
214
 21
1
  0
LINE
  5
15F
100
AcDbEntity
  8
0
100
AcDbLine
  6
BYLAYER
 10
233
 20
37
 11
233
 21
1
  0
LINE
  5
160
100
AcDbEntity
  8
0
100
AcDbLine
  6
BYLAYER
 10
196.025
 20
31
 11
196.025
 21
1
  0
LINE
  5
161
100
AcDbEntity
  8
0
100
AcDbLine
  6
BYLAYER
 10
196.025
 20
31
 11
290
 21
31
  0
LINE
  5
162
100
AcDbEntity
  8
0
100
AcDbLine
  6
BYLAYER
 10
196.025
 20
1
 11
290
 21
1
  0
LINE
  5
163
100
AcDbEntity
  8
0
100
AcDbLine
  6
BYLAYER
 10
196.15
 20
37
 11
196.15
 21
1
  0
LINE
  5
164
100
AcDbEntity
  8
0
100
AcDbLine
  6
BYLAYER
 10
195.85
 20
37
 11
195.85
 21
1
  0
LINE
  5
165
100
AcDbEntity
  8
0
100
AcDbLine
  6
BYLAYER
 10
98.15
 20
37
 11
98.15
 21
1
  0
LINE
  5
166
100
AcDbEntity
  8
0
100
AcDbLine
  6
BYLAYER
 10
98.15
 20
31
 11
195.85
 21
31
  0
LINE
  5
167
100
AcDbEntity
  8
0
100
AcDbLine
  6
BYLAYER
 10
98.15
 20
1
 11
195.85
 21
1
  0
LINE
  5
168
100
AcDbEntity
  8
0
100
AcDbLine
  6
BYLAYER
 10
97.85
 20
37
 11
97.85
 21
1
  0
LINE
  5
169
100
AcDbEntity
  8
0
100
AcDbLine
  6
BYLAYER
 10
145
 20
37
 11
145
 21
1
  0
LINE
  5
16A
100
AcDbEntity
  8
0
100
AcDbLine
  6
BYLAYER
 10
115
 20
37
 11
115
 21
1
  0
LINE
  5
16B
100
AcDbEntity
  8
0
100
AcDbLine
  6
BYLAYER
 10
164
 20
37
 11
164
 21
1
  0
LINE
  5
16C
100
AcDbEntity
  8
0
100
AcDbLine
  6
BYLAYER
 10
49
 20
13
 11
49
 21
1
  0
LINE
  5
16D
100
AcDbEntity
  8
0
100
AcDbLine
  6
BYLAYER
 10
14
 20
13
 11
14
 21
1
  0
LINE
  5
16E
100
AcDbEntity
  8
0
100
AcDbLine
  6
BYLAYER
 10
63
 20
13
 11
63
 21
1
  0
TEXT
  5
16F
100
AcDbEntity
  8
0
100
AcDbText
  6
BYLAYER
 10
3
 20
7.72940914028269
 40
3
  1
TEL
  7
Font_0
100
AcDbText
  0
TEXT
  5
170
100
AcDbEntity
  8
0
100
AcDbText
  6
BYLAYER
 10
51
 20
7.91176142535337
 40
3
  1
FAX
  7
Font_0
100
AcDbText
  0
TEXT
  5
171
100
AcDbEntity
  8
0
100
AcDbText
  6
BYLAYER
 10
16.5400336288223
 20
8.09411371042404
 40
3
  1
(04)3322627
  7
Font_0
100
AcDbText
  0
TEXT
  5
172
100
AcDbEntity
  8
0
100
AcDbText
  6
BYLAYER
 10
67
 20
8.09411371042404
 40
3
  1
(04)3322629
  7
Font_0
100
AcDbText
  0
LINE
  5
173
100
AcDbEntity
  8
0
100
AcDbLine
  6
BYLAYER
 10
1
 20
37
 11
290
 21
37
  0
TEXT
  5
174
100
AcDbEntity
  8
0
100
AcDbText
  6
BYLAYER
 10
40.6536662502908
 20
8.06055328395253
 40
3
  1
~8
  7
Font_0
100
AcDbText
  0
TEXT
  5
175
100
AcDbEntity
  8
0
100
AcDbText
  6
BYLAYER
 10
99.7036913346956
 20
32.2639399057443
 40
4
  1
･D ｺﾞ
  7
Font_0
100
AcDbText
  0
TEXT
  5
176
100
AcDbEntity
  8
0
100
AcDbText
  6
BYLAYER
 10
99.7036913346956
 20
25.6992573518645
 40
4
  1
ｮﾖ ｹ�
  7
Font_0
100
AcDbText
  0
TEXT
  5
177
100
AcDbEntity
  8
0
100
AcDbText
  6
BYLAYER
 10
99.8861871848885
 20
19.8639838602288
 40
4
  1
ﾃｸ ｹﾏ
  7
Font_0
100
AcDbText
  0
TEXT
  5
178
100
AcDbEntity
  8
0
100
AcDbText
  6
BYLAYER
 10
99.8861871848885
 20
13.8463581030321
 40
4
  1
ｾ� ｺﾘ
  7
Font_0
100
AcDbText
  0
TEXT
  5
179
100
AcDbEntity
  8
0
100
AcDbText
  6
BYLAYER
 10
100.068683035081
 20
7.82873284267693
 40
4
  1
ｫ~ ｦW
  7
Font_0
100
AcDbText
  0
TEXT
  5
17A
100
AcDbEntity
  8
0
100
AcDbText
  6
BYLAYER
 10
100.068683035081
 20
1.99345935104124
 40
4
  1
ｹﾏ ｸｹ
  7
Font_0
100
AcDbText
  0
TEXT
  5
17B
100
AcDbEntity
  8
0
100
AcDbText
  6
BYLAYER
 10
146.605123404095
 20
31.8992353746223
 40
4
  1
ｧ� ｽ�
  7
Font_0
100
AcDbText
  0
TEXT
  5
17C
100
AcDbEntity
  8
0
100
AcDbText
  6
BYLAYER
 10
146.605123404095
 20
25.8816096174256
 40
4
  1
､� ｨﾒ
  7
Font_0
100
AcDbText
  0
TEXT
  5
17D
100
AcDbEntity
  8
0
100
AcDbText
  6
BYLAYER
 10
146.787619254287
 20
20.0463361257899
 40
4
  1
ｼﾆ ｶq
  7
Font_0
100
AcDbText
  0
TEXT
  5
17E
100
AcDbEntity
  8
0
100
AcDbText
  6
BYLAYER
 10
146.97011510448
 20
14.0287103685931
 40
4
  1
ｳ� ｦ�
  7
Font_0
100
AcDbText
  0
TEXT
  5
17F
100
AcDbEntity
  8
0
100
AcDbText
  6
BYLAYER
 10
146.422627553902
 20
8.01108510823795
 40
4
  1
ｪ揵ｱｳBｲz
  7
Font_0
100
AcDbText
  0
TEXT
  5
180
100
AcDbEntity
  8
0
100
AcDbText
  6
BYLAYER
 10
146.605123404095
 20
2.17581161660226
 40
4
  1
ｻsｹﾏ､魘ﾁ
  7
Font_0
100
AcDbText
  0
TEXT
  5
181
100
AcDbEntity
  8
0
100
AcDbText
  6
BYLAYER
 10
197.77841370095
 20
32.2399819360484
 40
4
  1
､� ｴﾁ
  7
Font_0
100
AcDbText
  0
TEXT
  5
182
100
AcDbEntity
  8
0
100
AcDbText
  6
BYLAYER
 10
215.423238216157
 20
32.0275605512105
 40
4
  1
ｭt
  7
Font_0
100
AcDbText
  0
TEXT
  5
183
100
AcDbEntity
  8
0
100
AcDbText
  6
BYLAYER
 10
221.375709026727
 20
31.815139655317
 40
4
  1
ｳd
  7
Font_0
100
AcDbText
  0
TEXT
  5
184
100
AcDbEntity
  8
0
100
AcDbText
  6
BYLAYER
 10
227.328179837297
 20
31.815139655317
 40
4
  1
､H
  7
Font_0
100
AcDbText
  0
TEXT
  5
185
100
AcDbEntity
  8
0
100
AcDbText
  6
BYLAYER
 10
239.020533541933
 20
32.0275605512105
 40
4
  1
ｧ�
  7
Font_0
100
AcDbText
  0
TEXT
  5
186
100
AcDbEntity
  8
0
100
AcDbText
  6
BYLAYER
 10
251.98841615305
 20
32.0275605512105
 40
4
  1
ｧ�
  7
Font_0
100
AcDbText
  0
TEXT
  5
187
100
AcDbEntity
  8
0
100
AcDbText
  6
BYLAYER
 10
264.531122227431
 20
32.0275605512105
 40
4
  1
､ｺ
  7
Font_0
100
AcDbText
  0
TEXT
  5
188
100
AcDbEntity
  8
0
100
AcDbText
  6
BYLAYER
 10
276.436064552298
 20
31.815139655317
 40
4
  1
ｮe
  7
Font_0
100
AcDbText
  0
TEXT
  5
189
100
AcDbEntity
  8
0
100
AcDbText
  6
BYLAYER
 10
23.0468952754036
 20
24.3731292136772
 40
7
  1
ｫﾘｷﾔ､uｷ~ｪﾑ･ｳｭｭ､ｽ･q
  7
Font_0
100
AcDbText
  0
TEXT
  5
18A
100
AcDbEntity
  8
0
100
AcDbText
  6
BYLAYER
 10
22.2780828500217
 20
15.9228468305838
 40
3
  1
CHIEN YU INDUSTRIAL CO.,LTD.
  7
Font_0
100
AcDbText
  0
CIRCLE
  5
18B
100
AcDbEntity
  8
0
100
AcDbCircle
  6
BYLAYER
 10
11.1054905349494
 20
25.350263158651
 40
9.36463111331499
  0
CIRCLE
  5
18C
100
AcDbEntity
  8
0
100
AcDbCircle
  6
BYLAYER
 10
11.1054905349494
 20
25.350263158651
 40
7.62237416200057
  0
ARC
  5
18D
100
AcDbEntity
  8
0
100
AcDbCircle
  6
BYLAYER
 10
11.1054905349494
 20
25.350263158651
 40
4.41008790801462
100
AcDbArc
 50
90
 51
0
  0
LINE
  5
18E
100
AcDbEntity
  8
0
100
AcDbLine
  6
BYLAYER
 10
11.1054905349494
 20
29.7603510666656
 11
16.2233703294355
 21
29.7603510666656
  0
LINE
  5
18F
100
AcDbEntity
  8
0
100
AcDbLine
  6
BYLAYER
 10
15.515578442964
 20
25.350263158651
 11
16.4411524483498
 21
25.350263158651
  0
TEXT
  5
190
100
AcDbEntity
  8
0
100
AcDbText
  6
BYLAYER
 10
8.49210581170386
 20
22.8477388856442
 40
5
  1
Y
  7
Font_0
100
AcDbText
  0
ARC
  5
191
100
AcDbEntity
  8
0
100
AcDbCircle
  6
BYLAYER
 10
11.5745216067836
 20
33.8983997393573
 40
0.704372460813671
100
AcDbArc
 50
83.8529806316668
 51
239.250071636948
  0
ARC
  5
192
100
AcDbEntity
  8
0
100
AcDbCircle
  6
BYLAYER
 10
7.23761506796891
 20
32.9876821284788
 40
0.704372460813671
100
AcDbArc
 50
113.852980631667
 51
269.250071636948
  0
ARC
  5
193
100
AcDbEntity
  8
0
100
AcDbCircle
  6
BYLAYER
 10
3.93710263695578
 20
30.0305242723769
 40
0.704372460813671
100
AcDbArc
 50
143.852980631667
 51
299.250071636948
  0
ARC
  5
194
100
AcDbEntity
  8
0
100
AcDbCircle
  6
BYLAYER
 10
2.55735395424305
 20
25.8192942304852
 40
0.704372460813671
100
AcDbArc
 50
173.852980631667
 51
329.250071636948
  0
ARC
  5
195
100
AcDbEntity
  8
0
100
AcDbCircle
  6
BYLAYER
 10
3.46807156512152
 20
21.4823876916705
 40
0.704372460813671
100
AcDbArc
 50
203.852980631667
 51
359.250071636948
  0
ARC
  5
196
100
AcDbEntity
  8
0
100
AcDbCircle
  6
BYLAYER
 10
6.42522942122351
 20
18.1818752606574
 40
0.704372460813671
100
AcDbArc
 50
233.852980631667
 51
29.2500716369476
  0
ARC
  5
197
100
AcDbEntity
  8
0
100
AcDbCircle
  6
BYLAYER
 10
10.6364594631151
 20
16.8021265779447
 40
0.704372460813671
100
AcDbArc
 50
263.852980631667
 51
59.2500716369476
  0
ARC
  5
198
100
AcDbEntity
  8
0
100
AcDbCircle
  6
BYLAYER
 10
14.9733660019298
 20
17.7128441888231
 40
0.704372460813671
100
AcDbArc
 50
293.852980631667
 51
89.2500716369476
  0
ARC
  5
199
100
AcDbEntity
  8
0
100
AcDbCircle
  6
BYLAYER
 10
18.273878432943
 20
20.6700020449251
 40
0.704372460813671
100
AcDbArc
 50
323.852980631667
 51
119.250071636948
  0
ARC
  5
19A
100
AcDbEntity
  8
0
100
AcDbCircle
  6
BYLAYER
 10
19.6536271156557
 20
24.8812320868167
 40
0.704372460813671
100
AcDbArc
 50
353.852980631667
 51
149.250071636948
  0
ARC
  5
19B
100
AcDbEntity
  8
0
100
AcDbCircle
  6
BYLAYER
 10
18.7429095047772
 20
29.2181386256314
 40
0.704372460813671
100
AcDbArc
 50
23.8529806316668
 51
179.250071636948
  0
ARC
  5
19C
100
AcDbEntity
  8
0
100
AcDbCircle
  6
BYLAYER
 10
15.7857516486752
 20
32.5186510566446
 40
0.704372460813671
100
AcDbArc
 50
53.8529806316668
 51
209.250071636948
  0
LINE
  5
19D
100
AcDbEntity
  8
0
100
AcDbLine
  6
BYLAYER
 10
1
 20
201
 11
290
 21
201
  0
LINE
  5
19E
100
AcDbEntity
  8
0
100
AcDbLine
  6
BYLAYER
 10
290
 20
201
 11
290
 21
1
  0
ENDBLK
  5
19F
100
AcDbEntity
  8
0
 67
     1
100
AcDbBlockEnd
  0
BLOCK
  5
1A0
100
AcDbEntity
  8
0
100
AcDbBlockBegin
  2
A4
 70
    0
 10
0
 20
0
 30
0.0
  3
A4
  1

  0
TEXT
  5
1A1
100
AcDbEntity
  8
0
100
AcDbText
  6
BYLAYER
 10
121.243373757434
 20
22.64898098486
 40
4.8
  1
ｿ� ｪ｢ ｵo
  7
Font_0
100
AcDbText
  0
TEXT
  5
1A2
100
AcDbEntity
  8
0
100
AcDbText
  6
BYLAYER
 10
175.643149157513
 20
16.5268633951276
 40
4.8
  1
M/M
  7
Font_0
100
AcDbText
  0
INSERT
  5
1A3
100
AcDbEntity
  8
0
100
AcDbBlockReference
  6
CONTINUOUS
  2
0
 10
2.77414193339833
 20
3.05830958210858
 30
0.0
  0
ENDBLK
  5
1A4
100
AcDbEntity
  8
0
 67
     1
100
AcDbBlockEnd
  0
BLOCK
  5
1A5
100
AcDbEntity
  8
0
100
AcDbBlockBegin
  2
NOTE
 70
    0
 10
0
 20
0
 30
0.0
  3
NOTE
  1

  0
LINE
  5
1A6
100
AcDbEntity
  8
0
100
AcDbLine
  6
BYLAYER
 10
0
 20
48
 11
244.5
 21
48
  0
LINE
  5
1A7
100
AcDbEntity
  8
0
100
AcDbLine
  6
BYLAYER
 10
0
 20
42
 11
244.5
 21
42
  0
LINE
  5
1A8
100
AcDbEntity
  8
0
100
AcDbLine
  6
BYLAYER
 10
0
 20
36
 11
244.5
 21
36
  0
LINE
  5
1A9
100
AcDbEntity
  8
0
100
AcDbLine
  6
BYLAYER
 10
0
 20
30
 11
244.5
 21
30
  0
LINE
  5
1AA
100
AcDbEntity
  8
0
100
AcDbLine
  6
BYLAYER
 10
0
 20
24
 11
244.5
 21
24
  0
LINE
  5
1AB
100
AcDbEntity
  8
0
100
AcDbLine
  6
BYLAYER
 10
0
 20
18
 11
244.5
 21
18
  0
LINE
  5
1AC
100
AcDbEntity
  8
0
100
AcDbLine
  6
BYLAYER
 10
0
 20
12
 11
244.5
 21
12
  0
LINE
  5
1AD
100
AcDbEntity
  8
0
100
AcDbLine
  6
BYLAYER
 10
0
 20
6
 11
244.5
 21
6
  0
LINE
  5
1AE
100
AcDbEntity
  8
0
100
AcDbLine
  6
BYLAYER
 62
3
 10
196.307106781187
 20
0.707106781186553
 11
211.192893218814
 21
0.707106781186553
  0
LINE
  5
1AF
100
AcDbEntity
  8
0
100
AcDbLine
  6
BYLAYER
 62
3
 10
196.307106781187
 20
6.70710678118655
 11
211.192893218814
 21
6.70710678118655
  0
LINE
  5
1B0
100
AcDbEntity
  8
0
100
AcDbLine
  6
BYLAYER
 62
3
 10
196.307106781187
 20
12.7071067811866
 11
211.192893218814
 21
12.7071067811866
  0
LINE
  5
1B1
100
AcDbEntity
  8
0
100
AcDbLine
  6
BYLAYER
 62
3
 10
196.307106781187
 20
18.7071067811866
 11
211.192893218814
 21
18.7071067811866
  0
LINE
  5
1B2
100
AcDbEntity
  8
0
100
AcDbLine
  6
BYLAYER
 62
3
 10
196.307106781187
 20
24.7071067811866
 11
211.192893218814
 21
24.7071067811866
  0
LINE
  5
1B3
100
AcDbEntity
  8
0
100
AcDbLine
  6
BYLAYER
 62
3
 10
196.307106781187
 20
30.7071067811865
 11
211.192893218814
 21
30.7071067811865
  0
LINE
  5
1B4
100
AcDbEntity
  8
0
100
AcDbLine
  6
BYLAYER
 62
3
 10
196.307106781187
 20
36.7071067811866
 11
211.192893218814
 21
36.7071067811866
  0
LINE
  5
1B5
100
AcDbEntity
  8
0
100
AcDbLine
  6
BYLAYER
 62
3
 10
65.9071067811866
 20
0.707106781186553
 11
80.7928932188135
 21
0.707106781186553
  0
LINE
  5
1B6
100
AcDbEntity
  8
0
100
AcDbLine
  6
BYLAYER
 62
3
 10
65.9071067811866
 20
6.70710678118655
 11
80.7928932188135
 21
6.70710678118655
  0
LINE
  5
1B7
100
AcDbEntity
  8
0
100
AcDbLine
  6
BYLAYER
 62
3
 10
65.9071067811866
 20
12.7071067811866
 11
80.7928932188135
 21
12.7071067811866
  0
LINE
  5
1B8
100
AcDbEntity
  8
0
100
AcDbLine
  6
BYLAYER
 62
3
 10
65.9071067811866
 20
18.7071067811866
 11
80.7928932188135
 21
18.7071067811866
  0
LINE
  5
1B9
100
AcDbEntity
  8
0
100
AcDbLine
  6
BYLAYER
 62
3
 10
65.9071067811866
 20
24.7071067811866
 11
80.7928932188135
 21
24.7071067811866
  0
LINE
  5
1BA
100
AcDbEntity
  8
0
100
AcDbLine
  6
BYLAYER
 62
3
 10
65.9071067811866
 20
30.7071067811865
 11
80.7928932188135
 21
30.7071067811865
  0
LINE
  5
1BB
100
AcDbEntity
  8
0
100
AcDbLine
  6
BYLAYER
 62
3
 10
65.9071067811866
 20
36.7071067811866
 11
80.7928932188135
 21
36.7071067811866
  0
LINE
  5
1BC
100
AcDbEntity
  8
0
100
AcDbLine
  6
BYLAYER
 10
65.2
 20
48
 11
65.2
 21
0
  0
LINE
  5
1BD
100
AcDbEntity
  8
0
100
AcDbLine
  6
BYLAYER
 10
32.6
 20
48
 11
32.6
 21
0
  0
LINE
  5
1BE
100
AcDbEntity
  8
0
100
AcDbLine
  6
BYLAYER
 10
16.3
 20
48
 11
16.3
 21
0
  0
LINE
  5
1BF
100
AcDbEntity
  8
0
100
AcDbLine
  6
BYLAYER
 10
48.9
 20
48
 11
48.9
 21
0
  0
LINE
  5
1C0
100
AcDbEntity
  8
0
100
AcDbLine
  6
BYLAYER
 62
3
 10
0.707106781186548
 20
0.707106781186553
 11
15.5928932188134
 21
0.707106781186553
  0
LINE
  5
1C1
100
AcDbEntity
  8
0
100
AcDbLine
  6
BYLAYER
 62
3
 10
0.707106781186548
 20
6.70710678118655
 11
15.5928932188134
 21
6.70710678118655
  0
LINE
  5
1C2
100
AcDbEntity
  8
0
100
AcDbLine
  6
BYLAYER
 62
3
 10
0.707106781186548
 20
12.7071067811866
 11
15.5928932188134
 21
12.7071067811866
  0
LINE
  5
1C3
100
AcDbEntity
  8
0
100
AcDbLine
  6
BYLAYER
 62
3
 10
0.707106781186548
 20
18.7071067811866
 11
15.5928932188134
 21
18.7071067811866
  0
LINE
  5
1C4
100
AcDbEntity
  8
0
100
AcDbLine
  6
BYLAYER
 62
3
 10
33.3071067811865
 20
0.707106781186553
 11
48.1928932188135
 21
0.707106781186553
  0
LINE
  5
1C5
100
AcDbEntity
  8
0
100
AcDbLine
  6
BYLAYER
 62
3
 10
33.3071067811865
 20
6.70710678118655
 11
48.1928932188135
 21
6.70710678118655
  0
LINE
  5
1C6
100
AcDbEntity
  8
0
100
AcDbLine
  6
BYLAYER
 62
3
 10
33.3071067811865
 20
12.7071067811866
 11
48.1928932188135
 21
12.7071067811866
  0
LINE
  5
1C7
100
AcDbEntity
  8
0
100
AcDbLine
  6
BYLAYER
 62
3
 10
33.3071067811865
 20
18.7071067811866
 11
48.1928932188135
 21
18.7071067811866
  0
LINE
  5
1C8
100
AcDbEntity
  8
0
100
AcDbLine
  6
BYLAYER
 62
3
 10
17.0071067811865
 20
0.707106781186553
 11
31.8928932188135
 21
0.707106781186553
  0
LINE
  5
1C9
100
AcDbEntity
  8
0
100
AcDbLine
  6
BYLAYER
 62
3
 10
17.0071067811865
 20
6.70710678118655
 11
31.8928932188135
 21
6.70710678118655
  0
LINE
  5
1CA
100
AcDbEntity
  8
0
100
AcDbLine
  6
BYLAYER
 62
3
 10
17.0071067811865
 20
12.7071067811866
 11
31.8928932188135
 21
12.7071067811866
  0
LINE
  5
1CB
100
AcDbEntity
  8
0
100
AcDbLine
  6
BYLAYER
 62
3
 10
17.0071067811865
 20
18.7071067811866
 11
31.8928932188135
 21
18.7071067811866
  0
LINE
  5
1CC
100
AcDbEntity
  8
0
100
AcDbLine
  6
BYLAYER
 62
3
 10
49.6071067811866
 20
0.707106781186553
 11
64.4928932188135
 21
0.707106781186553
  0
LINE
  5
1CD
100
AcDbEntity
  8
0
100
AcDbLine
  6
BYLAYER
 62
3
 10
49.6071067811866
 20
6.70710678118655
 11
64.4928932188135
 21
6.70710678118655
  0
LINE
  5
1CE
100
AcDbEntity
  8
0
100
AcDbLine
  6
BYLAYER
 62
3
 10
49.6071067811866
 20
12.7071067811866
 11
64.4928932188135
 21
12.7071067811866
  0
LINE
  5
1CF
100
AcDbEntity
  8
0
100
AcDbLine
  6
BYLAYER
 62
3
 10
49.6071067811866
 20
18.7071067811866
 11
64.4928932188135
 21
18.7071067811866
  0
LINE
  5
1D0
100
AcDbEntity
  8
0
100
AcDbLine
  6
BYLAYER
 62
3
 10
0.707106781186548
 20
24.7071067811866
 11
15.5928932188134
 21
24.7071067811866
  0
LINE
  5
1D1
100
AcDbEntity
  8
0
100
AcDbLine
  6
BYLAYER
 62
3
 10
0.707106781186548
 20
30.7071067811865
 11
15.5928932188134
 21
30.7071067811865
  0
LINE
  5
1D2
100
AcDbEntity
  8
0
100
AcDbLine
  6
BYLAYER
 62
3
 10
0.707106781186548
 20
36.7071067811866
 11
15.5928932188134
 21
36.7071067811866
  0
TEXT
  5
1D3
100
AcDbEntity
  8
0
100
AcDbText
  6
BYLAYER
 10
5.67126064773777
 20
43.5
 40
3
  1
､u･O
  7
Font_0
100
AcDbText
  0
LINE
  5
1D4
100
AcDbEntity
  8
0
100
AcDbLine
  6
BYLAYER
 62
3
 10
33.3071067811865
 20
24.7071067811866
 11
48.1928932188135
 21
24.7071067811866
  0
LINE
  5
1D5
100
AcDbEntity
  8
0
100
AcDbLine
  6
BYLAYER
 62
3
 10
33.3071067811865
 20
30.7071067811865
 11
48.1928932188135
 21
30.7071067811865
  0
LINE
  5
1D6
100
AcDbEntity
  8
0
100
AcDbLine
  6
BYLAYER
 62
3
 10
33.3071067811865
 20
36.7071067811866
 11
48.1928932188135
 21
36.7071067811866
  0
LINE
  5
1D7
100
AcDbEntity
  8
0
100
AcDbLine
  6
BYLAYER
 62
3
 10
17.0071067811865
 20
24.7071067811866
 11
31.8928932188135
 21
24.7071067811866
  0
LINE
  5
1D8
100
AcDbEntity
  8
0
100
AcDbLine
  6
BYLAYER
 62
3
 10
17.0071067811865
 20
30.7071067811865
 11
31.8928932188135
 21
30.7071067811865
  0
LINE
  5
1D9
100
AcDbEntity
  8
0
100
AcDbLine
  6
BYLAYER
 62
3
 10
17.0071067811865
 20
36.7071067811866
 11
31.8928932188135
 21
36.7071067811866
  0
TEXT
  5
1DA
100
AcDbEntity
  8
0
100
AcDbText
  6
BYLAYER
 10
21.3781148184937
 20
43.5
 40
3
  1
ｽsｸｹ
  7
Font_0
100
AcDbText
  0
TEXT
  5
1DB
100
AcDbEntity
  8
0
100
AcDbText
  6
BYLAYER
 10
39.5
 20
43.5
 40
3
  1
A
  7
Font_0
100
AcDbText
  0
LINE
  5
1DC
100
AcDbEntity
  8
0
100
AcDbLine
  6
BYLAYER
 62
3
 10
49.6071067811866
 20
24.7071067811866
 11
64.4928932188135
 21
24.7071067811866
  0
LINE
  5
1DD
100
AcDbEntity
  8
0
100
AcDbLine
  6
BYLAYER
 62
3
 10
49.6071067811866
 20
30.7071067811865
 11
64.4928932188135
 21
30.7071067811865
  0
LINE
  5
1DE
100
AcDbEntity
  8
0
100
AcDbLine
  6
BYLAYER
 62
3
 10
49.6071067811866
 20
36.7071067811866
 11
64.4928932188135
 21
36.7071067811866
  0
TEXT
  5
1DF
100
AcDbEntity
  8
0
100
AcDbText
  6
BYLAYER
 10
56
 20
43.5
 40
3
  1
B
  7
Font_0
100
AcDbText
  0
TEXT
  5
1E0
100
AcDbEntity
  8
0
100
AcDbText
  6
BYLAYER
 10
72.5
 20
43.5
 40
3
  1
C
  7
Font_0
100
AcDbText
  0
LINE
  5
1E1
100
AcDbEntity
  8
0
100
AcDbLine
  6
BYLAYER
 10
163
 20
48
 11
163
 21
0
  0
LINE
  5
1E2
100
AcDbEntity
  8
0
100
AcDbLine
  6
BYLAYER
 10
146.7
 20
48
 11
146.7
 21
0
  0
LINE
  5
1E3
100
AcDbEntity
  8
0
100
AcDbLine
  6
BYLAYER
 10
179.3
 20
48
 11
179.3
 21
0
  0
LINE
  5
1E4
100
AcDbEntity
  8
0
100
AcDbLine
  6
BYLAYER
 10
195.6
 20
48
 11
195.6
 21
0
  0
LINE
  5
1E5
100
AcDbEntity
  8
0
100
AcDbLine
  6
BYLAYER
 10
81.5
 20
48
 11
81.5
 21
0
  0
LINE
  5
1E6
100
AcDbEntity
  8
0
100
AcDbLine
  6
BYLAYER
 10
114.1
 20
48
 11
114.1
 21
0
  0
LINE
  5
1E7
100
AcDbEntity
  8
0
100
AcDbLine
  6
BYLAYER
 10
97.8
 20
48
 11
97.8
 21
0
  0
LINE
  5
1E8
100
AcDbEntity
  8
0
100
AcDbLine
  6
BYLAYER
 10
130.4
 20
48
 11
130.4
 21
0
  0
LINE
  5
1E9
100
AcDbEntity
  8
0
100
AcDbLine
  6
BYLAYER
 62
3
 10
131.107106781186
 20
0.707106781186553
 11
145.992893218813
 21
0.707106781186553
  0
LINE
  5
1EA
100
AcDbEntity
  8
0
100
AcDbLine
  6
BYLAYER
 62
3
 10
131.107106781186
 20
6.70710678118655
 11
145.992893218813
 21
6.70710678118655
  0
LINE
  5
1EB
100
AcDbEntity
  8
0
100
AcDbLine
  6
BYLAYER
 62
3
 10
131.107106781186
 20
12.7071067811866
 11
145.992893218813
 21
12.7071067811866
  0
LINE
  5
1EC
100
AcDbEntity
  8
0
100
AcDbLine
  6
BYLAYER
 62
3
 10
131.107106781186
 20
18.7071067811866
 11
145.992893218813
 21
18.7071067811866
  0
LINE
  5
1ED
100
AcDbEntity
  8
0
100
AcDbLine
  6
BYLAYER
 62
3
 10
98.5071067811866
 20
0.707106781186553
 11
113.392893218813
 21
0.707106781186553
  0
LINE
  5
1EE
100
AcDbEntity
  8
0
100
AcDbLine
  6
BYLAYER
 62
3
 10
98.5071067811866
 20
6.70710678118655
 11
113.392893218813
 21
6.70710678118655
  0
LINE
  5
1EF
100
AcDbEntity
  8
0
100
AcDbLine
  6
BYLAYER
 62
3
 10
98.5071067811866
 20
12.7071067811866
 11
113.392893218813
 21
12.7071067811866
  0
LINE
  5
1F0
100
AcDbEntity
  8
0
100
AcDbLine
  6
BYLAYER
 62
3
 10
98.5071067811866
 20
18.7071067811866
 11
113.392893218813
 21
18.7071067811866
  0
LINE
  5
1F1
100
AcDbEntity
  8
0
100
AcDbLine
  6
BYLAYER
 62
3
 10
82.2071067811865
 20
0.707106781186553
 11
97.0928932188135
 21
0.707106781186553
  0
LINE
  5
1F2
100
AcDbEntity
  8
0
100
AcDbLine
  6
BYLAYER
 62
3
 10
82.2071067811865
 20
6.70710678118655
 11
97.0928932188135
 21
6.70710678118655
  0
LINE
  5
1F3
100
AcDbEntity
  8
0
100
AcDbLine
  6
BYLAYER
 62
3
 10
82.2071067811865
 20
12.7071067811866
 11
97.0928932188135
 21
12.7071067811866
  0
LINE
  5
1F4
100
AcDbEntity
  8
0
100
AcDbLine
  6
BYLAYER
 62
3
 10
82.2071067811865
 20
18.7071067811866
 11
97.0928932188135
 21
18.7071067811866
  0
LINE
  5
1F5
100
AcDbEntity
  8
0
100
AcDbLine
  6
BYLAYER
 62
3
 10
114.807106781187
 20
0.707106781186553
 11
129.692893218813
 21
0.707106781186553
  0
LINE
  5
1F6
100
AcDbEntity
  8
0
100
AcDbLine
  6
BYLAYER
 62
3
 10
114.807106781187
 20
6.70710678118655
 11
129.692893218813
 21
6.70710678118655
  0
LINE
  5
1F7
100
AcDbEntity
  8
0
100
AcDbLine
  6
BYLAYER
 62
3
 10
114.807106781187
 20
12.7071067811866
 11
129.692893218813
 21
12.7071067811866
  0
LINE
  5
1F8
100
AcDbEntity
  8
0
100
AcDbLine
  6
BYLAYER
 62
3
 10
114.807106781187
 20
18.7071067811866
 11
129.692893218813
 21
18.7071067811866
  0
LINE
  5
1F9
100
AcDbEntity
  8
0
100
AcDbLine
  6
BYLAYER
 62
3
 10
163.707106781186
 20
0.707106781186553
 11
178.592893218813
 21
0.707106781186553
  0
LINE
  5
1FA
100
AcDbEntity
  8
0
100
AcDbLine
  6
BYLAYER
 62
3
 10
163.707106781186
 20
6.70710678118655
 11
178.592893218813
 21
6.70710678118655
  0
LINE
  5
1FB
100
AcDbEntity
  8
0
100
AcDbLine
  6
BYLAYER
 62
3
 10
163.707106781186
 20
12.7071067811866
 11
178.592893218813
 21
12.7071067811866
  0
LINE
  5
1FC
100
AcDbEntity
  8
0
100
AcDbLine
  6
BYLAYER
 62
3
 10
163.707106781186
 20
18.7071067811866
 11
178.592893218813
 21
18.7071067811866
  0
LINE
  5
1FD
100
AcDbEntity
  8
0
100
AcDbLine
  6
BYLAYER
 62
3
 10
147.407106781187
 20
0.707106781186553
 11
162.292893218814
 21
0.707106781186553
  0
LINE
  5
1FE
100
AcDbEntity
  8
0
100
AcDbLine
  6
BYLAYER
 62
3
 10
147.407106781187
 20
6.70710678118655
 11
162.292893218814
 21
6.70710678118655
  0
LINE
  5
1FF
100
AcDbEntity
  8
0
100
AcDbLine
  6
BYLAYER
 62
3
 10
147.407106781187
 20
12.7071067811866
 11
162.292893218814
 21
12.7071067811866
  0
LINE
  5
200
100
AcDbEntity
  8
0
100
AcDbLine
  6
BYLAYER
 62
3
 10
147.407106781187
 20
18.7071067811866
 11
162.292893218814
 21
18.7071067811866
  0
LINE
  5
201
100
AcDbEntity
  8
0
100
AcDbLine
  6
BYLAYER
 62
3
 10
180.007106781186
 20
0.707106781186553
 11
194.892893218813
 21
0.707106781186553
  0
LINE
  5
202
100
AcDbEntity
  8
0
100
AcDbLine
  6
BYLAYER
 62
3
 10
180.007106781186
 20
6.70710678118655
 11
194.892893218813
 21
6.70710678118655
  0
LINE
  5
203
100
AcDbEntity
  8
0
100
AcDbLine
  6
BYLAYER
 62
3
 10
180.007106781186
 20
12.7071067811866
 11
194.892893218813
 21
12.7071067811866
  0
LINE
  5
204
100
AcDbEntity
  8
0
100
AcDbLine
  6
BYLAYER
 62
3
 10
180.007106781186
 20
18.7071067811866
 11
194.892893218813
 21
18.7071067811866
  0
LINE
  5
205
100
AcDbEntity
  8
0
100
AcDbLine
  6
BYLAYER
 62
3
 10
131.107106781186
 20
24.7071067811866
 11
145.992893218813
 21
24.7071067811866
  0
LINE
  5
206
100
AcDbEntity
  8
0
100
AcDbLine
  6
BYLAYER
 62
3
 10
131.107106781186
 20
30.7071067811865
 11
145.992893218813
 21
30.7071067811865
  0
LINE
  5
207
100
AcDbEntity
  8
0
100
AcDbLine
  6
BYLAYER
 62
3
 10
131.107106781186
 20
36.7071067811866
 11
145.992893218813
 21
36.7071067811866
  0
LINE
  5
208
100
AcDbEntity
  8
0
100
AcDbLine
  6
BYLAYER
 62
3
 10
98.5071067811866
 20
24.7071067811866
 11
113.392893218813
 21
24.7071067811866
  0
LINE
  5
209
100
AcDbEntity
  8
0
100
AcDbLine
  6
BYLAYER
 62
3
 10
98.5071067811866
 20
30.7071067811865
 11
113.392893218813
 21
30.7071067811865
  0
LINE
  5
20A
100
AcDbEntity
  8
0
100
AcDbLine
  6
BYLAYER
 62
3
 10
98.5071067811866
 20
36.7071067811866
 11
113.392893218813
 21
36.7071067811866
  0
LINE
  5
20B
100
AcDbEntity
  8
0
100
AcDbLine
  6
BYLAYER
 62
3
 10
82.2071067811865
 20
24.7071067811866
 11
97.0928932188135
 21
24.7071067811866
  0
LINE
  5
20C
100
AcDbEntity
  8
0
100
AcDbLine
  6
BYLAYER
 62
3
 10
82.2071067811865
 20
30.7071067811865
 11
97.0928932188135
 21
30.7071067811865
  0
LINE
  5
20D
100
AcDbEntity
  8
0
100
AcDbLine
  6
BYLAYER
 62
3
 10
82.2071067811865
 20
36.7071067811866
 11
97.0928932188135
 21
36.7071067811866
  0
TEXT
  5
20E
100
AcDbEntity
  8
0
100
AcDbText
  6
BYLAYER
 10
89
 20
43.5
 40
3
  1
D
  7
Font_0
100
AcDbText
  0
TEXT
  5
20F
100
AcDbEntity
  8
0
100
AcDbText
  6
BYLAYER
 10
105.3
 20
43.5
 40
3
  1
E
  7
Font_0
100
AcDbText
  0
LINE
  5
210
100
AcDbEntity
  8
0
100
AcDbLine
  6
BYLAYER
 62
3
 10
114.807106781187
 20
24.7071067811866
 11
129.692893218813
 21
24.7071067811866
  0
LINE
  5
211
100
AcDbEntity
  8
0
100
AcDbLine
  6
BYLAYER
 62
3
 10
114.807106781187
 20
30.7071067811865
 11
129.692893218813
 21
30.7071067811865
  0
LINE
  5
212
100
AcDbEntity
  8
0
100
AcDbLine
  6
BYLAYER
 62
3
 10
114.807106781187
 20
36.7071067811866
 11
129.692893218813
 21
36.7071067811866
  0
TEXT
  5
213
100
AcDbEntity
  8
0
100
AcDbText
  6
BYLAYER
 10
121.8
 20
43.5
 40
3
  1
F
  7
Font_0
100
AcDbText
  0
TEXT
  5
214
100
AcDbEntity
  8
0
100
AcDbText
  6
BYLAYER
 10
137.8
 20
43.5
 40
3
  1
G
  7
Font_0
100
AcDbText
  0
LINE
  5
215
100
AcDbEntity
  8
0
100
AcDbLine
  6
BYLAYER
 62
3
 10
163.707106781186
 20
24.7071067811866
 11
178.592893218813
 21
24.7071067811866
  0
LINE
  5
216
100
AcDbEntity
  8
0
100
AcDbLine
  6
BYLAYER
 62
3
 10
163.707106781186
 20
30.7071067811865
 11
178.592893218813
 21
30.7071067811865
  0
LINE
  5
217
100
AcDbEntity
  8
0
100
AcDbLine
  6
BYLAYER
 62
3
 10
163.707106781186
 20
36.7071067811866
 11
178.592893218813
 21
36.7071067811866
  0
LINE
  5
218
100
AcDbEntity
  8
0
100
AcDbLine
  6
BYLAYER
 62
3
 10
147.407106781187
 20
24.7071067811866
 11
162.292893218814
 21
24.7071067811866
  0
LINE
  5
219
100
AcDbEntity
  8
0
100
AcDbLine
  6
BYLAYER
 62
3
 10
147.407106781187
 20
30.7071067811865
 11
162.292893218814
 21
30.7071067811865
  0
LINE
  5
21A
100
AcDbEntity
  8
0
100
AcDbLine
  6
BYLAYER
 62
3
 10
147.407106781187
 20
36.7071067811866
 11
162.292893218814
 21
36.7071067811866
  0
TEXT
  5
21B
100
AcDbEntity
  8
0
100
AcDbText
  6
BYLAYER
 10
153.5
 20
43.5
 40
3
  1
H
  7
Font_0
100
AcDbText
  0
TEXT
  5
21C
100
AcDbEntity
  8
0
100
AcDbText
  6
BYLAYER
 10
171.5
 20
43.5
 40
3
  1
I
  7
Font_0
100
AcDbText
  0
LINE
  5
21D
100
AcDbEntity
  8
0
100
AcDbLine
  6
BYLAYER
 62
3
 10
180.007106781186
 20
24.7071067811866
 11
194.892893218813
 21
24.7071067811866
  0
LINE
  5
21E
100
AcDbEntity
  8
0
100
AcDbLine
  6
BYLAYER
 62
3
 10
180.007106781186
 20
30.7071067811865
 11
194.892893218813
 21
30.7071067811865
  0
LINE
  5
21F
100
AcDbEntity
  8
0
100
AcDbLine
  6
BYLAYER
 62
3
 10
180.007106781186
 20
36.7071067811866
 11
194.892893218813
 21
36.7071067811866
  0
TEXT
  5
220
100
AcDbEntity
  8
0
100
AcDbText
  6
BYLAYER
 10
186.6
 20
43.5
 40
3
  1
J
  7
Font_0
100
AcDbText
  0
TEXT
  5
221
100
AcDbEntity
  8
0
100
AcDbText
  6
BYLAYER
 10
202.5
 20
43.5
 40
3
  1
K
  7
Font_0
100
AcDbText
  0
LINE
  5
222
100
AcDbEntity
  8
0
100
AcDbLine
  6
BYLAYER
 10
244.5
 20
48
 11
244.5
 21
0
  0
LINE
  5
223
100
AcDbEntity
  8
0
100
AcDbLine
  6
BYLAYER
 10
211.9
 20
48
 11
211.9
 21
0
  0
LINE
  5
224
100
AcDbEntity
  8
0
100
AcDbLine
  6
BYLAYER
 10
228.2
 20
48
 11
228.2
 21
0
  0
LINE
  5
225
100
AcDbEntity
  8
0
100
AcDbLine
  6
BYLAYER
 62
3
 10
228.907106781187
 20
0.707106781186553
 11
243.792893218814
 21
0.707106781186553
  0
LINE
  5
226
100
AcDbEntity
  8
0
100
AcDbLine
  6
BYLAYER
 62
3
 10
228.907106781187
 20
6.70710678118655
 11
243.792893218814
 21
6.70710678118655
  0
LINE
  5
227
100
AcDbEntity
  8
0
100
AcDbLine
  6
BYLAYER
 62
3
 10
228.907106781187
 20
12.7071067811866
 11
243.792893218814
 21
12.7071067811866
  0
LINE
  5
228
100
AcDbEntity
  8
0
100
AcDbLine
  6
BYLAYER
 62
3
 10
228.907106781187
 20
18.7071067811866
 11
243.792893218814
 21
18.7071067811866
  0
LINE
  5
229
100
AcDbEntity
  8
0
100
AcDbLine
  6
BYLAYER
 62
3
 10
212.607106781186
 20
0.707106781186553
 11
227.492893218814
 21
0.707106781186553
  0
LINE
  5
22A
100
AcDbEntity
  8
0
100
AcDbLine
  6
BYLAYER
 62
3
 10
212.607106781186
 20
6.70710678118655
 11
227.492893218814
 21
6.70710678118655
  0
LINE
  5
22B
100
AcDbEntity
  8
0
100
AcDbLine
  6
BYLAYER
 62
3
 10
212.607106781186
 20
12.7071067811866
 11
227.492893218814
 21
12.7071067811866
  0
LINE
  5
22C
100
AcDbEntity
  8
0
100
AcDbLine
  6
BYLAYER
 62
3
 10
212.607106781186
 20
18.7071067811866
 11
227.492893218814
 21
18.7071067811866
  0
LINE
  5
22D
100
AcDbEntity
  8
0
100
AcDbLine
  6
BYLAYER
 62
3
 10
228.907106781187
 20
24.7071067811866
 11
243.792893218814
 21
24.7071067811866
  0
LINE
  5
22E
100
AcDbEntity
  8
0
100
AcDbLine
  6
BYLAYER
 62
3
 10
228.907106781187
 20
30.7071067811865
 11
243.792893218814
 21
30.7071067811865
  0
LINE
  5
22F
100
AcDbEntity
  8
0
100
AcDbLine
  6
BYLAYER
 62
3
 10
228.907106781187
 20
36.7071067811866
 11
243.792893218814
 21
36.7071067811866
  0
LINE
  5
230
100
AcDbEntity
  8
0
100
AcDbLine
  6
BYLAYER
 62
3
 10
212.607106781186
 20
24.7071067811866
 11
227.492893218814
 21
24.7071067811866
  0
LINE
  5
231
100
AcDbEntity
  8
0
100
AcDbLine
  6
BYLAYER
 62
3
 10
212.607106781186
 20
30.7071067811865
 11
227.492893218814
 21
30.7071067811865
  0
LINE
  5
232
100
AcDbEntity
  8
0
100
AcDbLine
  6
BYLAYER
 62
3
 10
212.607106781186
 20
36.7071067811866
 11
227.492893218814
 21
36.7071067811866
  0
TEXT
  5
233
100
AcDbEntity
  8
0
100
AcDbText
  6
BYLAYER
 10
219
 20
43.5
 40
3
  1
L
  7
Font_0
100
AcDbText
  0
TEXT
  5
234
100
AcDbEntity
  8
0
100
AcDbText
  6
BYLAYER
 10
233.270544856686
 20
43.5
 40
3
  1
ｫﾈ､�
  7
Font_0
100
AcDbText
  0
ENDBLK
  5
235
100
AcDbEntity
  8
0
 67
     1
100
AcDbBlockEnd
  0
BLOCK
  5
236
100
AcDbEntity
  8
0
100
AcDbBlockBegin
  2
BASE
 70
    0
 10
0
 20
0
 30
0.0
  3
BASE
  1

  0
LINE
  5
237
100
AcDbEntity
  8
0
100
AcDbLine
  6
BYLAYER
 10
0
 20
36
 11
278.4
 21
36
  0
LINE
  5
238
100
AcDbEntity
  8
0
100
AcDbLine
  6
BYLAYER
 10
0
 20
12
 11
278.4
 21
12
  0
LINE
  5
239
100
AcDbEntity
  8
0
100
AcDbLine
  6
BYLAYER
 10
0
 20
6
 11
278.4
 21
6
  0
LINE
  5
23A
100
AcDbEntity
  8
0
100
AcDbLine
  6
BYLAYER
 10
0
 20
0
 11
278.4
 21
0
  0
LINE
  5
23B
100
AcDbEntity
  8
0
100
AcDbLine
  6
BYLAYER
 10
278.4
 20
186
 11
0
 21
186
  0
LINE
  5
23C
100
AcDbEntity
  8
0
100
AcDbLine
  6
BYLAYER
 10
96.85
 20
30
 11
278.4
 21
30
  0
LINE
  5
23D
100
AcDbEntity
  8
0
100
AcDbLine
  6
BYLAYER
 10
96.85
 20
24
 11
278.4
 21
24
  0
LINE
  5
23E
100
AcDbEntity
  8
0
100
AcDbLine
  6
BYLAYER
 10
96.85
 20
18
 11
278.4
 21
18
  0
LINE
  5
23F
100
AcDbEntity
  8
0
100
AcDbLine
  6
BYLAYER
 10
0
 20
0
 11
0
 21
186
  0
TEXT
  5
240
100
AcDbEntity
  8
0
100
AcDbText
  6
BYLAYER
 10
22.1680110084321
 20
15.7553550725962
 40
2.8
  1
CAM YORK INDUSTRIAL CO.,LTD.
  7
Font_0
100
AcDbText
  0
TEXT
  5
241
100
AcDbEntity
  8
0
100
AcDbText
  6
BYLAYER
 10
22.0468952754036
 20
26
 40
7
  1
ｫﾘｷﾔ､uｷ~ｪﾑ･ｳｭｭ､ｽ･q
  7
Font_0
100
AcDbText
  0
TEXT
  5
242
100
AcDbEntity
  8
0
100
AcDbText
  6
BYLAYER
 10
63.8643398403977
 20
7.09411371042404
 40
2.8
  1
(04)3322629
  7
Font_0
100
AcDbText
  0
LINE
  5
243
100
AcDbEntity
  8
0
100
AcDbLine
  6
BYLAYER
 10
10.1054905349494
 20
28.7603510666656
 11
15.2233703294355
 21
28.7603510666656
  0
CIRCLE
  5
244
100
AcDbEntity
  8
0
100
AcDbCircle
  6
BYLAYER
 10
10.1054905349494
 20
24.350263158651
 40
9.36463111331499
  0
CIRCLE
  5
245
100
AcDbEntity
  8
0
100
AcDbCircle
  6
BYLAYER
 10
10.1054905349494
 20
24.350263158651
 40
7.62237416200057
  0
ARC
  5
246
100
AcDbEntity
  8
0
100
AcDbCircle
  6
BYLAYER
 10
10.1054905349494
 20
24.350263158651
 40
4.41008790801462
100
AcDbArc
 50
90
 51
0
  0
LINE
  5
247
100
AcDbEntity
  8
0
100
AcDbLine
  6
BYLAYER
 10
13
 20
12
 11
13
 21
0
  0
TEXT
  5
248
100
AcDbEntity
  8
0
100
AcDbText
  6
BYLAYER
 10
2.6
 20
7.3
 40
3
  1
TEL
  7
Font_0
100
AcDbText
  0
TEXT
  5
249
100
AcDbEntity
  8
0
100
AcDbText
  6
BYLAYER
 10
3.5
 20
1.5
 40
3
  1
ｳﾆｵ�
  7
Font_0
 72
1
 11
6.5
 21
3
100
AcDbText
 73
2
  0
ARC
  5
24A
100
AcDbEntity
  8
0
100
AcDbCircle
  6
BYLAYER
 10
10.5745216067836
 20
32.8983997393573
 40
0.704372460813671
100
AcDbArc
 50
83.8529806316668
 51
239.250071636948
  0
ARC
  5
24B
100
AcDbEntity
  8
0
100
AcDbCircle
  6
BYLAYER
 10
6.23761506796892
 20
31.9876821284788
 40
0.704372460813671
100
AcDbArc
 50
113.852980631667
 51
269.250071636948
  0
ARC
  5
24C
100
AcDbEntity
  8
0
100
AcDbCircle
  6
BYLAYER
 10
2.46807156512152
 20
20.4823876916705
 40
0.704372460813671
100
AcDbArc
 50
203.852980631667
 51
359.250071636948
  0
ARC
  5
24D
100
AcDbEntity
  8
0
100
AcDbCircle
  6
BYLAYER
 10
9.63645946311512
 20
15.8021265779447
 40
0.704372460813671
100
AcDbArc
 50
263.852980631667
 51
59.2500716369476
  0
ARC
  5
24E
100
AcDbEntity
  8
0
100
AcDbCircle
  6
BYLAYER
 10
5.4252294212235
 20
17.1818752606574
 40
0.704372460813671
100
AcDbArc
 50
233.852980631667
 51
29.2500716369476
  0
ARC
  5
24F
100
AcDbEntity
  8
0
100
AcDbCircle
  6
BYLAYER
 10
1.55735395424306
 20
24.8192942304852
 40
0.704372460813671
100
AcDbArc
 50
173.852980631667
 51
329.250071636948
  0
ARC
  5
250
100
AcDbEntity
  8
0
100
AcDbCircle
  6
BYLAYER
 10
2.93710263695578
 20
29.0305242723768
 40
0.704372460813671
100
AcDbArc
 50
143.852980631667
 51
299.250071636948
  0
TEXT
  5
251
100
AcDbEntity
  8
0
100
AcDbText
  6
BYLAYER
 10
7.49210581170385
 20
21.8477388856442
 40
5
  1
Y
  7
Font_0
100
AcDbText
  0
TEXT
  5
252
100
AcDbEntity
  8
0
100
AcDbText
  6
BYLAYER
 10
42.3478047909238
 20
7.2
 40
2.8
  1
~8
  7
Font_0
100
AcDbText
  0
TEXT
  5
253
100
AcDbEntity
  8
0
100
AcDbText
  6
BYLAYER
 10
13.8764304985659
 20
7.2
 40
2.8
  1
(04)3322627
  7
Font_0
100
AcDbText
  0
TEXT
  5
254
100
AcDbEntity
  8
0
100
AcDbText
  6
BYLAYER
 10
51
 20
7.2
 40
3
  1
FAX
  7
Font_0
100
AcDbText
  0
LINE
  5
255
100
AcDbEntity
  8
0
100
AcDbLine
  6
BYLAYER
 10
48
 20
12
 11
48
 21
6
  0
LINE
  5
256
100
AcDbEntity
  8
0
100
AcDbLine
  6
BYLAYER
 10
62
 20
12
 11
62
 21
6
  0
ARC
  5
257
100
AcDbEntity
  8
0
100
AcDbCircle
  6
BYLAYER
 10
14.7857516486752
 20
31.5186510566446
 40
0.704372460813671
100
AcDbArc
 50
53.8529806316668
 51
209.250071636948
  0
ARC
  5
258
100
AcDbEntity
  8
0
100
AcDbCircle
  6
BYLAYER
 10
17.273878432943
 20
19.6700020449251
 40
0.704372460813671
100
AcDbArc
 50
323.852980631667
 51
119.250071636948
  0
ARC
  5
259
100
AcDbEntity
  8
0
100
AcDbCircle
  6
BYLAYER
 10
13.9733660019298
 20
16.7128441888231
 40
0.704372460813671
100
AcDbArc
 50
293.852980631667
 51
89.2500716369476
  0
LINE
  5
25A
100
AcDbEntity
  8
0
100
AcDbLine
  6
BYLAYER
 10
14.515578442964
 20
24.350263158651
 11
15.4411524483498
 21
24.350263158651
  0
ARC
  5
25B
100
AcDbEntity
  8
0
100
AcDbCircle
  6
BYLAYER
 10
18.6536271156557
 20
23.8812320868167
 40
0.704372460813671
100
AcDbArc
 50
353.852980631667
 51
149.250071636948
  0
ARC
  5
25C
100
AcDbEntity
  8
0
100
AcDbCircle
  6
BYLAYER
 10
17.7429095047772
 20
28.2181386256314
 40
0.704372460813671
100
AcDbArc
 50
23.8529806316668
 51
179.250071636948
  0
TEXT
  5
25D
100
AcDbEntity
  8
0
100
AcDbText
  6
BYLAYER
 10
100.4
 20
7.4
 40
3
  1
ｫ~ ｦW
  7
Font_0
100
AcDbText
  0
LINE
  5
25E
100
AcDbEntity
  8
0
100
AcDbLine
  6
BYLAYER
 10
144
 20
36
 11
144
 21
0
  0
LINE
  5
25F
100
AcDbEntity
  8
0
100
AcDbLine
  6
BYLAYER
 10
114
 20
36
 11
114
 21
0
  0
LINE
  5
260
100
AcDbEntity
  8
0
100
AcDbLine
  6
BYLAYER
 10
97.15
 20
36
 11
97.15
 21
0
  0
LINE
  5
261
100
AcDbEntity
  8
0
100
AcDbLine
  6
BYLAYER
 10
96.85
 20
36
 11
96.85
 21
0
  0
TEXT
  5
262
100
AcDbEntity
  8
0
100
AcDbText
  6
BYLAYER
 10
100.4
 20
1.6
 40
3
  1
ｹﾏ ｸｹ
  7
Font_0
100
AcDbText
  0
TEXT
  5
263
100
AcDbEntity
  8
0
100
AcDbText
  6
BYLAYER
 10
100.4
 20
31.6
 40
3
  1
･D ｺﾞ
  7
Font_0
100
AcDbText
  0
TEXT
  5
264
100
AcDbEntity
  8
0
100
AcDbText
  6
BYLAYER
 10
100.4
 20
19.6
 40
3
  1
ﾃｸ ｹﾏ
  7
Font_0
100
AcDbText
  0
TEXT
  5
265
100
AcDbEntity
  8
0
100
AcDbText
  6
BYLAYER
 10
100.4
 20
13.8
 40
3
  1
ｾ� ｺﾘ
  7
Font_0
100
AcDbText
  0
TEXT
  5
266
100
AcDbEntity
  8
0
100
AcDbText
  6
BYLAYER
 10
100.4
 20
25.4
 40
3
  1
ｮﾖ ｹ�
  7
Font_0
100
AcDbText
  0
LINE
  5
267
100
AcDbEntity
  8
0
100
AcDbLine
  6
BYLAYER
 10
195.15
 20
36
 11
195.15
 21
0
  0
LINE
  5
268
100
AcDbEntity
  8
0
100
AcDbLine
  6
BYLAYER
 10
194.85
 20
36
 11
194.85
 21
0
  0
LINE
  5
269
100
AcDbEntity
  8
0
100
AcDbLine
  6
BYLAYER
 10
195.025
 20
36
 11
195.025
 21
0
  0
LINE
  5
26A
100
AcDbEntity
  8
0
100
AcDbLine
  6
BYLAYER
 10
163
 20
36
 11
163
 21
0
  0
TEXT
  5
26B
100
AcDbEntity
  8
0
100
AcDbText
  6
BYLAYER
 10
146.967830348543
 20
7.5
 40
3
  1
ｪ揵ｱｳBｲz
  7
Font_0
100
AcDbText
  0
TEXT
  5
26C
100
AcDbEntity
  8
0
100
AcDbText
  6
BYLAYER
 10
146.967830348543
 20
1.5
 40
3
  1
ｻsｹﾏ､魘ﾁ
  7
Font_0
100
AcDbText
  0
TEXT
  5
26D
100
AcDbEntity
  8
0
100
AcDbText
  6
BYLAYER
 10
148.5
 20
31.5
 40
3
  1
ｧ� ｽ�
  7
Font_0
100
AcDbText
  0
TEXT
  5
26E
100
AcDbEntity
  8
0
100
AcDbText
  6
BYLAYER
 10
148.5
 20
19.5
 40
3
  1
ｼﾆ ｶq
  7
Font_0
100
AcDbText
  0
TEXT
  5
26F
100
AcDbEntity
  8
0
100
AcDbText
  6
BYLAYER
 10
148.5
 20
13.5
 40
3
  1
ｳ� ｦ�
  7
Font_0
100
AcDbText
  0
TEXT
  5
270
100
AcDbEntity
  8
0
100
AcDbText
  6
BYLAYER
 10
148.5
 20
25.5
 40
3
  1
､� ｨﾒ
  7
Font_0
100
AcDbText
  0
TEXT
  5
271
100
AcDbEntity
  8
0
100
AcDbText
  6
BYLAYER
 10
200.830454348633
 20
31.5
 40
3
  1
､魘ﾁ
  7
Font_0
100
AcDbText
  0
LINE
  5
272
100
AcDbEntity
  8
0
100
AcDbLine
  6
BYLAYER
 10
278.4
 20
186
 11
278.4
 21
0
  0
LINE
  5
273
100
AcDbEntity
  8
0
100
AcDbLine
  6
BYLAYER
 10
269.7178125
 20
135.285
 11
269.7178125
 21
151.27125
  0
LINE
  5
274
100
AcDbEntity
  8
0
100
AcDbLine
  6
BYLAYER
 10
261.035625
 20
135.285
 11
261.035625
 21
151.27125
  0
LINE
  5
275
100
AcDbEntity
  8
0
100
AcDbLine
  6
BYLAYER
 10
252.3534375
 20
135.285
 11
252.3534375
 21
151.27125
  0
LINE
  5
276
100
AcDbEntity
  8
0
100
AcDbLine
  6
BYLAYER
 10
243.67125
 20
135.285
 11
243.67125
 21
180.4875
  0
LINE
  5
277
100
AcDbEntity
  8
0
100
AcDbLine
  6
BYLAYER
 10
221.07
 20
135.285
 11
221.07
 21
180.4875
  0
LINE
  5
278
100
AcDbEntity
  8
0
100
AcDbLine
  6
BYLAYER
 10
216.66
 20
135.285
 11
216.66
 21
186
  0
LINE
  5
279
100
AcDbEntity
  8
0
100
AcDbLine
  6
BYLAYER
 10
213
 20
36
 11
213
 21
0
  0
LINE
  5
27A
100
AcDbEntity
  8
0
100
AcDbLine
  6
BYLAYER
 10
232
 20
36
 11
232
 21
0
  0
TEXT
  5
27B
100
AcDbEntity
  8
0
100
AcDbText
  6
BYLAYER
 10
235
 20
31.5
 40
3
  1
ｧ�   ｧ�   ､ｺ   ｮe
  7
Font_0
100
AcDbText
  0
TEXT
  5
27C
100
AcDbEntity
  8
0
100
AcDbText
  6
BYLAYER
 10
218.659856969007
 20
31.5
 40
3
  1
ｭtｳd､H
  7
Font_0
100
AcDbText
  0
LINE
  5
27D
100
AcDbEntity
  8
0
100
AcDbLine
  6
BYLAYER
 10
278.4
 20
139.695
 11
221.07
 21
139.695
  0
LINE
  5
27E
100
AcDbEntity
  8
0
100
AcDbLine
  6
BYLAYER
 10
278.4
 20
135.285
 11
216.66
 21
135.285
  0
TEXT
  5
27F
100
AcDbEntity
  8
0
100
AcDbText
  6
BYLAYER
 10
246.15416478566
 20
128.207003496756
 40
2
  1
projection ｲﾄ､Tｨ､ｧ�ｼv
  7
Font_0
100
AcDbText
  0
LINE
  5
280
100
AcDbEntity
  8
0
100
AcDbLine
  6
BYLAYER
 10
278.4
 20
113.78625
 11
243.67125
 21
113.78625
  0
TEXT
  5
281
100
AcDbEntity
  8
0
100
AcDbText
  6
BYLAYER
 10
271.4339125
 20
144.733125
 40
1.5
  1
100･H､W
  7
Font_0
 72
1
 11
274.0589125
 21
145.483125
100
AcDbText
 73
2
  0
TEXT
  5
282
100
AcDbEntity
  8
0
100
AcDbText
  6
BYLAYER
 10
272.1839125
 20
136.74
 40
1.5
  1
±10'
  7
Font_0
 72
1
 11
274.0589125
 21
137.49
100
AcDbText
 73
2
  0
MTEXT
  5
283
100
AcDbEntity
  8
0
100
AcDbMText
 10
232.37065
 20
145.483125
 40
2
 41
  0.0
  1
､ｽｺﾙ､ﾘ､o (ｪﾗ)\Pｧｨｦｨｨ､､ｧｵuﾃ荀@､�
 71
5
  7
Font_0
  0
TEXT
  5
284
100
AcDbEntity
  8
0
100
AcDbText
  6
BYLAYER
 10
217.365
 20
147.778125
 40
3
  1
ｪｽｨ､ｫﾗ
  7
Font_1
 50
270
 11
218.865
 21
147.778125
100
AcDbText
 73
2
  0
TEXT
  5
285
100
AcDbEntity
  8
0
100
AcDbText
  6
BYLAYER
 10
227.87065
 20
135.99
 40
3
  1
ｨ､ｫﾗｮt
  7
Font_0
 72
1
 11
232.37065
 21
137.49
100
AcDbText
 73
2
  0
LINE
  5
286
100
AcDbEntity
  8
0
100
AcDbLine
  6
BYLAYER
 10
254.802068029839
 20
115.173423624616
 11
254.802068029839
 21
126.198423624616
  0
LINE
  5
287
100
AcDbEntity
  8
0
100
AcDbLine
  6
BYLAYER
 10
243.67125
 20
113.78625
 11
243.67125
 21
135.285
  0
CIRCLE
  5
288
100
AcDbEntity
  8
0
100
AcDbCircle
  6
BYLAYER
 10
254.802068029839
 20
120.685923624616
 40
4.41
  0
LINE
  5
289
100
AcDbEntity
  8
0
100
AcDbLine
  6
BYLAYER
 10
249.289568029839
 20
120.685923624616
 11
260.314568029839
 21
120.685923624616
  0
CIRCLE
  5
28A
100
AcDbEntity
  8
0
100
AcDbCircle
  6
BYLAYER
 10
254.802068029839
 20
120.685923624616
 40
2.205
  0
LINE
  5
28B
100
AcDbEntity
  8
0
100
AcDbLine
  6
BYLAYER
 10
263.194180551461
 20
120.685923624616
 11
274.770430551461
 21
120.685923624616
  0
LWPOLYLINE
  5
28C
100
AcDbEntity
  8
0
100
AcDbPolyline
  6
BYLAYER
370
0
 90
     4
 70
     1
 10
264.296680551461
  20
118.480923624616
 10
273.667930551461
  20
116.275923624616
 10
273.667930551461
  20
125.095923624616
 10
264.296680551461
  20
122.890923624616
  0
TEXT
  5
28D
100
AcDbEntity
  8
0
100
AcDbText
  6
BYLAYER
 10
245.828721587618
 20
131.605971951227
 40
2
  1
Third angle
  7
Font_0
100
AcDbText
  0
MTEXT
  5
28E
100
AcDbEntity
  8
0
100
AcDbMText
 10
256.6945375
 20
145.483125
 40
1.5
 41
  0.0
  1
10･H､W\P50･H､U
 71
5
  7
Font_0
  0
TEXT
  5
28F
100
AcDbEntity
  8
0
100
AcDbText
  6
BYLAYER
 10
246.13735
 20
136.74
 40
1.5
  1
±1°
  7
Font_0
 72
1
 11
248.01235
 21
137.49
100
AcDbText
 73
2
  0
TEXT
  5
290
100
AcDbEntity
  8
0
100
AcDbText
  6
BYLAYER
 10
254.8195375
 20
136.74
 40
1.5
  1
±30'
  7
Font_0
 72
1
 11
256.6945375
 21
137.49
100
AcDbText
 73
2
  0
TEXT
  5
291
100
AcDbEntity
  8
0
100
AcDbText
  6
BYLAYER
 10
245.76235
 20
144.733125
 40
1.5
  1
10･H､U
  7
Font_0
 72
1
 11
248.01235
 21
145.483125
100
AcDbText
 73
2
  0
TEXT
  5
292
100
AcDbEntity
  8
0
100
AcDbText
  6
BYLAYER
 10
263.501725
 20
136.74
 40
1.5
  1
±20'
  7
Font_0
 72
1
 11
265.376725
 21
137.49
100
AcDbText
 73
2
  0
MTEXT
  5
293
100
AcDbEntity
  8
0
100
AcDbMText
 10
265.376725
 20
145.483125
 40
1.5
 41
  0.0
  1
50･H､W\P100･H､U
 71
5
  7
Font_0
  0
LINE
  5
294
100
AcDbEntity
  8
0
100
AcDbLine
  6
BYLAYER
 10
221.07
 20
155.68125
 11
278.4
 21
155.68125
  0
LINE
  5
295
100
AcDbEntity
  8
0
100
AcDbLine
  6
BYLAYER
 10
221.07
 20
160.09125
 11
278.4
 21
160.09125
  0
LINE
  5
296
100
AcDbEntity
  8
0
100
AcDbLine
  6
BYLAYER
 10
221.07
 20
164.50125
 11
278.4
 21
164.50125
  0
LINE
  5
297
100
AcDbEntity
  8
0
100
AcDbLine
  6
BYLAYER
 10
221.07
 20
168.91125
 11
278.4
 21
168.91125
  0
LINE
  5
298
100
AcDbEntity
  8
0
100
AcDbLine
  6
BYLAYER
 10
221.07
 20
173.32125
 11
278.4
 21
173.32125
  0
LINE
  5
299
100
AcDbEntity
  8
0
100
AcDbLine
  6
BYLAYER
 10
216.66
 20
151.27125
 11
278.4
 21
151.27125
  0
LINE
  5
29A
100
AcDbEntity
  8
0
100
AcDbLine
  6
BYLAYER
 10
216.66
 20
180.4875
 11
278.4
 21
180.4875
  0
TEXT
  5
29B
100
AcDbEntity
  8
0
100
AcDbText
  6
BYLAYER
 10
269.1119
 20
175.154375
 40
3.5
  1
ｲﾊｯﾅ
  7
Font_0
 72
1
 11
272.6119
 21
176.904375
100
AcDbText
 73
2
  0
LINE
  5
29C
100
AcDbEntity
  8
0
100
AcDbLine
  6
BYLAYER
 10
243.67125
 20
173.32125
 11
232.06971689676
 21
180.4875
  0
TEXT
  5
29D
100
AcDbEntity
  8
0
100
AcDbText
  6
BYLAYER
 10
230.03
 20
181.49375
 40
3.5
  1
ｦｨ ｫ~ ､ｧ ｴｶ ｳq ､ｽ ｮt
  7
Font_0
 72
1
 11
247.53
 21
183.24375
100
AcDbText
 73
2
  0
TEXT
  5
29E
100
AcDbEntity
  8
0
100
AcDbText
  6
BYLAYER
 10
228.24565
 20
170.36625
 40
1.5
  1
1･H､W~4･H､U
  7
Font_0
 72
1
 11
232.37065
 21
171.11625
100
AcDbText
 73
2
  0
TEXT
  5
29F
100
AcDbEntity
  8
0
100
AcDbText
  6
BYLAYER
 10
227.49565
 20
161.54625
 40
1.5
  1
16･H､W~63･H､U
  7
Font_0
 72
1
 11
232.37065
 21
162.29625
100
AcDbText
 73
2
  0
TEXT
  5
2A0
100
AcDbEntity
  8
0
100
AcDbText
  6
BYLAYER
 10
227.12065
 20
157.13625
 40
1.5
  1
63･H､W~250･H､U
  7
Font_0
 72
1
 11
232.37065
 21
157.88625
100
AcDbText
 73
2
  0
TEXT
  5
2A1
100
AcDbEntity
  8
0
100
AcDbText
  6
BYLAYER
 10
226.37065
 20
152.72625
 40
1.5
  1
250･H､W~1000･H､U
  7
Font_0
 72
1
 11
232.37065
 21
153.47625
100
AcDbText
 73
2
  0
MTEXT
  5
2A2
100
AcDbEntity
  8
0
100
AcDbMText
 10
218.865
 20
168.879375
 40
3
 41
  0.0
  1
ｪﾗ
 71
4
  7
Font_1
 11
-1.83690953073357E-16
 21
-1
  0
TEXT
  5
2A3
100
AcDbEntity
  8
0
100
AcDbText
  6
BYLAYER
 10
227.87065
 20
165.95625
 40
1.5
  1
4･H､W~16･H､U
  7
Font_0
 72
1
 11
232.37065
 21
166.70625
100
AcDbText
 73
2
  0
TEXT
  5
2A4
100
AcDbEntity
  8
0
100
AcDbText
  6
BYLAYER
 10
221.354797302298
 20
174.015263609177
 40
1.7
  1
､ｽｺﾙ､ﾘ､oｹｺ､ﾀm/m
  7
Font_0
100
AcDbText
  0
TEXT
  5
2A5
100
AcDbEntity
  8
0
100
AcDbText
  6
BYLAYER
 10
237.865638127741
 20
177.454836298923
 40
1.7
  1
ｵ･ｯﾅ
  7
Font_0
100
AcDbText
  0
LINE
  5
2A6
100
AcDbEntity
  8
0
100
AcDbLine
  6
BYLAYER
 10
266.82375
 20
151.27125
 11
266.82375
 21
180.4875
  0
LINE
  5
2A7
100
AcDbEntity
  8
0
100
AcDbLine
  6
BYLAYER
 10
255.2475
 20
151.27125
 11
255.2475
 21
180.4875
  0
TEXT
  5
2A8
100
AcDbEntity
  8
0
100
AcDbText
  6
BYLAYER
 10
247.2094
 20
170.36625
 40
1.5
  1
±0.05
  7
Font_0
 72
1
 11
249.4594
 21
171.11625
100
AcDbText
 73
2
  0
TEXT
  5
2A9
100
AcDbEntity
  8
0
100
AcDbText
  6
BYLAYER
 10
258.78565
 20
170.36625
 40
1.5
  1
±0.10
  7
Font_0
 72
1
 11
261.03565
 21
171.11625
100
AcDbText
 73
2
  0
TEXT
  5
2AA
100
AcDbEntity
  8
0
100
AcDbText
  6
BYLAYER
 10
270.3619
 20
170.36625
 40
1.5
  1
±0.30
  7
Font_0
 72
1
 11
272.6119
 21
171.11625
100
AcDbText
 73
2
  0
TEXT
  5
2AB
100
AcDbEntity
  8
0
100
AcDbText
  6
BYLAYER
 10
258.78565
 20
165.95625
 40
1.5
  1
±0.20
  7
Font_0
 72
1
 11
261.03565
 21
166.70625
100
AcDbText
 73
2
  0
TEXT
  5
2AC
100
AcDbEntity
  8
0
100
AcDbText
  6
BYLAYER
 10
258.78565
 20
161.54625
 40
1.5
  1
±0.30
  7
Font_0
 72
1
 11
261.03565
 21
162.29625
100
AcDbText
 73
2
  0
TEXT
  5
2AD
100
AcDbEntity
  8
0
100
AcDbText
  6
BYLAYER
 10
258.78565
 20
157.13625
 40
1.5
  1
±0.50
  7
Font_0
 72
1
 11
261.03565
 21
157.88625
100
AcDbText
 73
2
  0
TEXT
  5
2AE
100
AcDbEntity
  8
0
100
AcDbText
  6
BYLAYER
 10
258.78565
 20
152.72625
 40
1.5
  1
±0.80
  7
Font_0
 72
1
 11
261.03565
 21
153.47625
100
AcDbText
 73
2
  0
TEXT
  5
2AF
100
AcDbEntity
  8
0
100
AcDbText
  6
BYLAYER
 10
247.2094
 20
157.13625
 40
1.5
  1
±0.20
  7
Font_0
 72
1
 11
249.4594
 21
157.88625
100
AcDbText
 73
2
  0
TEXT
  5
2B0
100
AcDbEntity
  8
0
100
AcDbText
  6
BYLAYER
 10
247.2094
 20
152.72625
 40
1.5
  1
±0.30
  7
Font_0
 72
1
 11
249.4594
 21
153.47625
100
AcDbText
 73
2
  0
TEXT
  5
2B1
100
AcDbEntity
  8
0
100
AcDbText
  6
BYLAYER
 10
247.2094
 20
165.95625
 40
1.5
  1
±0.07
  7
Font_0
 72
1
 11
249.4594
 21
166.70625
100
AcDbText
 73
2
  0
TEXT
  5
2B2
100
AcDbEntity
  8
0
100
AcDbText
  6
BYLAYER
 10
247.2094
 20
161.54625
 40
1.5
  1
±0.10
  7
Font_0
 72
1
 11
249.4594
 21
162.29625
100
AcDbText
 73
2
  0
TEXT
  5
2B3
100
AcDbEntity
  8
0
100
AcDbText
  6
BYLAYER
 10
270.3619
 20
152.72625
 40
1.5
  1
±2.00
  7
Font_0
 72
1
 11
272.6119
 21
153.47625
100
AcDbText
 73
2
  0
TEXT
  5
2B4
100
AcDbEntity
  8
0
100
AcDbText
  6
BYLAYER
 10
270.3619
 20
157.13625
 40
1.5
  1
±1.20
  7
Font_0
 72
1
 11
272.6119
 21
157.88625
100
AcDbText
 73
2
  0
TEXT
  5
2B5
100
AcDbEntity
  8
0
100
AcDbText
  6
BYLAYER
 10
270.3619
 20
161.54625
 40
1.5
  1
±0.70
  7
Font_0
 72
1
 11
272.6119
 21
162.29625
100
AcDbText
 73
2
  0
TEXT
  5
2B6
100
AcDbEntity
  8
0
100
AcDbText
  6
BYLAYER
 10
270.3619
 20
165.95625
 40
1.5
  1
±0.50
  7
Font_0
 72
1
 11
272.6119
 21
166.70625
100
AcDbText
 73
2
  0
TEXT
  5
2B7
100
AcDbEntity
  8
0
100
AcDbText
  6
BYLAYER
 10
257.5356
 20
175.154375
 40
3.5
  1
､､ｯﾅ
  7
Font_0
 72
1
 11
261.0356
 21
176.904375
100
AcDbText
 73
2
  0
TEXT
  5
2B8
100
AcDbEntity
  8
0
100
AcDbText
  6
BYLAYER
 10
245.9594
 20
175.154375
 40
3.5
  1
ｲﾓｯﾅ
  7
Font_0
 72
1
 11
249.4594
 21
176.904375
100
AcDbText
 73
2
  0
ENDBLK
  5
2B9
100
AcDbEntity
  8
0
 67
     1
100
AcDbBlockEnd
  0
BLOCK
  5
2BA
100
AcDbEntity
  8
0
100
AcDbBlockBegin
  2
LIST
 70
    0
 10
0
 20
0
 30
0.0
  3
LIST
  1

  0
LINE
  5
2BB
100
AcDbEntity
  8
TEXT
100
AcDbLine
  6
BYLAYER
 10
-2.84E-14
 20
48
 11
83.2499999999999
 21
48
  0
LINE
  5
2BC
100
AcDbEntity
  8
TEXT
100
AcDbLine
  6
BYLAYER
 10
-2.84E-14
 20
42
 11
83.2499999999999
 21
42
  0
LINE
  5
2BD
100
AcDbEntity
  8
TEXT
100
AcDbLine
  6
BYLAYER
 10
-2.84E-14
 20
36
 11
83.2499999999999
 21
36
  0
LINE
  5
2BE
100
AcDbEntity
  8
TEXT
100
AcDbLine
  6
BYLAYER
 10
-2.84E-14
 20
30
 11
83.2499999999999
 21
30
  0
LINE
  5
2BF
100
AcDbEntity
  8
TEXT
100
AcDbLine
  6
BYLAYER
 10
-2.84E-14
 20
24
 11
83.2499999999999
 21
24
  0
LINE
  5
2C0
100
AcDbEntity
  8
TEXT
100
AcDbLine
  6
BYLAYER
 10
-2.84E-14
 20
18
 11
83.2499999999999
 21
18
  0
LINE
  5
2C1
100
AcDbEntity
  8
TEXT
100
AcDbLine
  6
BYLAYER
 10
-2.84E-14
 20
12
 11
83.2499999999999
 21
12
  0
LINE
  5
2C2
100
AcDbEntity
  8
TEXT
100
AcDbLine
  6
BYLAYER
 10
-2.84E-14
 20
5.99999999999997
 11
83.2499999999999
 21
6
  0
TEXT
  5
2C3
100
AcDbEntity
  8
TEXT
100
AcDbText
  6
BYLAYER
 10
8.82499999999999
 20
18.7071067811865
 40
3.5
  1
C
  7
Font_0
 72
1
 11
9.69999999999999
 21
18.7071067811865
100
AcDbText
  0
LINE
  5
2C4
100
AcDbEntity
  8
TEXT
100
AcDbLine
  6
BYLAYER
 10
0
 20
48
 11
0
 21
0
  0
TEXT
  5
2C5
100
AcDbEntity
  8
TEXT
100
AcDbText
  6
BYLAYER
 10
8.82499999999999
 20
6.70710678118655
 40
3.5
  1
A
  7
Font_0
 72
1
 11
9.69999999999999
 21
6.70710678118655
100
AcDbText
  0
TEXT
  5
2C6
100
AcDbEntity
  8
TEXT
100
AcDbText
  6
BYLAYER
 10
6.49999999999997
 20
0.707106781186553
 40
3.5
  1
ｶｵｦｸ
  7
Font_0
 72
1
 11
9.99999999999997
 21
0.707106781186553
100
AcDbText
  0
TEXT
  5
2C7
100
AcDbEntity
  8
TEXT
100
AcDbText
  6
BYLAYER
 10
8.82499999999999
 20
12.7071067811866
 40
3.5
  1
B
  7
Font_0
 72
1
 11
9.69999999999999
 21
12.7071067811866
100
AcDbText
  0
TEXT
  5
2C8
100
AcDbEntity
  8
TEXT
100
AcDbText
  6
BYLAYER
 10
8.82499999999999
 20
42.7071067811866
 40
3.5
  1
G
  7
Font_0
 72
1
 11
9.69999999999999
 21
42.7071067811866
100
AcDbText
  0
TEXT
  5
2C9
100
AcDbEntity
  8
TEXT
100
AcDbText
  6
BYLAYER
 10
8.82499999999999
 20
30.7071067811865
 40
3.5
  1
E
  7
Font_0
 72
1
 11
9.69999999999999
 21
30.7071067811865
100
AcDbText
  0
TEXT
  5
2CA
100
AcDbEntity
  8
TEXT
100
AcDbText
  6
BYLAYER
 10
8.82499999999999
 20
24.7071067811866
 40
3.5
  1
D
  7
Font_0
 72
1
 11
9.69999999999999
 21
24.7071067811866
100
AcDbText
  0
TEXT
  5
2CB
100
AcDbEntity
  8
TEXT
100
AcDbText
  6
BYLAYER
 10
8.82499999999999
 20
36.7071067811866
 40
3.5
  1
F
  7
Font_0
 72
1
 11
9.69999999999999
 21
36.7071067811866
100
AcDbText
  0
TEXT
  5
2CC
100
AcDbEntity
  8
TEXT
100
AcDbText
  6
BYLAYER
 10
77.3935238436447
 20
18.7071067811866
 40
3.5
  1
1
  7
Font_0
 72
1
 11
78.2685238436447
 21
18.7071067811866
100
AcDbText
  0
TEXT
  5
2CD
100
AcDbEntity
  8
TEXT
100
AcDbText
  6
BYLAYER
 10
20.7
 20
18.7071067811866
 40
3.5
  1
A
  7
Font_0
100
AcDbText
  0
LINE
  5
2CE
100
AcDbEntity
  8
TEXT
100
AcDbLine
  6
BYLAYER
 10
73.8870476872896
 20
48
 11
73.8870476872896
 21
-1.42E-14
  0
LINE
  5
2CF
100
AcDbEntity
  8
TEXT
100
AcDbLine
  6
BYLAYER
 10
20
 20
48
 11
20
 21
0
  0
TEXT
  5
2D0
100
AcDbEntity
  8
TEXT
100
AcDbText
  6
BYLAYER
 10
75.0685238436447
 20
0.707106781186553
 40
3.5
  1
ｼﾆｶq
  7
Font_0
 72
1
 11
78.5685238436447
 21
0.707106781186553
100
AcDbText
  0
TEXT
  5
2D1
100
AcDbEntity
  8
TEXT
100
AcDbText
  6
BYLAYER
 10
37.4837220734968
 20
0.707106781186553
 40
3.5
  1
ｹﾏ       ｸｹ
  7
Font_0
 72
1
 11
47.1087220734968
 21
0.707106781186553
100
AcDbText
  0
TEXT
  5
2D2
100
AcDbEntity
  8
TEXT
100
AcDbText
  6
BYLAYER
 10
20.7
 20
6.70710678118656
 40
3.5
  1
A
  7
Font_0
100
AcDbText
  0
TEXT
  5
2D3
100
AcDbEntity
  8
TEXT
100
AcDbText
  6
BYLAYER
 10
20.7
 20
12.7071067811866
 40
3.5
  1
A
  7
Font_0
100
AcDbText
  0
TEXT
  5
2D4
100
AcDbEntity
  8
TEXT
100
AcDbText
  6
BYLAYER
 10
77.3935238436447
 20
6.70710678118656
 40
3.5
  1
1
  7
Font_0
 72
1
 11
78.2685238436447
 21
6.70710678118656
100
AcDbText
  0
TEXT
  5
2D5
100
AcDbEntity
  8
TEXT
100
AcDbText
  6
BYLAYER
 10
77.3935238436447
 20
12.7071067811866
 40
3.5
  1
1
  7
Font_0
 72
1
 11
78.2685238436447
 21
12.7071067811866
100
AcDbText
  0
TEXT
  5
2D6
100
AcDbEntity
  8
TEXT
100
AcDbText
  6
BYLAYER
 10
20.7
 20
42.7071067811866
 40
3.5
  1
A
  7
Font_0
100
AcDbText
  0
TEXT
  5
2D7
100
AcDbEntity
  8
TEXT
100
AcDbText
  6
BYLAYER
 10
20.7
 20
30.7071067811865
 40
3.5
  1
A
  7
Font_0
100
AcDbText
  0
TEXT
  5
2D8
100
AcDbEntity
  8
TEXT
100
AcDbText
  6
BYLAYER
 10
20.7
 20
24.7071067811866
 40
3.5
  1
A
  7
Font_0
100
AcDbText
  0
TEXT
  5
2D9
100
AcDbEntity
  8
TEXT
100
AcDbText
  6
BYLAYER
 10
20.7
 20
36.7071067811866
 40
3.5
  1
A
  7
Font_0
100
AcDbText
  0
TEXT
  5
2DA
100
AcDbEntity
  8
TEXT
100
AcDbText
  6
BYLAYER
 10
77.3935238436447
 20
42.7071067811866
 40
3.5
  1
1
  7
Font_0
 72
1
 11
78.2685238436447
 21
42.7071067811866
100
AcDbText
  0
TEXT
  5
2DB
100
AcDbEntity
  8
TEXT
100
AcDbText
  6
BYLAYER
 10
77.3935238436447
 20
30.7071067811865
 40
3.5
  1
1
  7
Font_0
 72
1
 11
78.2685238436447
 21
30.7071067811865
100
AcDbText
  0
TEXT
  5
2DC
100
AcDbEntity
  8
TEXT
100
AcDbText
  6
BYLAYER
 10
77.3935238436447
 20
24.7071067811866
 40
3.5
  1
1
  7
Font_0
 72
1
 11
78.2685238436447
 21
24.7071067811866
100
AcDbText
  0
TEXT
  5
2DD
100
AcDbEntity
  8
TEXT
100
AcDbText
  6
BYLAYER
 10
77.3935238436447
 20
36.7071067811866
 40
3.5
  1
1
  7
Font_0
 72
1
 11
78.2685238436447
 21
36.7071067811866
100
AcDbText
  0
ENDBLK
  5
2DE
100
AcDbEntity
  8
0
 67
     1
100
AcDbBlockEnd
  0
BLOCK
  5
2DF
100
AcDbEntity
  8
0
100
AcDbBlockBegin
  2
A4ｹﾏｮﾘ
 70
    0
 10
0
 20
0
 30
0.0
  3
A4ｹﾏｮﾘ
  1

  0
POINT
  5
2E0
100
AcDbEntity
  8
7475A
100
AcDbPoint
 10
289
 20
0
  0
LINE
  5
2E1
100
AcDbEntity
  8
0
100
AcDbLine
  6
BYLAYER
 10
0
 20
12
 11
278.4
 21
12
  0
LINE
  5
2E2
100
AcDbEntity
  8
0
100
AcDbLine
  6
BYLAYER
 10
0
 20
6
 11
278.4
 21
6
  0
LINE
  5
2E3
100
AcDbEntity
  8
0
100
AcDbLine
  6
BYLAYER
 10
96.85
 20
30
 11
278.4
 21
30
  0
LINE
  5
2E4
100
AcDbEntity
  8
0
100
AcDbLine
  6
BYLAYER
 10
96.85
 20
24
 11
278.4
 21
24
  0
LINE
  5
2E5
100
AcDbEntity
  8
0
100
AcDbLine
  6
BYLAYER
 10
96.85
 20
18
 11
278.4
 21
18
  0
TEXT
  5
2E6
100
AcDbEntity
  8
0
100
AcDbText
  6
BYLAYER
 10
22.1680110084321
 20
15.7553550725962
 40
2.8
  1
CAM YORK INDUSTRIAL CO.,LTD.
  7
Font_0
100
AcDbText
  0
TEXT
  5
2E7
100
AcDbEntity
  8
0
100
AcDbText
  6
BYLAYER
 10
22.0468952754036
 20
26
 40
7
  1
ｫﾘｷﾔ､uｷ~ｪﾑ･ｳｭｭ､ｽ･q
  7
Font_0
100
AcDbText
  0
TEXT
  5
2E8
100
AcDbEntity
  8
0
100
AcDbText
  6
BYLAYER
 10
63.8643398403977
 20
7.09411371042404
 40
2.8
  1
(04)3322629
  7
Font_0
100
AcDbText
  0
LINE
  5
2E9
100
AcDbEntity
  8
0
100
AcDbLine
  6
BYLAYER
 10
10.1054905349494
 20
28.7603510666656
 11
15.2233703294355
 21
28.7603510666656
  0
CIRCLE
  5
2EA
100
AcDbEntity
  8
0
100
AcDbCircle
  6
BYLAYER
 10
10.1054905349494
 20
24.350263158651
 40
9.36463111331499
  0
CIRCLE
  5
2EB
100
AcDbEntity
  8
0
100
AcDbCircle
  6
BYLAYER
 10
10.1054905349494
 20
24.350263158651
 40
7.62237416200057
  0
ARC
  5
2EC
100
AcDbEntity
  8
0
100
AcDbCircle
  6
BYLAYER
 10
10.1054905349494
 20
24.350263158651
 40
4.41008790801462
100
AcDbArc
 50
90
 51
0
  0
LINE
  5
2ED
100
AcDbEntity
  8
0
100
AcDbLine
  6
BYLAYER
 10
13
 20
12
 11
13
 21
0
  0
TEXT
  5
2EE
100
AcDbEntity
  8
0
100
AcDbText
  6
BYLAYER
 10
2.6
 20
7.3
 40
3
  1
TEL
  7
Font_0
100
AcDbText
  0
TEXT
  5
2EF
100
AcDbEntity
  8
0
100
AcDbText
  6
BYLAYER
 10
3.5
 20
1.5
 40
3
  1
ｳﾆｵ�
  7
Font_0
 72
1
 11
6.5
 21
3
100
AcDbText
 73
2
  0
ARC
  5
2F0
100
AcDbEntity
  8
0
100
AcDbCircle
  6
BYLAYER
 10
10.5745216067836
 20
32.8983997393573
 40
0.704372460813671
100
AcDbArc
 50
83.8529806316668
 51
239.250071636948
  0
ARC
  5
2F1
100
AcDbEntity
  8
0
100
AcDbCircle
  6
BYLAYER
 10
6.23761506796892
 20
31.9876821284788
 40
0.704372460813671
100
AcDbArc
 50
113.852980631667
 51
269.250071636948
  0
ARC
  5
2F2
100
AcDbEntity
  8
0
100
AcDbCircle
  6
BYLAYER
 10
2.46807156512152
 20
20.4823876916705
 40
0.704372460813671
100
AcDbArc
 50
203.852980631667
 51
359.250071636948
  0
ARC
  5
2F3
100
AcDbEntity
  8
0
100
AcDbCircle
  6
BYLAYER
 10
9.63645946311512
 20
15.8021265779447
 40
0.704372460813671
100
AcDbArc
 50
263.852980631667
 51
59.2500716369476
  0
ARC
  5
2F4
100
AcDbEntity
  8
0
100
AcDbCircle
  6
BYLAYER
 10
5.4252294212235
 20
17.1818752606574
 40
0.704372460813671
100
AcDbArc
 50
233.852980631667
 51
29.2500716369476
  0
ARC
  5
2F5
100
AcDbEntity
  8
0
100
AcDbCircle
  6
BYLAYER
 10
1.55735395424306
 20
24.8192942304852
 40
0.704372460813671
100
AcDbArc
 50
173.852980631667
 51
329.250071636948
  0
ARC
  5
2F6
100
AcDbEntity
  8
0
100
AcDbCircle
  6
BYLAYER
 10
2.93710263695578
 20
29.0305242723768
 40
0.704372460813671
100
AcDbArc
 50
143.852980631667
 51
299.250071636948
  0
TEXT
  5
2F7
100
AcDbEntity
  8
0
100
AcDbText
  6
BYLAYER
 10
7.49210581170385
 20
21.8477388856442
 40
5
  1
Y
  7
Font_0
100
AcDbText
  0
TEXT
  5
2F8
100
AcDbEntity
  8
0
100
AcDbText
  6
BYLAYER
 10
42.3478047909238
 20
7.2
 40
2.8
  1
~8
  7
Font_0
100
AcDbText
  0
TEXT
  5
2F9
100
AcDbEntity
  8
0
100
AcDbText
  6
BYLAYER
 10
13.8764304985659
 20
7.2
 40
2.8
  1
(04)3322627
  7
Font_0
100
AcDbText
  0
TEXT
  5
2FA
100
AcDbEntity
  8
0
100
AcDbText
  6
BYLAYER
 10
51
 20
7.2
 40
3
  1
FAX
  7
Font_0
100
AcDbText
  0
LINE
  5
2FB
100
AcDbEntity
  8
0
100
AcDbLine
  6
BYLAYER
 10
48
 20
12
 11
48
 21
6
  0
LINE
  5
2FC
100
AcDbEntity
  8
0
100
AcDbLine
  6
BYLAYER
 10
62
 20
12
 11
62
 21
6
  0
ARC
  5
2FD
100
AcDbEntity
  8
0
100
AcDbCircle
  6
BYLAYER
 10
14.7857516486752
 20
31.5186510566446
 40
0.704372460813671
100
AcDbArc
 50
53.8529806316668
 51
209.250071636948
  0
ARC
  5
2FE
100
AcDbEntity
  8
0
100
AcDbCircle
  6
BYLAYER
 10
17.273878432943
 20
19.6700020449251
 40
0.704372460813671
100
AcDbArc
 50
323.852980631667
 51
119.250071636948
  0
ARC
  5
2FF
100
AcDbEntity
  8
0
100
AcDbCircle
  6
BYLAYER
 10
13.9733660019298
 20
16.7128441888231
 40
0.704372460813671
100
AcDbArc
 50
293.852980631667
 51
89.2500716369476
  0
LINE
  5
300
100
AcDbEntity
  8
0
100
AcDbLine
  6
BYLAYER
 10
14.515578442964
 20
24.350263158651
 11
15.4411524483498
 21
24.350263158651
  0
ARC
  5
301
100
AcDbEntity
  8
0
100
AcDbCircle
  6
BYLAYER
 10
18.6536271156557
 20
23.8812320868167
 40
0.704372460813671
100
AcDbArc
 50
353.852980631667
 51
149.250071636948
  0
ARC
  5
302
100
AcDbEntity
  8
0
100
AcDbCircle
  6
BYLAYER
 10
17.7429095047772
 20
28.2181386256314
 40
0.704372460813671
100
AcDbArc
 50
23.8529806316668
 51
179.250071636948
  0
TEXT
  5
303
100
AcDbEntity
  8
0
100
AcDbText
  6
BYLAYER
 10
100.4
 20
7.4
 40
3
  1
ｫ~ ｦW
  7
Font_0
100
AcDbText
  0
LINE
  5
304
100
AcDbEntity
  8
0
100
AcDbLine
  6
BYLAYER
 10
144
 20
36
 11
144
 21
0
  0
LINE
  5
305
100
AcDbEntity
  8
0
100
AcDbLine
  6
BYLAYER
 10
114
 20
36
 11
114
 21
0
  0
TEXT
  5
306
100
AcDbEntity
  8
0
100
AcDbText
  6
BYLAYER
 10
100.4
 20
1.6
 40
3
  1
ｹﾏ ｸｹ
  7
Font_0
100
AcDbText
  0
TEXT
  5
307
100
AcDbEntity
  8
0
100
AcDbText
  6
BYLAYER
 10
100.4
 20
31.6
 40
3
  1
･D ｺﾞ
  7
Font_0
100
AcDbText
  0
TEXT
  5
308
100
AcDbEntity
  8
0
100
AcDbText
  6
BYLAYER
 10
100.4
 20
19.6
 40
3
  1
ﾃｸ ｹﾏ
  7
Font_0
100
AcDbText
  0
TEXT
  5
309
100
AcDbEntity
  8
0
100
AcDbText
  6
BYLAYER
 10
100.4
 20
13.8
 40
3
  1
ｾ� ｺﾘ
  7
Font_0
100
AcDbText
  0
TEXT
  5
30A
100
AcDbEntity
  8
0
100
AcDbText
  6
BYLAYER
 10
100.4
 20
25.4
 40
3
  1
ｮﾖ ｹ�
  7
Font_0
100
AcDbText
  0
LINE
  5
30B
100
AcDbEntity
  8
0
100
AcDbLine
  6
BYLAYER
 10
163
 20
36
 11
163
 21
0
  0
TEXT
  5
30C
100
AcDbEntity
  8
0
100
AcDbText
  6
BYLAYER
 10
146.967830348543
 20
7.5
 40
3
  1
ｪ揵ｱｳBｲz
  7
Font_0
100
AcDbText
  0
TEXT
  5
30D
100
AcDbEntity
  8
0
100
AcDbText
  6
BYLAYER
 10
146.967830348543
 20
1.5
 40
3
  1
ｻsｹﾏ､魘ﾁ
  7
Font_0
100
AcDbText
  0
TEXT
  5
30E
100
AcDbEntity
  8
0
100
AcDbText
  6
BYLAYER
 10
148.5
 20
31.5
 40
3
  1
ｧ� ｽ�
  7
Font_0
100
AcDbText
  0
TEXT
  5
30F
100
AcDbEntity
  8
0
100
AcDbText
  6
BYLAYER
 10
148.5
 20
19.5
 40
3
  1
ｼﾆ ｶq
  7
Font_0
100
AcDbText
  0
TEXT
  5
310
100
AcDbEntity
  8
0
100
AcDbText
  6
BYLAYER
 10
148.5
 20
13.5
 40
3
  1
ｳ� ｦ�
  7
Font_0
100
AcDbText
  0
TEXT
  5
311
100
AcDbEntity
  8
0
100
AcDbText
  6
BYLAYER
 10
148.5
 20
25.5
 40
3
  1
､� ｨﾒ
  7
Font_0
100
AcDbText
  0
TEXT
  5
312
100
AcDbEntity
  8
0
100
AcDbText
  6
BYLAYER
 10
200.830454348633
 20
31.5
 40
3
  1
､魘ﾁ
  7
Font_0
100
AcDbText
  0
LINE
  5
313
100
AcDbEntity
  8
0
100
AcDbLine
  6
BYLAYER
 10
269.7178125
 20
135.285
 11
269.7178125
 21
151.27125
  0
LINE
  5
314
100
AcDbEntity
  8
0
100
AcDbLine
  6
BYLAYER
 10
261.035625
 20
135.285
 11
261.035625
 21
151.27125
  0
LINE
  5
315
100
AcDbEntity
  8
0
100
AcDbLine
  6
BYLAYER
 10
252.3534375
 20
135.285
 11
252.3534375
 21
151.27125
  0
LINE
  5
316
100
AcDbEntity
  8
0
100
AcDbLine
  6
BYLAYER
 10
243.67125
 20
135.285
 11
243.67125
 21
180.4875
  0
LINE
  5
317
100
AcDbEntity
  8
0
100
AcDbLine
  6
BYLAYER
 10
221.07
 20
135.285
 11
221.07
 21
180.4875
  0
LINE
  5
318
100
AcDbEntity
  8
0
100
AcDbLine
  6
BYLAYER
 10
216.66
 20
135.285
 11
216.66
 21
186
  0
LINE
  5
319
100
AcDbEntity
  8
0
100
AcDbLine
  6
BYLAYER
 10
213
 20
36
 11
213
 21
0
  0
LINE
  5
31A
100
AcDbEntity
  8
0
100
AcDbLine
  6
BYLAYER
 10
232
 20
36
 11
232
 21
0
  0
TEXT
  5
31B
100
AcDbEntity
  8
0
100
AcDbText
  6
BYLAYER
 10
235
 20
31.5
 40
3
  1
ｧ�   ｧ�   ､ｺ   ｮe
  7
Font_0
100
AcDbText
  0
TEXT
  5
31C
100
AcDbEntity
  8
0
100
AcDbText
  6
BYLAYER
 10
218.659856969007
 20
31.5
 40
3
  1
ｭtｳd､H
  7
Font_0
100
AcDbText
  0
LINE
  5
31D
100
AcDbEntity
  8
0
100
AcDbLine
  6
BYLAYER
 10
278.4
 20
139.695
 11
221.07
 21
139.695
  0
LINE
  5
31E
100
AcDbEntity
  8
0
100
AcDbLine
  6
BYLAYER
 10
278.4
 20
135.285
 11
216.66
 21
135.285
  0
TEXT
  5
31F
100
AcDbEntity
  8
0
100
AcDbText
  6
BYLAYER
 10
246.15416478566
 20
128.207003496756
 40
2
  1
projection ｲﾄ､Tｨ､ｧ�ｼv
  7
Font_0
100
AcDbText
  0
LINE
  5
320
100
AcDbEntity
  8
0
100
AcDbLine
  6
BYLAYER
 10
278.4
 20
113.78625
 11
243.67125
 21
113.78625
  0
TEXT
  5
321
100
AcDbEntity
  8
0
100
AcDbText
  6
BYLAYER
 10
271.4339125
 20
144.733125
 40
1.5
  1
100･H､W
  7
Font_0
 72
1
 11
274.0589125
 21
145.483125
100
AcDbText
 73
2
  0
TEXT
  5
322
100
AcDbEntity
  8
0
100
AcDbText
  6
BYLAYER
 10
272.1839125
 20
136.74
 40
1.5
  1
±10'
  7
Font_0
 72
1
 11
274.0589125
 21
137.49
100
AcDbText
 73
2
  0
MTEXT
  5
323
100
AcDbEntity
  8
0
100
AcDbMText
 10
232.37065
 20
145.483125
 40
2
 41
  0.0
  1
､ｽｺﾙ､ﾘ､o (ｪﾗ)\Pｧｨｦｨｨ､､ｧｵuﾃ荀@､�
 71
5
  7
Font_0
  0
TEXT
  5
324
100
AcDbEntity
  8
0
100
AcDbText
  6
BYLAYER
 10
217.365
 20
147.778125
 40
3
  1
ｪｽｨ､ｫﾗ
  7
Font_1
 50
270
 11
218.865
 21
147.778125
100
AcDbText
 73
2
  0
TEXT
  5
325
100
AcDbEntity
  8
0
100
AcDbText
  6
BYLAYER
 10
227.87065
 20
135.99
 40
3
  1
ｨ､ｫﾗｮt
  7
Font_0
 72
1
 11
232.37065
 21
137.49
100
AcDbText
 73
2
  0
LINE
  5
326
100
AcDbEntity
  8
0
100
AcDbLine
  6
BYLAYER
 10
254.802068029839
 20
115.173423624616
 11
254.802068029839
 21
126.198423624616
  0
LINE
  5
327
100
AcDbEntity
  8
0
100
AcDbLine
  6
BYLAYER
 10
243.67125
 20
113.78625
 11
243.67125
 21
135.285
  0
CIRCLE
  5
328
100
AcDbEntity
  8
0
100
AcDbCircle
  6
BYLAYER
 10
254.802068029839
 20
120.685923624616
 40
4.41
  0
LINE
  5
329
100
AcDbEntity
  8
0
100
AcDbLine
  6
BYLAYER
 10
249.289568029839
 20
120.685923624616
 11
260.314568029839
 21
120.685923624616
  0
CIRCLE
  5
32A
100
AcDbEntity
  8
0
100
AcDbCircle
  6
BYLAYER
 10
254.802068029839
 20
120.685923624616
 40
2.205
  0
LINE
  5
32B
100
AcDbEntity
  8
0
100
AcDbLine
  6
BYLAYER
 10
263.194180551461
 20
120.685923624616
 11
274.770430551461
 21
120.685923624616
  0
LWPOLYLINE
  5
32C
100
AcDbEntity
  8
0
100
AcDbPolyline
  6
BYLAYER
370
0
 90
     4
 70
     1
 10
264.296680551461
  20
118.480923624616
 10
273.667930551461
  20
116.275923624616
 10
273.667930551461
  20
125.095923624616
 10
264.296680551461
  20
122.890923624616
  0
TEXT
  5
32D
100
AcDbEntity
  8
0
100
AcDbText
  6
BYLAYER
 10
245.828721587618
 20
131.605971951227
 40
2
  1
Third angle
  7
Font_0
100
AcDbText
  0
MTEXT
  5
32E
100
AcDbEntity
  8
0
100
AcDbMText
 10
256.6945375
 20
145.483125
 40
1.5
 41
  0.0
  1
10･H､W\P50･H､U
 71
5
  7
Font_0
  0
TEXT
  5
32F
100
AcDbEntity
  8
0
100
AcDbText
  6
BYLAYER
 10
246.13735
 20
136.74
 40
1.5
  1
±1°
  7
Font_0
 72
1
 11
248.01235
 21
137.49
100
AcDbText
 73
2
  0
TEXT
  5
330
100
AcDbEntity
  8
0
100
AcDbText
  6
BYLAYER
 10
254.8195375
 20
136.74
 40
1.5
  1
±30'
  7
Font_0
 72
1
 11
256.6945375
 21
137.49
100
AcDbText
 73
2
  0
TEXT
  5
331
100
AcDbEntity
  8
0
100
AcDbText
  6
BYLAYER
 10
245.76235
 20
144.733125
 40
1.5
  1
10･H､U
  7
Font_0
 72
1
 11
248.01235
 21
145.483125
100
AcDbText
 73
2
  0
TEXT
  5
332
100
AcDbEntity
  8
0
100
AcDbText
  6
BYLAYER
 10
263.501725
 20
136.74
 40
1.5
  1
±20'
  7
Font_0
 72
1
 11
265.376725
 21
137.49
100
AcDbText
 73
2
  0
MTEXT
  5
333
100
AcDbEntity
  8
0
100
AcDbMText
 10
265.376725
 20
145.483125
 40
1.5
 41
  0.0
  1
50･H､W\P100･H､U
 71
5
  7
Font_0
  0
LINE
  5
334
100
AcDbEntity
  8
0
100
AcDbLine
  6
BYLAYER
 10
221.07
 20
155.68125
 11
278.4
 21
155.68125
  0
LINE
  5
335
100
AcDbEntity
  8
0
100
AcDbLine
  6
BYLAYER
 10
221.07
 20
160.09125
 11
278.4
 21
160.09125
  0
LINE
  5
336
100
AcDbEntity
  8
0
100
AcDbLine
  6
BYLAYER
 10
221.07
 20
164.50125
 11
278.4
 21
164.50125
  0
LINE
  5
337
100
AcDbEntity
  8
0
100
AcDbLine
  6
BYLAYER
 10
221.07
 20
168.91125
 11
278.4
 21
168.91125
  0
LINE
  5
338
100
AcDbEntity
  8
0
100
AcDbLine
  6
BYLAYER
 10
221.07
 20
173.32125
 11
278.4
 21
173.32125
  0
LINE
  5
339
100
AcDbEntity
  8
0
100
AcDbLine
  6
BYLAYER
 10
216.66
 20
151.27125
 11
278.4
 21
151.27125
  0
LINE
  5
33A
100
AcDbEntity
  8
0
100
AcDbLine
  6
BYLAYER
 10
216.66
 20
180.4875
 11
278.4
 21
180.4875
  0
TEXT
  5
33B
100
AcDbEntity
  8
0
100
AcDbText
  6
BYLAYER
 10
269.1119
 20
175.154375
 40
3.5
  1
ｲﾊｯﾅ
  7
Font_0
 72
1
 11
272.6119
 21
176.904375
100
AcDbText
 73
2
  0
LINE
  5
33C
100
AcDbEntity
  8
0
100
AcDbLine
  6
BYLAYER
 10
243.67125
 20
173.32125
 11
232.06971689676
 21
180.4875
  0
TEXT
  5
33D
100
AcDbEntity
  8
0
100
AcDbText
  6
BYLAYER
 10
230.03
 20
181.49375
 40
3.5
  1
ｦｨ ｫ~ ､ｧ ｴｶ ｳq ､ｽ ｮt
  7
Font_0
 72
1
 11
247.53
 21
183.24375
100
AcDbText
 73
2
  0
TEXT
  5
33E
100
AcDbEntity
  8
0
100
AcDbText
  6
BYLAYER
 10
228.24565
 20
170.36625
 40
1.5
  1
1･H､W~4･H､U
  7
Font_0
 72
1
 11
232.37065
 21
171.11625
100
AcDbText
 73
2
  0
TEXT
  5
33F
100
AcDbEntity
  8
0
100
AcDbText
  6
BYLAYER
 10
227.49565
 20
161.54625
 40
1.5
  1
16･H､W~63･H､U
  7
Font_0
 72
1
 11
232.37065
 21
162.29625
100
AcDbText
 73
2
  0
TEXT
  5
340
100
AcDbEntity
  8
0
100
AcDbText
  6
BYLAYER
 10
227.12065
 20
157.13625
 40
1.5
  1
63･H､W~250･H､U
  7
Font_0
 72
1
 11
232.37065
 21
157.88625
100
AcDbText
 73
2
  0
TEXT
  5
341
100
AcDbEntity
  8
0
100
AcDbText
  6
BYLAYER
 10
226.37065
 20
152.72625
 40
1.5
  1
250･H､W~1000･H､U
  7
Font_0
 72
1
 11
232.37065
 21
153.47625
100
AcDbText
 73
2
  0
MTEXT
  5
342
100
AcDbEntity
  8
0
100
AcDbMText
 10
218.865
 20
168.879375
 40
3
 41
  0.0
  1
ｪﾗ
 71
4
  7
Font_1
 11
-1.83690953073357E-16
 21
-1
  0
TEXT
  5
343
100
AcDbEntity
  8
0
100
AcDbText
  6
BYLAYER
 10
227.87065
 20
165.95625
 40
1.5
  1
4･H､W~16･H､U
  7
Font_0
 72
1
 11
232.37065
 21
166.70625
100
AcDbText
 73
2
  0
TEXT
  5
344
100
AcDbEntity
  8
0
100
AcDbText
  6
BYLAYER
 10
221.354797302298
 20
174.015263609177
 40
1.7
  1
､ｽｺﾙ､ﾘ､oｹｺ､ﾀm/m
  7
Font_0
100
AcDbText
  0
TEXT
  5
345
100
AcDbEntity
  8
0
100
AcDbText
  6
BYLAYER
 10
237.865638127741
 20
177.454836298923
 40
1.7
  1
ｵ･ｯﾅ
  7
Font_0
100
AcDbText
  0
LINE
  5
346
100
AcDbEntity
  8
0
100
AcDbLine
  6
BYLAYER
 10
266.82375
 20
151.27125
 11
266.82375
 21
180.4875
  0
LINE
  5
347
100
AcDbEntity
  8
0
100
AcDbLine
  6
BYLAYER
 10
255.2475
 20
151.27125
 11
255.2475
 21
180.4875
  0
TEXT
  5
348
100
AcDbEntity
  8
0
100
AcDbText
  6
BYLAYER
 10
247.2094
 20
170.36625
 40
1.5
  1
±0.05
  7
Font_0
 72
1
 11
249.4594
 21
171.11625
100
AcDbText
 73
2
  0
TEXT
  5
349
100
AcDbEntity
  8
0
100
AcDbText
  6
BYLAYER
 10
258.78565
 20
170.36625
 40
1.5
  1
±0.10
  7
Font_0
 72
1
 11
261.03565
 21
171.11625
100
AcDbText
 73
2
  0
TEXT
  5
34A
100
AcDbEntity
  8
0
100
AcDbText
  6
BYLAYER
 10
270.3619
 20
170.36625
 40
1.5
  1
±0.30
  7
Font_0
 72
1
 11
272.6119
 21
171.11625
100
AcDbText
 73
2
  0
TEXT
  5
34B
100
AcDbEntity
  8
0
100
AcDbText
  6
BYLAYER
 10
258.78565
 20
165.95625
 40
1.5
  1
±0.20
  7
Font_0
 72
1
 11
261.03565
 21
166.70625
100
AcDbText
 73
2
  0
TEXT
  5
34C
100
AcDbEntity
  8
0
100
AcDbText
  6
BYLAYER
 10
258.78565
 20
161.54625
 40
1.5
  1
±0.30
  7
Font_0
 72
1
 11
261.03565
 21
162.29625
100
AcDbText
 73
2
  0
TEXT
  5
34D
100
AcDbEntity
  8
0
100
AcDbText
  6
BYLAYER
 10
258.78565
 20
157.13625
 40
1.5
  1
±0.50
  7
Font_0
 72
1
 11
261.03565
 21
157.88625
100
AcDbText
 73
2
  0
TEXT
  5
34E
100
AcDbEntity
  8
0
100
AcDbText
  6
BYLAYER
 10
258.78565
 20
152.72625
 40
1.5
  1
±0.80
  7
Font_0
 72
1
 11
261.03565
 21
153.47625
100
AcDbText
 73
2
  0
TEXT
  5
34F
100
AcDbEntity
  8
0
100
AcDbText
  6
BYLAYER
 10
247.2094
 20
157.13625
 40
1.5
  1
±0.20
  7
Font_0
 72
1
 11
249.4594
 21
157.88625
100
AcDbText
 73
2
  0
TEXT
  5
350
100
AcDbEntity
  8
0
100
AcDbText
  6
BYLAYER
 10
247.2094
 20
152.72625
 40
1.5
  1
±0.30
  7
Font_0
 72
1
 11
249.4594
 21
153.47625
100
AcDbText
 73
2
  0
TEXT
  5
351
100
AcDbEntity
  8
0
100
AcDbText
  6
BYLAYER
 10
247.2094
 20
165.95625
 40
1.5
  1
±0.07
  7
Font_0
 72
1
 11
249.4594
 21
166.70625
100
AcDbText
 73
2
  0
TEXT
  5
352
100
AcDbEntity
  8
0
100
AcDbText
  6
BYLAYER
 10
247.2094
 20
161.54625
 40
1.5
  1
±0.10
  7
Font_0
 72
1
 11
249.4594
 21
162.29625
100
AcDbText
 73
2
  0
TEXT
  5
353
100
AcDbEntity
  8
0
100
AcDbText
  6
BYLAYER
 10
270.3619
 20
152.72625
 40
1.5
  1
±2.00
  7
Font_0
 72
1
 11
272.6119
 21
153.47625
100
AcDbText
 73
2
  0
TEXT
  5
354
100
AcDbEntity
  8
0
100
AcDbText
  6
BYLAYER
 10
270.3619
 20
157.13625
 40
1.5
  1
±1.20
  7
Font_0
 72
1
 11
272.6119
 21
157.88625
100
AcDbText
 73
2
  0
TEXT
  5
355
100
AcDbEntity
  8
0
100
AcDbText
  6
BYLAYER
 10
270.3619
 20
161.54625
 40
1.5
  1
±0.70
  7
Font_0
 72
1
 11
272.6119
 21
162.29625
100
AcDbText
 73
2
  0
TEXT
  5
356
100
AcDbEntity
  8
0
100
AcDbText
  6
BYLAYER
 10
270.3619
 20
165.95625
 40
1.5
  1
±0.50
  7
Font_0
 72
1
 11
272.6119
 21
166.70625
100
AcDbText
 73
2
  0
TEXT
  5
357
100
AcDbEntity
  8
0
100
AcDbText
  6
BYLAYER
 10
257.5356
 20
175.154375
 40
3.5
  1
､､ｯﾅ
  7
Font_0
 72
1
 11
261.0356
 21
176.904375
100
AcDbText
 73
2
  0
TEXT
  5
358
100
AcDbEntity
  8
0
100
AcDbText
  6
BYLAYER
 10
245.9594
 20
175.154375
 40
3.5
  1
ｲﾓｯﾅ
  7
Font_0
 72
1
 11
249.4594
 21
176.904375
100
AcDbText
 73
2
  0
LWPOLYLINE
  5
359
100
AcDbEntity
  8
0
100
AcDbPolyline
  6
BYLAYER
370
20
 90
     4
 70
     1
 10
0
  20
0
 10
0
  20
186
 10
278.4
  20
186
 10
278.4
  20
0
  0
LWPOLYLINE
  5
35A
100
AcDbEntity
  8
0
100
AcDbPolyline
  6
BYLAYER
370
20
 90
     2
 10
0
  20
36
 10
278.4
  20
36
  0
LWPOLYLINE
  5
35B
100
AcDbEntity
  8
0
100
AcDbPolyline
  6
BYLAYER
370
20
 90
     2
 10
195.15
  20
36
 10
195.15
  20
0
  0
LWPOLYLINE
  5
35C
100
AcDbEntity
  8
0
100
AcDbPolyline
  6
BYLAYER
370
20
 90
     2
 10
96.85
  20
36
 10
96.85
  20
0
  0
ENDBLK
  5
35D
100
AcDbEntity
  8
0
 67
     1
100
AcDbBlockEnd
  0
BLOCK
  5
35E
100
AcDbEntity
  8
0
100
AcDbBlockBegin
  2
A
 70
    0
 10
0
 20
0
 30
0.0
  3
A
  1

  0
LWPOLYLINE
  5
35F
100
AcDbEntity
  8
0
100
AcDbPolyline
  6
BYLAYER
370
0
 90
     3
 70
     1
 10
-1.5
  20
-0.866025403784434
 10
-0.5
  20
-0.866025403784434
 10
-1
  20
0
  0
LWPOLYLINE
  5
360
100
AcDbEntity
  8
0
100
AcDbPolyline
  6
BYLAYER
370
0
 90
     3
 70
     1
 10
0.5
  20
-0.866025403784434
 10
1.5
  20
-0.866025403784434
 10
1
  20
0
  0
LWPOLYLINE
  5
361
100
AcDbEntity
  8
0
100
AcDbPolyline
  6
BYLAYER
370
0
 90
     3
 70
     1
 10
-0.5
  20
-0.866025403784434
 10
0.5
  20
-0.866025403784434
 10
0
  20
0
  0
ENDBLK
  5
362
100
AcDbEntity
  8
0
 67
     1
100
AcDbBlockEnd
  0
BLOCK
  5
363
100
AcDbEntity
  8
0
100
AcDbBlockBegin
  2
AR
 70
    0
 10
0
 20
0
 30
0.0
  3
AR
  1

  0
LINE
  5
364
100
AcDbEntity
  8
0
100
AcDbLine
  6
BYLAYER
 10
0
 20
0
 11
-1
 21
0
  0
ARC
  5
365
100
AcDbEntity
  8
0
100
AcDbCircle
  6
BYLAYER
370
15
 10
0
 20
9.18861341181501E-18
 40
0.0750000000000029
100
AcDbArc
 50
-180
 51
0
  0
ARC
  5
366
100
AcDbEntity
  8
0
100
AcDbCircle
  6
BYLAYER
370
15
 10
0
 20
1.83690953073364E-17
 40
0.0750000000000029
100
AcDbArc
 50
0
 51
180
  0
ENDBLK
  5
367
100
AcDbEntity
  8
0
 67
     1
100
AcDbBlockEnd
  0
BLOCK
  5
368
100
AcDbEntity
  8
0
100
AcDbBlockBegin
  2
JAME
 70
    0
 10
0
 20
0
 30
0.0
  3
JAME
  1

  0
TEXT
  5
369
100
AcDbEntity
  8
0
100
AcDbText
  6
BYLAYER
 10
200.830454348633
 20
31.5
 40
3
  1
､魘ﾁ
  7
Font_0
100
AcDbText
  0
LINE
  5
36A
100
AcDbEntity
  8
0
100
AcDbLine
  6
BYLAYER
 10
0
 20
12
 11
278.4
 21
12
  0
LINE
  5
36B
100
AcDbEntity
  8
0
100
AcDbLine
  6
BYLAYER
 10
0
 20
6
 11
278.4
 21
6
  0
LINE
  5
36C
100
AcDbEntity
  8
0
100
AcDbLine
  6
BYLAYER
 10
0
 20
0
 11
278.4
 21
0
  0
LINE
  5
36D
100
AcDbEntity
  8
0
100
AcDbLine
  6
BYLAYER
 10
96.85
 20
30
 11
278.4
 21
30
  0
LINE
  5
36E
100
AcDbEntity
  8
0
100
AcDbLine
  6
BYLAYER
 10
96.85
 20
24
 11
278.4
 21
24
  0
LINE
  5
36F
100
AcDbEntity
  8
0
100
AcDbLine
  6
BYLAYER
 10
96.85
 20
18
 11
278.4
 21
18
  0
LWPOLYLINE
  5
370
100
AcDbEntity
  8
0
100
AcDbPolyline
  6
BYLAYER
370
0
 90
     2
 70
     1
 10
0
  20
36
 10
278.4
  20
36
  0
LWPOLYLINE
  5
371
100
AcDbEntity
  8
0
100
AcDbPolyline
  6
BYLAYER
 90
     2
 70
     1
 10
278.4
  20
186
 10
0
  20
186
  0
LINE
  5
372
100
AcDbEntity
  8
0
100
AcDbLine
  6
BYLAYER
 10
0
 20
0
 11
0
 21
186
  0
TEXT
  5
373
100
AcDbEntity
  8
0
100
AcDbText
  6
BYLAYER
 10
63.8643398403977
 20
7.09411371042404
 40
2.8
  1
(04)23322629
  7
Font_0
100
AcDbText
  0
TEXT
  5
374
100
AcDbEntity
  8
0
100
AcDbText
  6
BYLAYER
 10
22.1680110084321
 20
15.7553550725962
 40
2.8
  1
CAM YORK INDUSTRIAL CO.,LTD.
  7
Font_0
100
AcDbText
  0
TEXT
  5
375
100
AcDbEntity
  8
0
100
AcDbText
  6
BYLAYER
 10
22.0468952754036
 20
26
 40
7
  1
ｫﾘｷﾔ､uｷ~ｪﾑ･ｳｭｭ､ｽ･q
  7
Font_0
100
AcDbText
  0
ARC
  5
376
100
AcDbEntity
  8
0
100
AcDbCircle
  6
BYLAYER
 10
5.4252294212235
 20
17.1818752606574
 40
0.704372460813671
100
AcDbArc
 50
233.852980631667
 51
29.2500716369477
  0
TEXT
  5
377
100
AcDbEntity
  8
0
100
AcDbText
  6
BYLAYER
 10
3.5
 20
1.5
 40
3
  1
ｳﾆｵ�
  7
Font_0
 72
1
 11
6.5
 21
3
100
AcDbText
 73
2
  0
TEXT
  5
378
100
AcDbEntity
  8
0
100
AcDbText
  6
BYLAYER
 10
2.6
 20
7.3
 40
3
  1
TEL
  7
Font_0
100
AcDbText
  0
ARC
  5
379
100
AcDbEntity
  8
0
100
AcDbCircle
  6
BYLAYER
 10
10.1054905349494
 20
24.350263158651
 40
4.41008790801462
100
AcDbArc
 50
90
 51
0
  0
CIRCLE
  5
37A
100
AcDbEntity
  8
0
100
AcDbCircle
  6
BYLAYER
 10
10.1054905349494
 20
24.350263158651
 40
7.62237416200057
  0
CIRCLE
  5
37B
100
AcDbEntity
  8
0
100
AcDbCircle
  6
BYLAYER
 10
10.1054905349494
 20
24.350263158651
 40
9.36463111331499
  0
ARC
  5
37C
100
AcDbEntity
  8
0
100
AcDbCircle
  6
BYLAYER
 10
6.23761506796892
 20
31.9876821284788
 40
0.704372460813671
100
AcDbArc
 50
113.852980631667
 51
269.250071636948
  0
ARC
  5
37D
100
AcDbEntity
  8
0
100
AcDbCircle
  6
BYLAYER
 10
2.46807156512152
 20
20.4823876916705
 40
0.704372460813671
100
AcDbArc
 50
203.852980631667
 51
359.250071636948
  0
ARC
  5
37E
100
AcDbEntity
  8
0
100
AcDbCircle
  6
BYLAYER
 10
1.55735395424306
 20
24.8192942304852
 40
0.704372460813671
100
AcDbArc
 50
173.852980631667
 51
329.250071636948
  0
ARC
  5
37F
100
AcDbEntity
  8
0
100
AcDbCircle
  6
BYLAYER
 10
2.93710263695578
 20
29.0305242723768
 40
0.704372460813671
100
AcDbArc
 50
143.852980631667
 51
299.250071636948
  0
LINE
  5
380
100
AcDbEntity
  8
0
100
AcDbLine
  6
BYLAYER
 10
62
 20
12
 11
62
 21
6
  0
TEXT
  5
381
100
AcDbEntity
  8
0
100
AcDbText
  6
BYLAYER
 10
51.8
 20
7.2
 40
3
  1
FAX
  7
Font_0
100
AcDbText
  0
LINE
  5
382
100
AcDbEntity
  8
0
100
AcDbLine
  6
BYLAYER
 10
49.4
 20
12
 11
49.4
 21
6
  0
TEXT
  5
383
100
AcDbEntity
  8
0
100
AcDbText
  6
BYLAYER
 10
43.3478047909238
 20
7.2
 40
2.8
  1
~8
  7
Font_0
100
AcDbText
  0
LINE
  5
384
100
AcDbEntity
  8
0
100
AcDbLine
  6
BYLAYER
 10
11.8
 20
12
 11
11.8
 21
0
  0
TEXT
  5
385
100
AcDbEntity
  8
0
100
AcDbText
  6
BYLAYER
 10
12.8764304985659
 20
7.2
 40
2.8
  1
(04)23322627
  7
Font_0
100
AcDbText
  0
ARC
  5
386
100
AcDbEntity
  8
0
100
AcDbCircle
  6
BYLAYER
 10
14.7857516486752
 20
31.5186510566446
 40
0.704372460813671
100
AcDbArc
 50
53.8529806316668
 51
209.250071636948
  0
ARC
  5
387
100
AcDbEntity
  8
0
100
AcDbCircle
  6
BYLAYER
 10
10.5745216067836
 20
32.8983997393573
 40
0.704372460813671
100
AcDbArc
 50
83.8529806316668
 51
239.250071636948
  0
ARC
  5
388
100
AcDbEntity
  8
0
100
AcDbCircle
  6
BYLAYER
 10
13.9733660019298
 20
16.7128441888231
 40
0.704372460813671
100
AcDbArc
 50
293.852980631667
 51
89.2500716369476
  0
ARC
  5
389
100
AcDbEntity
  8
0
100
AcDbCircle
  6
BYLAYER
 10
9.63645946311512
 20
15.8021265779447
 40
0.704372460813671
100
AcDbArc
 50
263.852980631667
 51
59.2500716369476
  0
ARC
  5
38A
100
AcDbEntity
  8
0
100
AcDbCircle
  6
BYLAYER
 10
17.273878432943
 20
19.6700020449251
 40
0.704372460813671
100
AcDbArc
 50
323.852980631667
 51
119.250071636948
  0
LINE
  5
38B
100
AcDbEntity
  8
0
100
AcDbLine
  6
BYLAYER
 10
14.515578442964
 20
24.350263158651
 11
15.4411524483498
 21
24.350263158651
  0
LINE
  5
38C
100
AcDbEntity
  8
0
100
AcDbLine
  6
BYLAYER
 10
10.1054905349494
 20
28.7603510666656
 11
15.2233703294355
 21
28.7603510666656
  0
TEXT
  5
38D
100
AcDbEntity
  8
0
100
AcDbText
  6
BYLAYER
 10
7.49210581170385
 20
21.8477388856442
 40
5
  1
Y
  7
Font_0
100
AcDbText
  0
ARC
  5
38E
100
AcDbEntity
  8
0
100
AcDbCircle
  6
BYLAYER
 10
18.6536271156557
 20
23.8812320868167
 40
0.704372460813671
100
AcDbArc
 50
353.852980631667
 51
149.250071636947
  0
ARC
  5
38F
100
AcDbEntity
  8
0
100
AcDbCircle
  6
BYLAYER
 10
17.7429095047772
 20
28.2181386256314
 40
0.704372460813671
100
AcDbArc
 50
23.8529806316668
 51
179.250071636948
  0
LINE
  5
390
100
AcDbEntity
  8
0
100
AcDbLine
  6
BYLAYER
 10
114
 20
36
 11
114
 21
0
  0
TEXT
  5
391
100
AcDbEntity
  8
0
100
AcDbText
  6
BYLAYER
 10
100.4
 20
7.4
 40
3
  1
ｫ~ ｦW
  7
Font_0
100
AcDbText
  0
LINE
  5
392
100
AcDbEntity
  8
0
100
AcDbLine
  6
BYLAYER
 10
97.15
 20
36
 11
97.15
 21
0
  0
LINE
  5
393
100
AcDbEntity
  8
0
100
AcDbLine
  6
BYLAYER
 10
96.85
 20
36
 11
96.85
 21
0
  0
LWPOLYLINE
  5
394
100
AcDbEntity
  8
0
100
AcDbPolyline
  6
BYLAYER
370
0
 90
     4
 10
96.85
  20
36
 10
96.85
  20
0
 10
97.15
  20
0
 10
97.15
  20
36
  0
TEXT
  5
395
100
AcDbEntity
  8
0
100
AcDbText
  6
BYLAYER
 10
100.4
 20
1.6
 40
3
  1
ｹﾏ ｸｹ
  7
Font_0
100
AcDbText
  0
TEXT
  5
396
100
AcDbEntity
  8
0
100
AcDbText
  6
BYLAYER
 10
100.4
 20
31.6
 40
3
  1
･D ｺﾞ
  7
Font_0
100
AcDbText
  0
TEXT
  5
397
100
AcDbEntity
  8
0
100
AcDbText
  6
BYLAYER
 10
100.4
 20
19.6
 40
3
  1
ﾃｸ ｹﾏ
  7
Font_0
100
AcDbText
  0
TEXT
  5
398
100
AcDbEntity
  8
0
100
AcDbText
  6
BYLAYER
 10
100.4
 20
25.4
 40
3
  1
ｮﾖ ｹ�
  7
Font_0
100
AcDbText
  0
TEXT
  5
399
100
AcDbEntity
  8
0
100
AcDbText
  6
BYLAYER
 10
100.316862435203
 20
13.8
 40
3
  1
ｾ� ｺﾘ
  7
Font_0
100
AcDbText
  0
LINE
  5
39A
100
AcDbEntity
  8
0
100
AcDbLine
  6
BYLAYER
 10
195.15
 20
36
 11
195.15
 21
0
  0
LINE
  5
39B
100
AcDbEntity
  8
0
100
AcDbLine
  6
BYLAYER
 10
194.85
 20
36
 11
194.85
 21
0
  0
LINE
  5
39C
100
AcDbEntity
  8
0
100
AcDbLine
  6
BYLAYER
 10
195.025
 20
36
 11
195.025
 21
0
  0
TEXT
  5
39D
100
AcDbEntity
  8
0
100
AcDbText
  6
BYLAYER
 10
146.967830348543
 20
7.5
 40
3
  1
ｻsｹﾏ､魘ﾁ
  7
Font_0
100
AcDbText
  0
LINE
  5
39E
100
AcDbEntity
  8
0
100
AcDbLine
  6
BYLAYER
 10
163
 20
36
 11
163
 21
0
  0
LINE
  5
39F
100
AcDbEntity
  8
0
100
AcDbLine
  6
BYLAYER
 10
144
 20
36
 11
144
 21
0
  0
TEXT
  5
3A0
100
AcDbEntity
  8
0
100
AcDbText
  6
BYLAYER
 10
147.076922819997
 20
1.5
 40
3
  1
ｹqｸ｣ｽsｸｹ
  7
Font_0
100
AcDbText
  0
TEXT
  5
3A1
100
AcDbEntity
  8
0
100
AcDbText
  6
BYLAYER
 10
148.5
 20
31.5
 40
3
  1
ｧ� ｽ�
  7
Font_0
100
AcDbText
  0
TEXT
  5
3A2
100
AcDbEntity
  8
0
100
AcDbText
  6
BYLAYER
 10
148.5
 20
25.5
 40
3
  1
ｼﾆ ｶq
  7
Font_0
100
AcDbText
  0
TEXT
  5
3A3
100
AcDbEntity
  8
0
100
AcDbText
  6
BYLAYER
 10
148.5
 20
19.5
 40
3
  1
ｳ� ｦ�
  7
Font_0
100
AcDbText
  0
TEXT
  5
3A4
100
AcDbEntity
  8
0
100
AcDbText
  6
BYLAYER
 10
146.967830348543
 20
13.5
 40
3
  1
ｪ揵ｱｳBｲz
  7
Font_0
100
AcDbText
  0
LINE
  5
3A5
100
AcDbEntity
  8
0
100
AcDbLine
  6
BYLAYER
 10
278.4
 20
186
 11
278.4
 21
0
  0
TEXT
  5
3A6
100
AcDbEntity
  8
0
100
AcDbText
  6
BYLAYER
 10
235
 20
31.5
 40
3
  1
ｧ�   ｧ�   ､ｺ   ｮe
  7
Font_0
100
AcDbText
  0
LINE
  5
3A7
100
AcDbEntity
  8
0
100
AcDbLine
  6
BYLAYER
 10
232
 20
36
 11
232
 21
0
  0
LINE
  5
3A8
100
AcDbEntity
  8
0
100
AcDbLine
  6
BYLAYER
 10
213
 20
36
 11
213
 21
0
  0
TEXT
  5
3A9
100
AcDbEntity
  8
0
100
AcDbText
  6
BYLAYER
 10
218.659856969007
 20
31.5
 40
3
  1
ｭtｳd､H
  7
Font_0
100
AcDbText
  0
ENDBLK
  5
3AA
100
AcDbEntity
  8
0
 67
     1
100
AcDbBlockEnd
  0
BLOCK
  5
3AB
100
AcDbEntity
  8
0
100
AcDbBlockBegin
  2
A$C7E3A6B22
 70
    0
 10
0
 20
0
 30
0.0
  3
A$C7E3A6B22
  1

  0
LINE
  5
3AC
100
AcDbEntity
  8
BASE
100
AcDbLine
  6
BYLAYER
 10
170.000000553511
 20
4.60000004477968
 11
170.000000553511
 21
106.60000004478
  0
LINE
  5
3AD
100
AcDbEntity
  8
BASE
100
AcDbLine
  6
BYLAYER
 10
5.535109722E-7
 20
106.60000004478
 11
5.535109722E-7
 21
4.60000004477968
  0
ARC
  5
3AE
100
AcDbEntity
  8
BASE
100
AcDbCircle
  6
BYLAYER
 10
85.0000005535111
 20
151.60000004478
 40
85.5
100
AcDbArc
 50
208.68540201412
 51
331.31459798588
  0
LINE
  5
3AF
100
AcDbEntity
  8
0
100
AcDbLine
  6
BYLAYER
 10
170.000000553511
 20
1.60000004477968
 11
5.535109722E-7
 21
1.60000004477973
  0
LINE
  5
3B0
100
AcDbEntity
  8
0
100
AcDbLine
  6
BYLAYER
 10
170.000000553511
 20
4.47797106E-8
 11
5.535109757E-7
 21
4.47797674E-8
  0
LINE
  5
3B1
100
AcDbEntity
  8
0
100
AcDbLine
  6
BYLAYER
 10
3.00000055351097
 20
1.60000004477968
 11
5.535109722E-7
 21
4.60000004477968
  0
LINE
  5
3B2
100
AcDbEntity
  8
0
100
AcDbLine
  6
BYLAYER
 10
5.535109722E-7
 20
1.60000004477973
 11
5.535109722E-7
 21
4.47797106E-8
  0
ARC
  5
3B3
100
AcDbEntity
  8
0
100
AcDbCircle
  6
BYLAYER
 10
18.8938906674713
 20
83.3725698151803
 40
3.25
100
AcDbArc
 50
225.904707797231
 51
45.9047077972306
  0
ARC
  5
3B4
100
AcDbEntity
  8
0
100
AcDbCircle
  6
BYLAYER
 10
16.7725703239117
 20
85.4938901587399
 40
3.25
100
AcDbArc
 50
44.0952922027668
 51
224.095292202771
  0
ARC
  5
3B5
100
AcDbEntity
  8
0
100
AcDbCircle
  6
BYLAYER
 10
85.0000005535111
 20
151.60000004478
 40
98.25
100
AcDbArc
 50
224.095292202771
 51
225.904707797231
  0
ARC
  5
3B6
100
AcDbEntity
  8
0
100
AcDbCircle
  6
BYLAYER
 10
85.0000005535111
 20
151.60000004478
 40
91.75
100
AcDbArc
 50
224.095292202771
 51
225.904707797231
  0
LINE
  5
3B7
100
AcDbEntity
  8
0
100
AcDbLine
  6
BYLAYER
 10
167.000000553511
 20
1.60000004477968
 11
170.000000553511
 21
4.60000004477968
  0
LINE
  5
3B8
100
AcDbEntity
  8
0
100
AcDbLine
  6
BYLAYER
 10
170.000000553511
 20
4.47796538E-8
 11
170.000000553511
 21
1.60000004477968
  0
ARC
  5
3B9
100
AcDbEntity
  8
0
100
AcDbCircle
  6
BYLAYER
 10
153.22743078311
 20
85.4938901587399
 40
3.25
100
AcDbArc
 50
315.904707797229
 51
135.904707797233
  0
ARC
  5
3BA
100
AcDbEntity
  8
0
100
AcDbCircle
  6
BYLAYER
 10
151.106110439551
 20
83.3725698151803
 40
3.25
100
AcDbArc
 50
134.095292202769
 51
314.095292202769
  0
ARC
  5
3BB
100
AcDbEntity
  8
0
100
AcDbCircle
  6
BYLAYER
 10
85.0000005535111
 20
151.60000004478
 40
98.25
100
AcDbArc
 50
314.095292202769
 51
315.904707797229
  0
ARC
  5
3BC
100
AcDbEntity
  8
0
100
AcDbCircle
  6
BYLAYER
 10
85.0000005535111
 20
151.60000004478
 40
91.75
100
AcDbArc
 50
314.095292202769
 51
315.904707797229
  0
ARC
  5
3BD
100
AcDbEntity
  8
BASE
100
AcDbCircle
  6
BYLAYER
 10
5.00000055351097
 20
106.60000004478
 40
5
100
AcDbArc
 50
90
 51
180
  0
LINE
  5
3BE
100
AcDbEntity
  8
BASE
100
AcDbLine
  6
BYLAYER
 10
5.00000055351097
 20
111.60000004478
 11
8.23900785539649
 21
111.60000004478
  0
ARC
  5
3BF
100
AcDbEntity
  8
BASE
100
AcDbCircle
  6
BYLAYER
 10
8.23900785539649
 20
109.60000004478
 40
2
100
AcDbArc
 50
28.6854020141202
 51
90
  0
ARC
  5
3C0
100
AcDbEntity
  8
BASE
100
AcDbCircle
  6
BYLAYER
 10
165.000000553511
 20
106.60000004478
 40
5
100
AcDbArc
 50
0
 51
90
  0
LINE
  5
3C1
100
AcDbEntity
  8
BASE
100
AcDbLine
  6
BYLAYER
 10
161.760993251626
 20
111.60000004478
 11
165.000000553511
 21
111.60000004478
  0
ARC
  5
3C2
100
AcDbEntity
  8
BASE
100
AcDbCircle
  6
BYLAYER
 10
161.760993251626
 20
109.60000004478
 40
2
100
AcDbArc
 50
90
 51
151.31459798588
  0
ENDBLK
  5
3C3
100
AcDbEntity
  8
0
 67
     1
100
AcDbBlockEnd
  0
BLOCK
  5
3C4
100
AcDbEntity
  8
0
100
AcDbBlockBegin
  2
A$C599E6304
 70
    0
 10
0
 20
0
 30
0.0
  3
A$C599E6304
  1

  0
ARC
  5
3C5
100
AcDbEntity
  8
0
100
AcDbCircle
  6
BYLAYER
 10
85.0000005535111
 20
151.60000004478
 40
98.25
100
AcDbArc
 50
314.095292202769
 51
315.904707797229
  0
ARC
  5
3C6
100
AcDbEntity
  8
0
100
AcDbCircle
  6
BYLAYER
 10
151.106110439551
 20
83.3725698151803
 40
3.25
100
AcDbArc
 50
134.095292202769
 51
314.095292202769
  0
ARC
  5
3C7
100
AcDbEntity
  8
0
100
AcDbCircle
  6
BYLAYER
 10
85.0000005535111
 20
151.60000004478
 40
98.25
100
AcDbArc
 50
224.095292202771
 51
225.904707797231
  0
ARC
  5
3C8
100
AcDbEntity
  8
0
100
AcDbCircle
  6
BYLAYER
 10
18.8938906674713
 20
83.3725698151803
 40
3.25
100
AcDbArc
 50
225.904707797231
 51
45.9047077972306
  0
ARC
  5
3C9
100
AcDbEntity
  8
BASE
100
AcDbCircle
  6
BYLAYER
 10
85.0000005535111
 20
151.60000004478
 40
85.5
100
AcDbArc
 50
208.68540201412
 51
331.31459798588
  0
LINE
  5
3CA
100
AcDbEntity
  8
BASE
100
AcDbLine
  6
BYLAYER
 10
5.535109722E-7
 20
106.60000004478
 11
5.535109722E-7
 21
4.60000004477968
  0
LINE
  5
3CB
100
AcDbEntity
  8
BASE
100
AcDbLine
  6
BYLAYER
 10
170.000000553511
 20
4.60000004477968
 11
170.000000553511
 21
106.60000004478
  0
LINE
  5
3CC
100
AcDbEntity
  8
0
100
AcDbLine
  6
BYLAYER
 10
170.000000553511
 20
4.47797106E-8
 11
5.535109757E-7
 21
4.47797674E-8
  0
LINE
  5
3CD
100
AcDbEntity
  8
0
100
AcDbLine
  6
BYLAYER
 10
170.000000553511
 20
1.60000004477968
 11
5.535109722E-7
 21
1.60000004477973
  0
LINE
  5
3CE
100
AcDbEntity
  8
0
100
AcDbLine
  6
BYLAYER
 10
3.00000055351097
 20
1.60000004477968
 11
5.535109722E-7
 21
4.60000004477968
  0
LINE
  5
3CF
100
AcDbEntity
  8
0
100
AcDbLine
  6
BYLAYER
 10
5.535109722E-7
 20
1.60000004477973
 11
5.535109722E-7
 21
4.47797106E-8
  0
LINE
  5
3D0
100
AcDbEntity
  8
0
100
AcDbLine
  6
BYLAYER
 10
167.000000553511
 20
1.60000004477968
 11
170.000000553511
 21
4.60000004477968
  0
LINE
  5
3D1
100
AcDbEntity
  8
0
100
AcDbLine
  6
BYLAYER
 10
170.000000553511
 20
4.47796538E-8
 11
170.000000553511
 21
1.60000004477968
  0
ARC
  5
3D2
100
AcDbEntity
  8
BASE
100
AcDbCircle
  6
BYLAYER
 10
5.00000055351097
 20
106.60000004478
 40
5
100
AcDbArc
 50
90
 51
180
  0
ARC
  5
3D3
100
AcDbEntity
  8
0
100
AcDbCircle
  6
BYLAYER
 10
85.0000005535111
 20
151.60000004478
 40
91.75
100
AcDbArc
 50
224.095292202771
 51
225.904707797231
  0
ARC
  5
3D4
100
AcDbEntity
  8
0
100
AcDbCircle
  6
BYLAYER
 10
16.7725703239117
 20
85.4938901587399
 40
3.25
100
AcDbArc
 50
44.0952922027665
 51
224.095292202771
  0
ARC
  5
3D5
100
AcDbEntity
  8
BASE
100
AcDbCircle
  6
BYLAYER
 10
8.23900785539649
 20
109.60000004478
 40
2
100
AcDbArc
 50
28.6854020141201
 51
90
  0
LINE
  5
3D6
100
AcDbEntity
  8
BASE
100
AcDbLine
  6
BYLAYER
 10
5.00000055351097
 20
111.60000004478
 11
8.23900785539649
 21
111.60000004478
  0
ARC
  5
3D7
100
AcDbEntity
  8
0
100
AcDbCircle
  6
BYLAYER
 10
85.0000005535111
 20
151.60000004478
 40
91.75
100
AcDbArc
 50
314.095292202769
 51
315.904707797229
  0
ARC
  5
3D8
100
AcDbEntity
  8
0
100
AcDbCircle
  6
BYLAYER
 10
153.22743078311
 20
85.4938901587399
 40
3.25
100
AcDbArc
 50
315.904707797229
 51
135.904707797234
  0
ARC
  5
3D9
100
AcDbEntity
  8
BASE
100
AcDbCircle
  6
BYLAYER
 10
165.000000553511
 20
106.60000004478
 40
5
100
AcDbArc
 50
0
 51
90
  0
ARC
  5
3DA
100
AcDbEntity
  8
BASE
100
AcDbCircle
  6
BYLAYER
 10
161.760993251626
 20
109.60000004478
 40
2
100
AcDbArc
 50
90
 51
151.31459798588
  0
LINE
  5
3DB
100
AcDbEntity
  8
BASE
100
AcDbLine
  6
BYLAYER
 10
161.760993251626
 20
111.60000004478
 11
165.000000553511
 21
111.60000004478
  0
ENDBLK
  5
3DC
100
AcDbEntity
  8
0
 67
     1
100
AcDbBlockEnd
  0
BLOCK
  5
3DD
100
AcDbEntity
  8
0
100
AcDbBlockBegin
  2
A$C380779D9
 70
    0
 10
0
 20
0
 30
0.0
  3
A$C380779D9
  1

  0
LINE
  5
3DE
100
AcDbEntity
  8
BASE
100
AcDbLine
  6
BYLAYER
 10
68.999999413702
 20
0.316365043519028
 11
8.99999941370204
 21
0.316365043519028
  0
LINE
  5
3DF
100
AcDbEntity
  8
BASE
100
AcDbLine
  6
BYLAYER
 10
68.999999413702
 20
0.814033457891327
 11
8.99999941370204
 21
0.814033457891327
  0
LINE
  5
3E0
100
AcDbEntity
  8
BASE
100
AcDbLine
  6
BYLAYER
 10
68.999999413702
 20
1.64111421637804
 11
8.99999941370204
 21
1.64111421637804
  0
LINE
  5
3E1
100
AcDbEntity
  8
BASE
100
AcDbLine
  6
BYLAYER
 10
68.999999413702
 20
2.13793499813217
 11
8.99999941370204
 21
2.1379349981322
  0
LINE
  5
3E2
100
AcDbEntity
  8
BASE
100
AcDbLine
  6
BYLAYER
 10
68.999999413702
 20
5.41343820987403
 11
8.99999941370204
 21
5.41343820987406
  0
LINE
  5
3E3
100
AcDbEntity
  8
BASE
100
AcDbLine
  6
BYLAYER
 10
68.999999413702
 20
5.74806214935889
 11
8.99999941370204
 21
5.74806214935891
  0
LINE
  5
3E4
100
AcDbEntity
  8
BASE
100
AcDbLine
  6
BYLAYER
 10
68.999999413702
 20
6.22232184632158
 11
8.99999941370204
 21
6.22232184632161
  0
LINE
  5
3E5
100
AcDbEntity
  8
BASE
100
AcDbLine
  6
BYLAYER
 10
68.999999413702
 20
11.5603409500928
 11
8.99999941370204
 21
11.5603409500929
  0
LINE
  5
3E6
100
AcDbEntity
  8
BASE
100
AcDbLine
  6
BYLAYER
 10
68.999999413702
 20
12.4577155104676
 11
8.99999941370204
 21
12.4577155104676
  0
LINE
  5
3E7
100
AcDbEntity
  8
BASE
100
AcDbLine
  6
BYLAYER
 10
68.999999413702
 20
12.888686698131
 11
8.99999941370204
 21
12.8886866981311
  0
LINE
  5
3E8
100
AcDbEntity
  8
BASE
100
AcDbLine
  6
BYLAYER
 10
68.999999413702
 20
19.7718434539788
 11
8.99999941370204
 21
19.7718434539788
  0
LINE
  5
3E9
100
AcDbEntity
  8
BASE
100
AcDbLine
  6
BYLAYER
 10
68.999999413702
 20
21.4768302513347
 11
8.99999941370204
 21
21.4768302513347
  0
LINE
  5
3EA
100
AcDbEntity
  8
BASE
100
AcDbLine
  6
BYLAYER
 10
68.999999413702
 20
21.8456774207689
 11
8.99999941370204
 21
21.8456774207689
  0
LINE
  5
3EB
100
AcDbEntity
  8
BASE
100
AcDbLine
  6
BYLAYER
 10
68.999999413702
 20
18.0351017396153
 11
8.99999941370204
 21
18.0351017396153
  0
LINE
  5
3EC
100
AcDbEntity
  8
BASE
100
AcDbLine
  6
BYLAYER
 10
68.999999413702
 20
24.8029645546057
 11
8.99999941370204
 21
24.8029645546057
  0
LINE
  5
3ED
100
AcDbEntity
  8
CEN
100
AcDbLine
  6
BYLAYER
 10
77.7309253670386
 20
65.2999995916294
 11
-5.862979577E-7
 21
65.2999995916294
  0
LINE
  5
3EE
100
AcDbEntity
  8
BASE
100
AcDbLine
  6
BYLAYER
 10
68.9999994137021
 20
112.564897443643
 11
8.99999941370206
 21
112.564897443643
  0
LINE
  5
3EF
100
AcDbEntity
  8
BASE
100
AcDbLine
  6
BYLAYER
 10
68.9999994137021
 20
108.75432176249
 11
8.99999941370206
 21
108.75432176249
  0
LINE
  5
3F0
100
AcDbEntity
  8
BASE
100
AcDbLine
  6
BYLAYER
 10
68.9999994137021
 20
109.123168931924
 11
8.99999941370206
 21
109.123168931924
  0
LINE
  5
3F1
100
AcDbEntity
  8
BASE
100
AcDbLine
  6
BYLAYER
 10
68.9999994137021
 20
110.82815572928
 11
8.99999941370206
 21
110.82815572928
  0
LINE
  5
3F2
100
AcDbEntity
  8
BASE
100
AcDbLine
  6
BYLAYER
 10
68.9999994137021
 20
117.711312485128
 11
8.99999941370206
 21
117.711312485128
  0
LINE
  5
3F3
100
AcDbEntity
  8
BASE
100
AcDbLine
  6
BYLAYER
 10
68.9999994137021
 20
118.142283672791
 11
8.99999941370206
 21
118.142283672791
  0
LINE
  5
3F4
100
AcDbEntity
  8
BASE
100
AcDbLine
  6
BYLAYER
 10
68.9999994137021
 20
119.039658233166
 11
8.99999941370206
 21
119.039658233166
  0
LINE
  5
3F5
100
AcDbEntity
  8
BASE
100
AcDbLine
  6
BYLAYER
 10
68.9999994137021
 20
124.377677336937
 11
8.99999941370206
 21
124.377677336937
  0
LINE
  5
3F6
100
AcDbEntity
  8
BASE
100
AcDbLine
  6
BYLAYER
 10
68.9999994137021
 20
124.8519370339
 11
8.99999941370206
 21
124.8519370339
  0
LINE
  5
3F7
100
AcDbEntity
  8
BASE
100
AcDbLine
  6
BYLAYER
 10
68.9999994137021
 20
125.186560973385
 11
8.99999941370206
 21
125.186560973385
  0
LINE
  5
3F8
100
AcDbEntity
  8
BASE
100
AcDbLine
  6
BYLAYER
 10
68.9999994137021
 20
128.462064185127
 11
8.99999941370206
 21
128.462064185127
  0
LINE
  5
3F9
100
AcDbEntity
  8
BASE
100
AcDbLine
  6
BYLAYER
 10
68.9999994137021
 20
128.958884966881
 11
8.99999941370206
 21
128.958884966881
  0
LINE
  5
3FA
100
AcDbEntity
  8
BASE
100
AcDbLine
  6
BYLAYER
 10
68.9999994137021
 20
129.785965725367
 11
8.99999941370206
 21
129.785965725367
  0
LINE
  5
3FB
100
AcDbEntity
  8
BASE
100
AcDbLine
  6
BYLAYER
 10
68.9999994137021
 20
130.28363413974
 11
8.99999941370206
 21
130.28363413974
  0
LINE
  5
3FC
100
AcDbEntity
  8
BASE
100
AcDbLine
  6
BYLAYER
 10
0.999999413702042
 20
72.1660249954138
 11
0.99999941370217
 21
125.999999591629
  0
LINE
  5
3FD
100
AcDbEntity
  8
BASE
100
AcDbLine
  6
BYLAYER
 10
1.49999941370204
 20
71.2999995916294
 11
1.49999941370216
 21
82.5371516460142
  0
LINE
  5
3FE
100
AcDbEntity
  8
BASE
100
AcDbLine
  6
BYLAYER
 10
2.29999941370211
 20
71.2999995916294
 11
2.29999941370211
 21
82.2999995916294
  0
LINE
  5
3FF
100
AcDbEntity
  8
HIDDEN
100
AcDbLine
  6
BYLAYER
 10
7.049999413702
 20
3.29999959162937
 11
7.04999941370201
 21
127.299999591629
  0
LINE
  5
400
100
AcDbEntity
  8
BASE
100
AcDbLine
  6
BYLAYER
 10
5.79999941370211
 20
34.2999995916294
 11
2.29999941370211
 21
21.7999995916294
  0
LINE
  5
401
100
AcDbEntity
  8
BASE
100
AcDbLine
  6
BYLAYER
 10
4.99999941370215
 20
34.4597632414411
 11
1.49999941370204
 21
21.9597632414411
  0
LINE
  5
402
100
AcDbEntity
  8
BASE
100
AcDbLine
  6
BYLAYER
 10
0.999999413702156
 20
4.59999959162938
 11
0.999999413702156
 21
58.4339741878449
  0
LINE
  5
403
100
AcDbEntity
  8
BASE
100
AcDbLine
  6
BYLAYER
 10
8.99999941370204
 20
6.22232184632161
 11
7.049999413702
 21
9.20595639443196
  0
LINE
  5
404
100
AcDbEntity
  8
BASE
100
AcDbLine
  6
BYLAYER
 10
8.99999941370204
 20
5.74806214935891
 11
7.049999413702
 21
8.73169669746925
  0
LINE
  5
405
100
AcDbEntity
  8
BASE
100
AcDbLine
  6
BYLAYER
 10
5.79999941370211
 20
8.79999959162937
 11
5.79999941370211
 21
3.29999959162937
  0
LINE
  5
406
100
AcDbEntity
  8
BASE
100
AcDbLine
  6
BYLAYER
 10
4.99999941370204
 20
8.3999995916294
 11
4.99999941370204
 21
4.59999959162938
  0
LINE
  5
407
100
AcDbEntity
  8
BASE
100
AcDbLine
  6
BYLAYER
 10
8.99999941370204
 20
5.41343820987406
 11
7.049999413702
 21
8.39707275798445
  0
LINE
  5
408
100
AcDbEntity
  8
BASE
100
AcDbLine
  6
BYLAYER
 10
0.999999413702042
 20
0.799999591629415
 11
0.999999413702156
 21
4.59999959162938
  0
LINE
  5
409
100
AcDbEntity
  8
BASE
100
AcDbLine
  6
BYLAYER
 10
3.09999941370218
 20
3.2999995916294
 11
3.09999941370218
 21
0.799999591629359
  0
LINE
  5
40A
100
AcDbEntity
  8
BASE
100
AcDbLine
  6
BYLAYER
 10
8.99999941370204
 20
0.814033457891327
 11
7.049999413702
 21
3.7976680060017
  0
LINE
  5
40B
100
AcDbEntity
  8
BASE
100
AcDbLine
  6
BYLAYER
 10
8.99999941370204
 20
0.316365043519028
 11
7.049999413702
 21
3.29999959162937
  0
LINE
  5
40C
100
AcDbEntity
  8
BASE
100
AcDbLine
  6
BYLAYER
 10
1.799999413702
 20
-4.08370596E-7
 11
2.29999941370211
 21
-4.08370596E-7
  0
ARC
  5
40D
100
AcDbEntity
  8
BASE
100
AcDbCircle
  6
BYLAYER
 10
2.29999941370211
 20
0.799999591629359
 40
0.8
100
AcDbArc
 50
270
 51
0
  0
ARC
  5
40E
100
AcDbEntity
  8
BASE
100
AcDbCircle
  6
BYLAYER
 10
1.799999413702
 20
0.799999591629359
 40
0.8
100
AcDbArc
 50
179.999999999999
 51
270
  0
LINE
  5
40F
100
AcDbEntity
  8
BASE
100
AcDbLine
  6
BYLAYER
 10
3.09999941370218
 20
3.2999995916294
 11
5.79999941370211
 21
3.29999959162937
  0
LINE
  5
410
100
AcDbEntity
  8
BASE
100
AcDbLine
  6
BYLAYER
 10
4.99999941370215
 20
4.59999959162938
 11
0.999999413702156
 21
4.59999959162938
  0
LINE
  5
411
100
AcDbEntity
  8
BASE
100
AcDbLine
  6
BYLAYER
 10
8.99999941370204
 20
1.6411142163781
 11
7.049999413702
 21
4.62474876448844
  0
LINE
  5
412
100
AcDbEntity
  8
BASE
100
AcDbLine
  6
BYLAYER
 10
8.99999941370204
 20
2.1379349981322
 11
7.049999413702
 21
5.12156954624258
  0
LINE
  5
413
100
AcDbEntity
  8
BASE
100
AcDbLine
  6
BYLAYER
 10
7.049999413702
 20
3.29999959162937
 11
5.79999941370211
 21
3.29999959162937
  0
LINE
  5
414
100
AcDbEntity
  8
BASE
100
AcDbLine
  6
BYLAYER
 10
2.29999941370211
 20
21.7999995916294
 11
2.29999941370211
 21
11.7999995916294
  0
LINE
  5
415
100
AcDbEntity
  8
BASE
100
AcDbLine
  6
BYLAYER
 10
1.49999941370204
 20
21.9597632414411
 11
1.49999941370204
 21
11.3999995916293
  0
LINE
  5
416
100
AcDbEntity
  8
BASE
100
AcDbLine
  6
BYLAYER
 10
8.99999941370204
 20
18.0351017396153
 11
7.049999413702
 21
21.0187362877257
  0
LINE
  5
417
100
AcDbEntity
  8
BASE
100
AcDbLine
  6
BYLAYER
 10
8.99999941370204
 20
19.7718434539788
 11
7.049999413702
 21
22.7554780020892
  0
LINE
  5
418
100
AcDbEntity
  8
BASE
100
AcDbLine
  6
BYLAYER
 10
8.99999941370204
 20
12.8886866981311
 11
7.049999413702
 21
15.8723212462414
  0
LINE
  5
419
100
AcDbEntity
  8
BASE
100
AcDbLine
  6
BYLAYER
 10
8.99999941370204
 20
12.4577155104676
 11
7.049999413702
 21
15.441350058578
  0
LINE
  5
41A
100
AcDbEntity
  8
BASE
100
AcDbLine
  6
BYLAYER
 10
8.99999941370204
 20
11.5603409500929
 11
7.049999413702
 21
14.5439754982032
  0
LINE
  5
41B
100
AcDbEntity
  8
BASE
100
AcDbLine
  6
BYLAYER
 10
2.29999941370211
 20
11.7999995916294
 11
5.79999941370211
 21
8.79999959162937
  0
LINE
  5
41C
100
AcDbEntity
  8
BASE
100
AcDbLine
  6
BYLAYER
 10
1.49999941370204
 20
11.3999995916293
 11
4.99999941370204
 21
8.3999995916294
  0
LINE
  5
41D
100
AcDbEntity
  8
BASE
100
AcDbLine
  6
BYLAYER
 10
8.99999941370204
 20
24.8029645546057
 11
7.049999413702
 21
27.7865991027161
  0
LINE
  5
41E
100
AcDbEntity
  8
BASE
100
AcDbLine
  6
BYLAYER
 10
8.99999941370204
 20
21.8456774207689
 11
7.049999413702
 21
24.8293119688792
  0
LINE
  5
41F
100
AcDbEntity
  8
BASE
100
AcDbLine
  6
BYLAYER
 10
8.99999941370204
 20
21.4768302513347
 11
7.049999413702
 21
24.460464799445
  0
LINE
  5
420
100
AcDbEntity
  8
BASE
100
AcDbLine
  6
BYLAYER
 10
2.29999941370211
 20
55.7999995916294
 11
2.29999941370211
 21
59.2999995916294
  0
LINE
  5
421
100
AcDbEntity
  8
CEN
100
AcDbLine
  6
BYLAYER
 10
9.79999941370211
 20
55.7999995916294
 11
9.79999941370211
 21
61.2999995916294
  0
LINE
  5
422
100
AcDbEntity
  8
BASE
100
AcDbLine
  6
BYLAYER
 10
11.7999994137021
 20
55.7999995916294
 11
11.7999994137021
 21
61.2999995916294
  0
LINE
  5
423
100
AcDbEntity
  8
BASE
100
AcDbLine
  6
BYLAYER
 10
7.79999941370211
 20
55.7999995916294
 11
7.79999941370211
 21
61.2999995916294
  0
LINE
  5
424
100
AcDbEntity
  8
BASE
100
AcDbLine
  6
BYLAYER
 10
17.2999994137021
 20
56.2999995916294
 11
17.2999994137021
 21
74.2999995916294
  0
LINE
  5
425
100
AcDbEntity
  8
BASE
100
AcDbLine
  6
BYLAYER
 10
2.29999941370211
 20
59.2999995916294
 11
2.29999941370211
 21
48.2999995916294
  0
LINE
  5
426
100
AcDbEntity
  8
BASE
100
AcDbLine
  6
BYLAYER
 10
1.49999941370204
 20
59.2999995916294
 11
1.49999941370216
 21
48.0628475372446
  0
LINE
  5
427
100
AcDbEntity
  8
BASE
100
AcDbLine
  6
BYLAYER
 10
2.29999941370211
 20
48.2999995916294
 11
5.79999941370211
 21
40.2999995916294
  0
LINE
  5
428
100
AcDbEntity
  8
BASE
100
AcDbLine
  6
BYLAYER
 10
1.49999941370216
 20
48.0628475372446
 11
4.99999941370204
 21
40.0628475372446
  0
LINE
  5
429
100
AcDbEntity
  8
BASE
100
AcDbLine
  6
BYLAYER
 10
5.79999941370211
 20
40.2999995916294
 11
5.79999941370211
 21
34.2999995916294
  0
LINE
  5
42A
100
AcDbEntity
  8
BASE
100
AcDbLine
  6
BYLAYER
 10
4.99999941370204
 20
40.0628475372446
 11
4.99999941370215
 21
34.4597632414411
  0
LINE
  5
42B
100
AcDbEntity
  8
BASE
100
AcDbLine
  6
BYLAYER
 10
2.29999941370211
 20
55.7999995916294
 11
16.7999994137021
 21
55.7999995916294
  0
LINE
  5
42C
100
AcDbEntity
  8
BASE
100
AcDbLine
  6
BYLAYER
 10
16.7999994137021
 20
55.7999995916294
 11
17.2999994137021
 21
56.2999995916294
  0
LINE
  5
42D
100
AcDbEntity
  8
BASE
100
AcDbLine
  6
BYLAYER
 10
1.49999941370204
 20
60.2999995916294
 11
1.49999941370204
 21
70.2999995916294
  0
LINE
  5
42E
100
AcDbEntity
  8
BASE
100
AcDbLine
  6
BYLAYER
 10
2.79999941370211
 20
60.2999995916294
 11
2.79999941370211
 21
70.2999995916294
  0
LINE
  5
42F
100
AcDbEntity
  8
BASE
100
AcDbLine
  6
BYLAYER
 10
3.37734968289176
 20
61.2999995916294
 11
3.37734968289176
 21
69.2999995916294
  0
LINE
  5
430
100
AcDbEntity
  8
BASE
100
AcDbLine
  6
BYLAYER
 10
0.499999413702042
 20
59.2999995916294
 11
0.499999413702042
 21
71.2999995916294
  0
LINE
  5
431
100
AcDbEntity
  8
BASE
100
AcDbLine
  6
BYLAYER
 10
16.7999994137021
 20
61.2999995916294
 11
16.7999994137021
 21
69.2999995916294
  0
LINE
  5
432
100
AcDbEntity
  8
BASE
100
AcDbLine
  6
BYLAYER
 10
3.37734968289176
 20
61.2999995916294
 11
16.7999994137021
 21
61.2999995916294
  0
LINE
  5
433
100
AcDbEntity
  8
BASE
100
AcDbLine
  6
BYLAYER
 10
2.29999941370211
 20
59.2999995916294
 11
1.49999941370204
 21
59.2999995916294
  0
LINE
  5
434
100
AcDbEntity
  8
BASE
100
AcDbLine
  6
BYLAYER
 10
1.49999941370204
 20
59.2999995916294
 11
2.29999941370211
 21
59.2999995916294
  0
LINE
  5
435
100
AcDbEntity
  8
BASE
100
AcDbLine
  6
BYLAYER
 10
1.49999941370204
 20
60.2999995916294
 11
2.79999941370211
 21
60.2999995916294
  0
ARC
  5
436
100
AcDbEntity
  8
BASE
100
AcDbCircle
  6
BYLAYER
 10
1.49999941370206
 20
59.2999995916294
 40
0.999999999999986
100
AcDbArc
 50
90
 51
270
  0
LINE
  5
437
100
AcDbEntity
  8
BASE
100
AcDbLine
  6
BYLAYER
 10
2.79999941370211
 20
60.2999995916294
 11
3.37734968289176
 21
61.2999995916294
  0
LINE
  5
438
100
AcDbEntity
  8
BASE
100
AcDbLine
  6
BYLAYER
 10
16.7999994137021
 20
61.2999995916294
 11
17.2999994137021
 21
60.7999995916294
  0
LINE
  5
439
100
AcDbEntity
  8
BASE
100
AcDbLine
  6
BYLAYER
 10
3.37734968289176
 20
69.2999995916294
 11
16.7999994137021
 21
69.2999995916294
  0
LINE
  5
43A
100
AcDbEntity
  8
BASE
100
AcDbLine
  6
BYLAYER
 10
2.29999941370211
 20
74.7999995916294
 11
16.7999994137021
 21
74.7999995916294
  0
ARC
  5
43B
100
AcDbEntity
  8
BASE
100
AcDbCircle
  6
BYLAYER
 10
1.49999941370206
 20
71.2999995916294
 40
0.999999999999986
100
AcDbArc
 50
90
 51
270
  0
LINE
  5
43C
100
AcDbEntity
  8
BASE
100
AcDbLine
  6
BYLAYER
 10
2.79999941370211
 20
70.2999995916294
 11
3.37734968289176
 21
69.2999995916294
  0
LINE
  5
43D
100
AcDbEntity
  8
BASE
100
AcDbLine
  6
BYLAYER
 10
2.29999941370211
 20
71.2999995916294
 11
1.49999941370204
 21
71.2999995916294
  0
LINE
  5
43E
100
AcDbEntity
  8
BASE
100
AcDbLine
  6
BYLAYER
 10
1.49999941370204
 20
70.2999995916294
 11
2.79999941370211
 21
70.2999995916294
  0
LINE
  5
43F
100
AcDbEntity
  8
BASE
100
AcDbLine
  6
BYLAYER
 10
1.49999941370204
 20
71.2999995916294
 11
2.29999941370211
 21
71.2999995916294
  0
LINE
  5
440
100
AcDbEntity
  8
BASE
100
AcDbLine
  6
BYLAYER
 10
2.29999941370211
 20
71.2999995916294
 11
2.29999941370211
 21
74.7999995916294
  0
LINE
  5
441
100
AcDbEntity
  8
BASE
100
AcDbLine
  6
BYLAYER
 10
16.7999994137021
 20
69.2999995916294
 11
17.2999994137021
 21
69.7999995916294
  0
LINE
  5
442
100
AcDbEntity
  8
BASE
100
AcDbLine
  6
BYLAYER
 10
16.7999994137021
 20
74.7999995916294
 11
17.2999994137021
 21
74.2999995916294
  0
LINE
  5
443
100
AcDbEntity
  8
BASE
100
AcDbLine
  6
BYLAYER
 10
8.99999941370206
 20
109.123168931924
 11
7.04999941370201
 21
106.139534383814
  0
LINE
  5
444
100
AcDbEntity
  8
BASE
100
AcDbLine
  6
BYLAYER
 10
8.99999941370206
 20
108.75432176249
 11
7.04999941370201
 21
105.77068721438
  0
LINE
  5
445
100
AcDbEntity
  8
BASE
100
AcDbLine
  6
BYLAYER
 10
4.99999941370217
 20
96.1402359418176
 11
1.49999941370206
 21
108.640235941818
  0
LINE
  5
446
100
AcDbEntity
  8
BASE
100
AcDbLine
  6
BYLAYER
 10
5.79999941370212
 20
96.2999995916294
 11
2.29999941370212
 21
108.799999591629
  0
LINE
  5
447
100
AcDbEntity
  8
BASE
100
AcDbLine
  6
BYLAYER
 10
4.99999941370206
 20
90.5371516460142
 11
4.99999941370217
 21
96.1402359418176
  0
LINE
  5
448
100
AcDbEntity
  8
BASE
100
AcDbLine
  6
BYLAYER
 10
5.79999941370212
 20
90.2999995916294
 11
5.79999941370212
 21
96.2999995916294
  0
LINE
  5
449
100
AcDbEntity
  8
BASE
100
AcDbLine
  6
BYLAYER
 10
1.49999941370216
 20
82.5371516460142
 11
4.99999941370206
 21
90.5371516460142
  0
LINE
  5
44A
100
AcDbEntity
  8
BASE
100
AcDbLine
  6
BYLAYER
 10
2.29999941370211
 20
82.2999995916294
 11
5.79999941370212
 21
90.2999995916294
  0
LINE
  5
44B
100
AcDbEntity
  8
BASE
100
AcDbLine
  6
BYLAYER
 10
1.49999941370206
 20
108.640235941818
 11
1.49999941370206
 21
119.199999591629
  0
LINE
  5
44C
100
AcDbEntity
  8
BASE
100
AcDbLine
  6
BYLAYER
 10
2.29999941370212
 20
108.799999591629
 11
2.29999941370212
 21
118.799999591629
  0
LINE
  5
44D
100
AcDbEntity
  8
BASE
100
AcDbLine
  6
BYLAYER
 10
8.99999941370206
 20
119.039658233166
 11
7.04999941370201
 21
116.056023685055
  0
LINE
  5
44E
100
AcDbEntity
  8
BASE
100
AcDbLine
  6
BYLAYER
 10
8.99999941370206
 20
112.564897443643
 11
7.04999941370201
 21
109.581262895533
  0
LINE
  5
44F
100
AcDbEntity
  8
BASE
100
AcDbLine
  6
BYLAYER
 10
8.99999941370206
 20
110.82815572928
 11
7.04999941370201
 21
107.84452118117
  0
LINE
  5
450
100
AcDbEntity
  8
BASE
100
AcDbLine
  6
BYLAYER
 10
8.99999941370206
 20
118.142283672791
 11
7.04999941370201
 21
115.158649124681
  0
LINE
  5
451
100
AcDbEntity
  8
BASE
100
AcDbLine
  6
BYLAYER
 10
8.99999941370206
 20
117.711312485128
 11
7.04999941370201
 21
114.727677937017
  0
LINE
  5
452
100
AcDbEntity
  8
BASE
100
AcDbLine
  6
BYLAYER
 10
5.79999941370212
 20
121.799999591629
 11
5.79999941370212
 21
127.299999591629
  0
LINE
  5
453
100
AcDbEntity
  8
BASE
100
AcDbLine
  6
BYLAYER
 10
4.99999941370206
 20
122.199999591629
 11
4.99999941370206
 21
125.999999591629
  0
LINE
  5
454
100
AcDbEntity
  8
BASE
100
AcDbLine
  6
BYLAYER
 10
8.99999941370206
 20
125.186560973385
 11
7.04999941370201
 21
122.202926425274
  0
LINE
  5
455
100
AcDbEntity
  8
BASE
100
AcDbLine
  6
BYLAYER
 10
8.99999941370206
 20
124.8519370339
 11
7.04999941370201
 21
121.868302485789
  0
LINE
  5
456
100
AcDbEntity
  8
BASE
100
AcDbLine
  6
BYLAYER
 10
2.29999941370212
 20
118.799999591629
 11
5.79999941370212
 21
121.799999591629
  0
LINE
  5
457
100
AcDbEntity
  8
BASE
100
AcDbLine
  6
BYLAYER
 10
1.49999941370206
 20
119.199999591629
 11
4.99999941370206
 21
122.199999591629
  0
LINE
  5
458
100
AcDbEntity
  8
BASE
100
AcDbLine
  6
BYLAYER
 10
8.99999941370206
 20
124.377677336937
 11
7.04999941370201
 21
121.394042788827
  0
LINE
  5
459
100
AcDbEntity
  8
BASE
100
AcDbLine
  6
BYLAYER
 10
4.99999941370217
 20
125.999999591629
 11
0.99999941370217
 21
125.999999591629
  0
LINE
  5
45A
100
AcDbEntity
  8
BASE
100
AcDbLine
  6
BYLAYER
 10
3.09999941370219
 20
127.299999591629
 11
7.04999941370201
 21
127.299999591629
  0
LINE
  5
45B
100
AcDbEntity
  8
BASE
100
AcDbLine
  6
BYLAYER
 10
1.79999941370201
 20
130.599999591629
 11
2.29999941370212
 21
130.599999591629
  0
ARC
  5
45C
100
AcDbEntity
  8
BASE
100
AcDbCircle
  6
BYLAYER
 10
2.29999941370212
 20
129.799999591629
 40
0.8
100
AcDbArc
 50
0
 51
90
  0
ARC
  5
45D
100
AcDbEntity
  8
BASE
100
AcDbCircle
  6
BYLAYER
 10
1.79999941370201
 20
129.799999591629
 40
0.8
100
AcDbArc
 50
90
 51
180.000000000001
  0
LINE
  5
45E
100
AcDbEntity
  8
BASE
100
AcDbLine
  6
BYLAYER
 10
0.999999413702056
 20
129.799999591629
 11
0.99999941370217
 21
125.999999591629
  0
LINE
  5
45F
100
AcDbEntity
  8
BASE
100
AcDbLine
  6
BYLAYER
 10
3.09999941370219
 20
127.299999591629
 11
3.09999941370219
 21
129.799999591629
  0
LINE
  5
460
100
AcDbEntity
  8
BASE
100
AcDbLine
  6
BYLAYER
 10
8.99999941370206
 20
128.462064185127
 11
7.04999941370201
 21
125.478429637016
  0
LINE
  5
461
100
AcDbEntity
  8
BASE
100
AcDbLine
  6
BYLAYER
 10
8.99999941370206
 20
130.28363413974
 11
7.04999941370201
 21
127.299999591629
  0
LINE
  5
462
100
AcDbEntity
  8
BASE
100
AcDbLine
  6
BYLAYER
 10
8.99999941370206
 20
129.785965725367
 11
7.04999941370201
 21
126.802331177257
  0
LINE
  5
463
100
AcDbEntity
  8
BASE
100
AcDbLine
  6
BYLAYER
 10
8.99999941370206
 20
128.958884966881
 11
7.04999941370201
 21
125.97525041877
  0
LINE
  5
464
100
AcDbEntity
  8
BASE
100
AcDbLine
  6
BYLAYER
 10
72.199999413702
 20
8.79999959162934
 11
72.199999413702
 21
121.799999591629
  0
LINE
  5
465
100
AcDbEntity
  8
BASE
100
AcDbLine
  6
BYLAYER
 10
72.9999994137019
 20
8.79999959162934
 11
72.9999994137021
 21
121.799999591629
  0
LINE
  5
466
100
AcDbEntity
  8
HIDDEN
100
AcDbLine
  6
BYLAYER
 10
70.9499994137021
 20
3.29999959162934
 11
70.9499994137021
 21
127.299999591629
  0
LINE
  5
467
100
AcDbEntity
  8
BASE
100
AcDbLine
  6
BYLAYER
 10
76.9999994137019
 20
4.59999959162935
 11
76.9999994137019
 21
125.999999591629
  0
LINE
  5
468
100
AcDbEntity
  8
BASE
100
AcDbLine
  6
BYLAYER
 10
68.999999413702
 20
5.74806214935889
 11
70.9499994137021
 21
8.73169669746922
  0
LINE
  5
469
100
AcDbEntity
  8
BASE
100
AcDbLine
  6
BYLAYER
 10
68.999999413702
 20
6.22232184632158
 11
70.9499994137021
 21
9.20595639443194
  0
LINE
  5
46A
100
AcDbEntity
  8
BASE
100
AcDbLine
  6
BYLAYER
 10
72.9999994137019
 20
8.79999959162934
 11
72.9999994137019
 21
4.59999959162935
  0
LINE
  5
46B
100
AcDbEntity
  8
BASE
100
AcDbLine
  6
BYLAYER
 10
72.199999413702
 20
8.79999959162934
 11
72.199999413702
 21
3.79999959162934
  0
LINE
  5
46C
100
AcDbEntity
  8
BASE
100
AcDbLine
  6
BYLAYER
 10
68.999999413702
 20
5.41343820987403
 11
70.9499994137021
 21
8.39707275798442
  0
LINE
  5
46D
100
AcDbEntity
  8
BASE
100
AcDbLine
  6
BYLAYER
 10
68.999999413702
 20
0.316365043519028
 11
70.9499994137021
 21
3.29999959162934
  0
LINE
  5
46E
100
AcDbEntity
  8
BASE
100
AcDbLine
  6
BYLAYER
 10
68.999999413702
 20
0.814033457891327
 11
70.9499994137021
 21
3.79766800600167
  0
LINE
  5
46F
100
AcDbEntity
  8
BASE
100
AcDbLine
  6
BYLAYER
 10
76.9999994137019
 20
4.59999959162935
 11
76.999999413702
 21
0.799999591629359
  0
LINE
  5
470
100
AcDbEntity
  8
BASE
100
AcDbLine
  6
BYLAYER
 10
74.8999994137019
 20
3.29999959162937
 11
74.8999994137019
 21
0.799999591629359
  0
LINE
  5
471
100
AcDbEntity
  8
BASE
100
AcDbLine
  6
BYLAYER
 10
76.1999994137021
 20
-4.083706528E-7
 11
75.699999413702
 21
-4.083706528E-7
  0
ARC
  5
472
100
AcDbEntity
  8
BASE
100
AcDbCircle
  6
BYLAYER
 10
76.1999994137021
 20
0.799999591629359
 40
0.8
100
AcDbArc
 50
270
 51
8.142E-13
  0
ARC
  5
473
100
AcDbEntity
  8
BASE
100
AcDbCircle
  6
BYLAYER
 10
75.699999413702
 20
0.799999591629359
 40
0.8
100
AcDbArc
 50
180
 51
270
  0
LINE
  5
474
100
AcDbEntity
  8
BASE
100
AcDbLine
  6
BYLAYER
 10
74.8999994137019
 20
3.29999959162937
 11
72.199999413702
 21
3.29999959162934
  0
LINE
  5
475
100
AcDbEntity
  8
BASE
100
AcDbLine
  6
BYLAYER
 10
72.9999994137019
 20
4.59999959162935
 11
76.9999994137019
 21
4.59999959162935
  0
LINE
  5
476
100
AcDbEntity
  8
BASE
100
AcDbLine
  6
BYLAYER
 10
72.199999413702
 20
3.29999959162937
 11
72.199999413702
 21
3.79999959162934
  0
LINE
  5
477
100
AcDbEntity
  8
BASE
100
AcDbLine
  6
BYLAYER
 10
72.199999413702
 20
3.29999959162937
 11
70.9499994137021
 21
3.29999959162937
  0
LINE
  5
478
100
AcDbEntity
  8
BASE
100
AcDbLine
  6
BYLAYER
 10
68.999999413702
 20
1.64111421637804
 11
70.9499994137021
 21
4.62474876448842
  0
LINE
  5
479
100
AcDbEntity
  8
BASE
100
AcDbLine
  6
BYLAYER
 10
68.999999413702
 20
2.13793499813217
 11
70.9499994137021
 21
5.12156954624255
  0
LINE
  5
47A
100
AcDbEntity
  8
BASE
100
AcDbLine
  6
BYLAYER
 10
68.999999413702
 20
18.0351017396153
 11
70.9499994137021
 21
21.0187362877257
  0
LINE
  5
47B
100
AcDbEntity
  8
BASE
100
AcDbLine
  6
BYLAYER
 10
68.999999413702
 20
19.7718434539788
 11
70.9499994137021
 21
22.7554780020892
  0
LINE
  5
47C
100
AcDbEntity
  8
BASE
100
AcDbLine
  6
BYLAYER
 10
68.999999413702
 20
12.4577155104676
 11
70.9499994137021
 21
15.4413500585779
  0
LINE
  5
47D
100
AcDbEntity
  8
BASE
100
AcDbLine
  6
BYLAYER
 10
68.999999413702
 20
12.888686698131
 11
70.9499994137021
 21
15.8723212462414
  0
LINE
  5
47E
100
AcDbEntity
  8
BASE
100
AcDbLine
  6
BYLAYER
 10
68.999999413702
 20
11.5603409500928
 11
70.9499994137021
 21
14.5439754982032
  0
LINE
  5
47F
100
AcDbEntity
  8
BASE
100
AcDbLine
  6
BYLAYER
 10
72.199999413702
 20
8.79999959162934
 11
72.9999994137019
 21
8.79999959162934
  0
LINE
  5
480
100
AcDbEntity
  8
BASE
100
AcDbLine
  6
BYLAYER
 10
68.999999413702
 20
24.8029645546057
 11
70.9499994137021
 21
27.7865991027161
  0
LINE
  5
481
100
AcDbEntity
  8
BASE
100
AcDbLine
  6
BYLAYER
 10
68.999999413702
 20
21.4768302513347
 11
70.9499994137021
 21
24.460464799445
  0
LINE
  5
482
100
AcDbEntity
  8
BASE
100
AcDbLine
  6
BYLAYER
 10
68.999999413702
 20
21.8456774207689
 11
70.9499994137021
 21
24.8293119688792
  0
LINE
  5
483
100
AcDbEntity
  8
BASE
100
AcDbLine
  6
BYLAYER
 10
68.9999994137021
 20
108.75432176249
 11
70.9499994137021
 21
105.77068721438
  0
LINE
  5
484
100
AcDbEntity
  8
BASE
100
AcDbLine
  6
BYLAYER
 10
68.9999994137021
 20
109.123168931924
 11
70.9499994137021
 21
106.139534383814
  0
LINE
  5
485
100
AcDbEntity
  8
BASE
100
AcDbLine
  6
BYLAYER
 10
68.9999994137021
 20
119.039658233166
 11
70.9499994137021
 21
116.056023685055
  0
LINE
  5
486
100
AcDbEntity
  8
BASE
100
AcDbLine
  6
BYLAYER
 10
68.9999994137021
 20
112.564897443643
 11
70.9499994137021
 21
109.581262895533
  0
LINE
  5
487
100
AcDbEntity
  8
BASE
100
AcDbLine
  6
BYLAYER
 10
68.9999994137021
 20
110.82815572928
 11
70.9499994137021
 21
107.84452118117
  0
LINE
  5
488
100
AcDbEntity
  8
BASE
100
AcDbLine
  6
BYLAYER
 10
68.9999994137021
 20
117.711312485128
 11
70.9499994137021
 21
114.727677937017
  0
LINE
  5
489
100
AcDbEntity
  8
BASE
100
AcDbLine
  6
BYLAYER
 10
68.9999994137021
 20
118.142283672791
 11
70.9499994137021
 21
115.158649124681
  0
LINE
  5
48A
100
AcDbEntity
  8
BASE
100
AcDbLine
  6
BYLAYER
 10
72.199999413702
 20
121.799999591629
 11
72.199999413702
 21
126.799999591629
  0
LINE
  5
48B
100
AcDbEntity
  8
BASE
100
AcDbLine
  6
BYLAYER
 10
72.9999994137019
 20
121.799999591629
 11
72.9999994137019
 21
125.999999591629
  0
LINE
  5
48C
100
AcDbEntity
  8
BASE
100
AcDbLine
  6
BYLAYER
 10
68.9999994137021
 20
124.8519370339
 11
70.9499994137021
 21
121.868302485789
  0
LINE
  5
48D
100
AcDbEntity
  8
BASE
100
AcDbLine
  6
BYLAYER
 10
68.9999994137021
 20
125.186560973385
 11
70.9499994137021
 21
122.202926425274
  0
LINE
  5
48E
100
AcDbEntity
  8
BASE
100
AcDbLine
  6
BYLAYER
 10
72.199999413702
 20
121.799999591629
 11
72.9999994137019
 21
121.799999591629
  0
LINE
  5
48F
100
AcDbEntity
  8
BASE
100
AcDbLine
  6
BYLAYER
 10
68.9999994137021
 20
124.377677336937
 11
70.9499994137021
 21
121.394042788827
  0
LINE
  5
490
100
AcDbEntity
  8
BASE
100
AcDbLine
  6
BYLAYER
 10
74.8999994137019
 20
127.299999591629
 11
70.9499994137021
 21
127.299999591629
  0
LINE
  5
491
100
AcDbEntity
  8
BASE
100
AcDbLine
  6
BYLAYER
 10
72.9999994137019
 20
125.999999591629
 11
76.9999994137019
 21
125.999999591629
  0
LINE
  5
492
100
AcDbEntity
  8
BASE
100
AcDbLine
  6
BYLAYER
 10
72.199999413702
 20
127.299999591629
 11
72.199999413702
 21
126.799999591629
  0
LINE
  5
493
100
AcDbEntity
  8
BASE
100
AcDbLine
  6
BYLAYER
 10
68.9999994137021
 20
128.462064185127
 11
70.9499994137021
 21
125.478429637016
  0
LINE
  5
494
100
AcDbEntity
  8
BASE
100
AcDbLine
  6
BYLAYER
 10
68.9999994137021
 20
128.958884966881
 11
70.9499994137021
 21
125.97525041877
  0
LINE
  5
495
100
AcDbEntity
  8
BASE
100
AcDbLine
  6
BYLAYER
 10
68.9999994137021
 20
129.785965725367
 11
70.9499994137021
 21
126.802331177257
  0
LINE
  5
496
100
AcDbEntity
  8
BASE
100
AcDbLine
  6
BYLAYER
 10
68.9999994137021
 20
130.28363413974
 11
70.9499994137021
 21
127.299999591629
  0
LINE
  5
497
100
AcDbEntity
  8
BASE
100
AcDbLine
  6
BYLAYER
 10
76.1999994137021
 20
130.599999591629
 11
75.699999413702
 21
130.599999591629
  0
ARC
  5
498
100
AcDbEntity
  8
BASE
100
AcDbCircle
  6
BYLAYER
 10
76.1999994137021
 20
129.799999591629
 40
0.8
100
AcDbArc
 50
359.999999999999
 51
90
  0
ARC
  5
499
100
AcDbEntity
  8
BASE
100
AcDbCircle
  6
BYLAYER
 10
75.699999413702
 20
129.799999591629
 40
0.8
100
AcDbArc
 50
90
 51
180
  0
LINE
  5
49A
100
AcDbEntity
  8
BASE
100
AcDbLine
  6
BYLAYER
 10
74.8999994137019
 20
127.299999591629
 11
74.8999994137019
 21
129.799999591629
  0
LINE
  5
49B
100
AcDbEntity
  8
BASE
100
AcDbLine
  6
BYLAYER
 10
76.9999994137019
 20
125.999999591629
 11
76.9999994137021
 21
129.799999591629
  0
ENDBLK
  5
49C
100
AcDbEntity
  8
0
 67
     1
100
AcDbBlockEnd
  0
BLOCK
  5
49D
100
AcDbEntity
  8
0
100
AcDbBlockBegin
  2
A$C117F36C9
 70
    0
 10
0
 20
0
 30
0.0
  3
A$C117F36C9
  1

  0
LINE
  5
49E
100
AcDbEntity
  8
0
100
AcDbLine
  6
BYLAYER
 10
236.000000305658
 20
25.0000004700826
 11
3.05655476E-7
 21
25.0000004700825
  0
LINE
  5
49F
100
AcDbEntity
  8
0
100
AcDbLine
  6
BYLAYER
 10
236.000000305658
 20
27.0000004700825
 11
3.05655476E-7
 21
27.0000004700826
  0
LINE
  5
4A0
100
AcDbEntity
  8
0
100
AcDbLine
  6
BYLAYER
 10
48.0000003056555
 20
4.700821137E-7
 11
188.000000305658
 21
4.700821137E-7
  0
ARC
  5
4A1
100
AcDbEntity
  8
0
100
AcDbCircle
  6
BYLAYER
 10
48.0000003056555
 20
10.0000004700821
 40
10
100
AcDbArc
 50
180
 51
270
  0
LINE
  5
4A2
100
AcDbEntity
  8
0
100
AcDbLine
  6
BYLAYER
 10
38.0000003056555
 20
10.0000004700821
 11
38.0000003056555
 21
20.8747007520726
  0
LINE
  5
4A3
100
AcDbEntity
  8
0
100
AcDbLine
  6
BYLAYER
 10
41.2968728989183
 20
25.0000004700826
 11
38.7969452675006
 21
25.0000004700821
  0
LINE
  5
4A4
100
AcDbEntity
  8
0
100
AcDbLine
  6
BYLAYER
 10
41.2968728989183
 20
25.0000004700826
 11
38.5857867432824
 21
22.2889143144459
  0
ARC
  5
4A5
100
AcDbEntity
  8
0
100
AcDbCircle
  6
BYLAYER
 10
40.0000003056555
 20
20.8747007520726
 40
2
100
AcDbArc
 50
135
 51
180
  0
CIRCLE
  5
4A6
100
AcDbEntity
  8
0
100
AcDbCircle
  6
BYLAYER
 10
50.0000003056555
 20
12.0000004700821
 40
1.6
  0
ARC
  5
4A7
100
AcDbEntity
  8
0
100
AcDbCircle
  6
BYLAYER
 10
38.7969452675004
 20
27.0000004700821
 40
2
100
AcDbArc
 50
226.548157698977
 51
270
  0
ARC
  5
4A8
100
AcDbEntity
  8
0
100
AcDbCircle
  6
BYLAYER
 10
188.000000305658
 20
10.0000004700821
 40
10
100
AcDbArc
 50
270
 51
0
  0
LINE
  5
4A9
100
AcDbEntity
  8
0
100
AcDbLine
  6
BYLAYER
 10
198.000000305658
 20
10.0000004700821
 11
198.000000305658
 21
20.8747007520726
  0
LINE
  5
4AA
100
AcDbEntity
  8
0
100
AcDbLine
  6
BYLAYER
 10
194.703127712395
 20
25.0000004700826
 11
197.203055343813
 21
25.0000004700821
  0
LINE
  5
4AB
100
AcDbEntity
  8
0
100
AcDbLine
  6
BYLAYER
 10
194.703127712395
 20
25.0000004700826
 11
197.414213868031
 21
22.2889143144459
  0
ARC
  5
4AC
100
AcDbEntity
  8
0
100
AcDbCircle
  6
BYLAYER
 10
196.000000305658
 20
20.8747007520726
 40
2
100
AcDbArc
 50
0
 51
45
  0
CIRCLE
  5
4AD
100
AcDbEntity
  8
0
100
AcDbCircle
  6
BYLAYER
 10
186.000000305658
 20
12.0000004700821
 40
1.6
  0
ARC
  5
4AE
100
AcDbEntity
  8
0
100
AcDbCircle
  6
BYLAYER
 10
197.203055343813
 20
27.0000004700821
 40
2
100
AcDbArc
 50
270
 51
313.451842301023
  0
LINE
  5
4AF
100
AcDbEntity
  8
0
100
AcDbLine
  6
BYLAYER
 10
3.05655476E-7
 20
27.0000004700826
 11
3.05655476E-7
 21
25.0000004700825
  0
LINE
  5
4B0
100
AcDbEntity
  8
0
100
AcDbLine
  6
BYLAYER
 10
236.000000305658
 20
27.0000004700826
 11
236.000000305658
 21
25.0000004700825
  0
ENDBLK
  5
4B1
100
AcDbEntity
  8
0
 67
     1
100
AcDbBlockEnd
  0
BLOCK
  5
4B2
100
AcDbEntity
  8
0
100
AcDbBlockBegin
  2
A$C240B4253
 70
    0
 10
0
 20
0
 30
0.0
  3
A$C240B4253
  1

  0
LINE
  5
4B3
100
AcDbEntity
  8
M
100
AcDbLine
  6
BYLAYER
 10
236.000000305658
 20
25.0000004700826
 11
3.05655476E-7
 21
25.0000004700825
  0
LINE
  5
4B4
100
AcDbEntity
  8
M
100
AcDbLine
  6
BYLAYER
 10
236.000000305658
 20
27.0000004700825
 11
3.05655476E-7
 21
27.0000004700826
  0
LINE
  5
4B5
100
AcDbEntity
  8
M
100
AcDbLine
  6
BYLAYER
 10
48.0000003056555
 20
4.700821137E-7
 11
188.000000305658
 21
4.700821137E-7
  0
ARC
  5
4B6
100
AcDbEntity
  8
M
100
AcDbCircle
  6
BYLAYER
 10
48.0000003056555
 20
10.0000004700821
 40
10
100
AcDbArc
 50
180
 51
270
  0
LINE
  5
4B7
100
AcDbEntity
  8
M
100
AcDbLine
  6
BYLAYER
 10
38.0000003056555
 20
10.0000004700821
 11
38.0000003056555
 21
20.8747007520726
  0
LINE
  5
4B8
100
AcDbEntity
  8
M
100
AcDbLine
  6
BYLAYER
 10
41.2968728989183
 20
25.0000004700826
 11
38.7969452675006
 21
25.0000004700821
  0
LINE
  5
4B9
100
AcDbEntity
  8
M
100
AcDbLine
  6
BYLAYER
 10
41.2968728989183
 20
25.0000004700826
 11
38.5857867432824
 21
22.2889143144459
  0
ARC
  5
4BA
100
AcDbEntity
  8
M
100
AcDbCircle
  6
BYLAYER
 10
40.0000003056555
 20
20.8747007520726
 40
2
100
AcDbArc
 50
135
 51
180
  0
CIRCLE
  5
4BB
100
AcDbEntity
  8
M
100
AcDbCircle
  6
BYLAYER
 10
50.0000003056555
 20
12.0000004700821
 40
1.6
  0
ARC
  5
4BC
100
AcDbEntity
  8
M
100
AcDbCircle
  6
BYLAYER
 10
38.7969452675004
 20
27.0000004700821
 40
2
100
AcDbArc
 50
226.548157698977
 51
270
  0
ARC
  5
4BD
100
AcDbEntity
  8
M
100
AcDbCircle
  6
BYLAYER
 10
188.000000305658
 20
10.0000004700821
 40
10
100
AcDbArc
 50
270
 51
0
  0
LINE
  5
4BE
100
AcDbEntity
  8
M
100
AcDbLine
  6
BYLAYER
 10
198.000000305658
 20
10.0000004700821
 11
198.000000305658
 21
20.8747007520726
  0
LINE
  5
4BF
100
AcDbEntity
  8
M
100
AcDbLine
  6
BYLAYER
 10
194.703127712395
 20
25.0000004700826
 11
197.203055343813
 21
25.0000004700821
  0
LINE
  5
4C0
100
AcDbEntity
  8
M
100
AcDbLine
  6
BYLAYER
 10
194.703127712395
 20
25.0000004700826
 11
197.414213868031
 21
22.2889143144459
  0
ARC
  5
4C1
100
AcDbEntity
  8
M
100
AcDbCircle
  6
BYLAYER
 10
196.000000305658
 20
20.8747007520726
 40
2
100
AcDbArc
 50
0
 51
45
  0
CIRCLE
  5
4C2
100
AcDbEntity
  8
M
100
AcDbCircle
  6
BYLAYER
 10
186.000000305658
 20
12.0000004700821
 40
1.6
  0
ARC
  5
4C3
100
AcDbEntity
  8
M
100
AcDbCircle
  6
BYLAYER
 10
197.203055343813
 20
27.0000004700821
 40
2
100
AcDbArc
 50
270
 51
313.451842301023
  0
LINE
  5
4C4
100
AcDbEntity
  8
M
100
AcDbLine
  6
BYLAYER
 10
3.05655476E-7
 20
27.0000004700826
 11
3.05655476E-7
 21
25.0000004700825
  0
LINE
  5
4C5
100
AcDbEntity
  8
M
100
AcDbLine
  6
BYLAYER
 10
236.000000305658
 20
27.0000004700826
 11
236.000000305658
 21
25.0000004700825
  0
ENDBLK
  5
4C6
100
AcDbEntity
  8
0
 67
     1
100
AcDbBlockEnd
  0
ENDSEC
  0
SECTION
  2
ENTITIES
  0
LINE
  5
4C7
100
AcDbEntity
  8
BASE
100
AcDbLine
  6
BYLAYER
 10
264.877802449213
 20
169.534152267867
 11
264.877802449213
 21
44.5341522678666
  0
LINE
  5
4C8
100
AcDbEntity
  8
BASE
100
AcDbLine
  6
BYLAYER
 10
143.076270823005
 20
96.783268856511
 11
143.076270823005
 21
200.06463618865
  0
LINE
  5
4C9
100
AcDbEntity
  8
BASE
100
AcDbLine
  6
BYLAYER
 10
153.076270823005
 20
97.2564796239606
 11
153.076270823005
 21
200.06463618865
  0
LINE
  5
4CA
100
AcDbEntity
  8
BASE
100
AcDbLine
  6
BYLAYER
 10
233.076270823005
 20
96.783268856511
 11
233.076270823005
 21
200.06463618865
  0
LINE
  5
4CB
100
AcDbEntity
  8
BASE
100
AcDbLine
  6
BYLAYER
 10
223.076270823005
 20
97.2564796239606
 11
223.076270823005
 21
200.06463618865
  0
CIRCLE
  5
4CC
100
AcDbEntity
  8
BASE
100
AcDbCircle
  6
BYLAYER
 10
188.076270823005
 20
30.480570795616
 40
62.5
  0
LINE
  5
4CD
100
AcDbEntity
  8
BASE
100
AcDbLine
  6
BYLAYER
 10
143.076270823005
 20
-11.4389950418303
 11
143.076270823005
 21
72.4001366330624
  0
LINE
  5
4CE
100
AcDbEntity
  8
BASE
100
AcDbLine
  6
BYLAYER
 10
233.076270823005
 20
72.4001366330623
 11
233.076270823005
 21
-11.4389950418303
  0
LINE
  5
4CF
100
AcDbEntity
  8
BASE
100
AcDbLine
  6
BYLAYER
 10
231.076270823004
 20
-13.3194292043838
 11
231.076270823004
 21
74.280570795616
  0
LINE
  5
4D0
100
AcDbEntity
  8
BASE
100
AcDbLine
  6
BYLAYER
 10
232.276270823004
 20
-12.2816789113394
 11
232.276270823004
 21
73.2428205025714
  0
LINE
  5
4D1
100
AcDbEntity
  8
BASE
100
AcDbLine
  6
BYLAYER
 10
145.076270823005
 20
-13.3194292043838
 11
145.076270823005
 21
74.2805707956161
  0
LINE
  5
4D2
100
AcDbEntity
  8
BASE
100
AcDbLine
  6
BYLAYER
 10
143.876270823005
 20
-12.2816789113394
 11
143.876270823004
 21
73.2428205025714
  0
LINE
  5
4D3
100
AcDbEntity
  8
BASE
100
AcDbLine
  6
BYLAYER
 10
231.076270823004
 20
-12.5194292043838
 11
145.076270823005
 21
-12.5194292043838
  0
LINE
  5
4D4
100
AcDbEntity
  8
BASE
100
AcDbLine
  6
BYLAYER
 10
231.076270823004
 20
-13.3194292043838
 11
145.076270823005
 21
-13.3194292043838
  0
LINE
  5
4D5
100
AcDbEntity
  8
BASE
100
AcDbLine
  6
BYLAYER
 10
229.995836660451
 20
-14.519429204384
 11
146.156704985558
 21
-14.519429204384
  0
CIRCLE
  5
4D6
100
AcDbEntity
  8
BASE
100
AcDbCircle
  6
BYLAYER
 10
133.076270823005
 20
-24.519429204384
 40
4.25
  0
LINE
  5
4D7
100
AcDbEntity
  8
BASE
100
AcDbLine
  6
BYLAYER
 10
153.876270823004
 20
-14.519429204384
 11
146.156704985558
 21
-14.5194292043839
  0
LINE
  5
4D8
100
AcDbEntity
  8
BASE
100
AcDbLine
  6
BYLAYER
 10
153.876270823004
 20
-13.3194292043839
 11
145.076270823005
 21
-13.3194292043838
  0
LINE
  5
4D9
100
AcDbEntity
  8
BASE
100
AcDbLine
  6
BYLAYER
 10
153.876270823005
 20
-14.519429204384
 11
153.876270823004
 21
-13.3194292043839
  0
LINE
  5
4DA
100
AcDbEntity
  8
BASE
100
AcDbLine
  6
BYLAYER
 10
222.276270823005
 20
-14.519429204384
 11
229.995836660451
 21
-14.5194292043839
  0
LINE
  5
4DB
100
AcDbEntity
  8
BASE
100
AcDbLine
  6
BYLAYER
 10
222.276270823005
 20
-13.3194292043839
 11
231.076270823004
 21
-13.3194292043838
  0
LINE
  5
4DC
100
AcDbEntity
  8
BASE
100
AcDbLine
  6
BYLAYER
 10
222.276270823004
 20
-14.519429204384
 11
222.276270823005
 21
-13.3194292043839
  0
CIRCLE
  5
4DD
100
AcDbEntity
  8
BASE
100
AcDbCircle
  6
BYLAYER
 10
243.076270823005
 20
-24.519429204384
 40
4.25
  0
LINE
  5
4DE
100
AcDbEntity
  8
BASE
100
AcDbLine
  6
BYLAYER
 10
231.076270823004
 20
74.280570795616
 11
145.076270823005
 21
74.280570795616
  0
LINE
  5
4DF
100
AcDbEntity
  8
BASE
100
AcDbLine
  6
BYLAYER
 10
146.156704985558
 20
75.4805707956161
 11
229.995836660451
 21
75.480570795616
  0
LINE
  5
4E0
100
AcDbEntity
  8
BASE
100
AcDbLine
  6
BYLAYER
 10
143.876270823005
 20
5.48057079561616
 11
142.976270823005
 21
5.48057079561616
  0
LINE
  5
4E1
100
AcDbEntity
  8
BASE
100
AcDbLine
  6
BYLAYER
 10
143.876270823005
 20
10.4805707956162
 11
142.976270823005
 21
10.4805707956162
  0
LINE
  5
4E2
100
AcDbEntity
  8
BASE
100
AcDbLine
  6
BYLAYER
 10
142.976270823005
 20
5.48057079561616
 11
142.976270823005
 21
10.4805707956162
  0
LINE
  5
4E3
100
AcDbEntity
  8
BASE
100
AcDbLine
  6
BYLAYER
 10
142.976270823005
 20
50.4805707956162
 11
142.976270823005
 21
55.4805707956161
  0
LINE
  5
4E4
100
AcDbEntity
  8
BASE
100
AcDbLine
  6
BYLAYER
 10
143.876270823005
 20
50.4805707956162
 11
142.976270823005
 21
50.4805707956162
  0
LINE
  5
4E5
100
AcDbEntity
  8
BASE
100
AcDbLine
  6
BYLAYER
 10
143.876270823005
 20
55.4805707956162
 11
142.976270823005
 21
55.4805707956162
  0
LINE
  5
4E6
100
AcDbEntity
  8
BASE
100
AcDbLine
  6
BYLAYER
 10
153.876270823004
 20
74.2805707956161
 11
145.076270823005
 21
74.280570795616
  0
LINE
  5
4E7
100
AcDbEntity
  8
BASE
100
AcDbLine
  6
BYLAYER
 10
153.876270823004
 20
75.4805707956161
 11
146.156704985558
 21
75.4805707956161
  0
CIRCLE
  5
4E8
100
AcDbEntity
  8
BASE
100
AcDbCircle
  6
BYLAYER
 10
133.076270823005
 20
85.4805707956161
 40
4.25
  0
LINE
  5
4E9
100
AcDbEntity
  8
BASE
100
AcDbLine
  6
BYLAYER
 10
153.876270823004
 20
74.2805707956161
 11
153.876270823004
 21
75.4805707956161
  0
LINE
  5
4EA
100
AcDbEntity
  8
BASE
100
AcDbLine
  6
BYLAYER
 10
232.276270823004
 20
5.48057079561614
 11
233.176270823005
 21
5.48057079561614
  0
LINE
  5
4EB
100
AcDbEntity
  8
BASE
100
AcDbLine
  6
BYLAYER
 10
232.276270823004
 20
10.4805707956161
 11
233.176270823005
 21
10.4805707956161
  0
LINE
  5
4EC
100
AcDbEntity
  8
BASE
100
AcDbLine
  6
BYLAYER
 10
233.176270823005
 20
5.48057079561614
 11
233.176270823005
 21
10.4805707956161
  0
LINE
  5
4ED
100
AcDbEntity
  8
BASE
100
AcDbLine
  6
BYLAYER
 10
233.176270823005
 20
50.4805707956162
 11
233.176270823005
 21
55.4805707956161
  0
LINE
  5
4EE
100
AcDbEntity
  8
BASE
100
AcDbLine
  6
BYLAYER
 10
232.276270823004
 20
50.4805707956161
 11
233.176270823005
 21
50.4805707956162
  0
LINE
  5
4EF
100
AcDbEntity
  8
BASE
100
AcDbLine
  6
BYLAYER
 10
232.276270823004
 20
55.4805707956161
 11
233.176270823005
 21
55.4805707956161
  0
LINE
  5
4F0
100
AcDbEntity
  8
BASE
100
AcDbLine
  6
BYLAYER
 10
264.877802449213
 20
44.5341522678666
 11
255.459569628696
 21
44.5341522678666
  0
LINE
  5
4F1
100
AcDbEntity
  8
BASE
100
AcDbLine
  6
BYLAYER
 10
222.276270823005
 20
74.280570795616
 11
231.076270823005
 21
74.280570795616
  0
LINE
  5
4F2
100
AcDbEntity
  8
BASE
100
AcDbLine
  6
BYLAYER
 10
222.276270823005
 20
75.480570795616
 11
229.995836660451
 21
75.480570795616
  0
LINE
  5
4F3
100
AcDbEntity
  8
BASE
100
AcDbLine
  6
BYLAYER
 10
222.276270823005
 20
74.280570795616
 11
222.276270823005
 21
75.480570795616
  0
CIRCLE
  5
4F4
100
AcDbEntity
  8
BASE
100
AcDbCircle
  6
BYLAYER
 10
243.076270823005
 20
85.480570795616
 40
4.25
  0
LINE
  5
4F5
100
AcDbEntity
  8
BASE
100
AcDbLine
  6
BYLAYER
 10
223.076270823005
 20
199.26463618865
 11
153.076270823005
 21
199.26463618865
  0
LINE
  5
4F6
100
AcDbEntity
  8
BASE
100
AcDbLine
  6
BYLAYER
 10
153.076270823005
 20
200.06463618865
 11
143.076270823005
 21
200.06463618865
  0
LINE
  5
4F7
100
AcDbEntity
  8
BASE
100
AcDbLine
  6
BYLAYER
 10
235.876270823005
 20
169.534152267867
 11
264.877802449213
 21
169.534152267867
  0
LINE
  5
4F8
100
AcDbEntity
  8
BASE
100
AcDbLine
  6
BYLAYER
 10
223.076270823005
 20
200.06463618865
 11
233.076270823005
 21
200.06463618865
  0
LINE
  5
4F9
100
AcDbEntity
  8
BASE
100
AcDbLine
  6
BYLAYER
 10
359.171963885797
 20
-34.519429204384
 11
356.171963885797
 21
-34.519429204384
  0
LINE
  5
4FA
100
AcDbEntity
  8
BASE
100
AcDbLine
  6
BYLAYER
 10
375.671963885797
 20
-16.019429204384
 11
359.171963885797
 21
-16.019429204384
  0
LINE
  5
4FB
100
AcDbEntity
  8
BASE
100
AcDbLine
  6
BYLAYER
 10
375.671963885797
 20
-14.519429204384
 11
363.671963885797
 21
-14.519429204384
  0
LINE
  5
4FC
100
AcDbEntity
  8
BASE
100
AcDbLine
  6
BYLAYER
 10
363.671963885797
 20
-7.51942920438398
 11
375.671963885797
 21
4.48057079561602
  0
LINE
  5
4FD
100
AcDbEntity
  8
BASE
100
AcDbLine
  6
BYLAYER
 10
363.671963885798
 20
68.480570795616
 11
375.671963885798
 21
56.480570795616
  0
LINE
  5
4FE
100
AcDbEntity
  8
BASE
100
AcDbLine
  6
BYLAYER
 10
375.671963885798
 20
76.980570795616
 11
359.171963885798
 21
76.980570795616
  0
LINE
  5
4FF
100
AcDbEntity
  8
BASE
100
AcDbLine
  6
BYLAYER
 10
375.671963885798
 20
75.480570795616
 11
363.671963885797
 21
75.480570795616
  0
LINE
  5
500
100
AcDbEntity
  8
BASE
100
AcDbLine
  6
BYLAYER
 10
359.171963885798
 20
95.480570795616
 11
356.171963885798
 21
95.4805707956161
  0
LINE
  5
501
100
AcDbEntity
  8
BASE
100
AcDbLine
  6
BYLAYER
 10
376.671963885797
 20
-14.519429204384
 11
363.671963885797
 21
-14.519429204384
  0
LINE
  5
502
100
AcDbEntity
  8
DIM
100
AcDbLine
  6
BYLAYER
 62
0
370
  -2
 10
325.921963885797
 20
92.980570795616
 11
312.449551561179
 21
92.980570795616
  0
LINE
  5
503
100
AcDbEntity
  8
DIM
100
AcDbLine
  6
BYLAYER
 62
0
370
  -2
 10
325.921963885797
 20
-32.019429204384
 11
312.449551561179
 21
-32.019429204384
  0
LINE
  5
504
100
AcDbEntity
  8
DIM
100
AcDbLine
  6
BYLAYER
 62
0
370
  -2
 10
315.949551561179
 20
84.580570795616
 11
315.949551561179
 21
54.7472374622827
  0
LINE
  5
505
100
AcDbEntity
  8
DIM
100
AcDbLine
  6
BYLAYER
 62
0
370
  -2
 10
315.949551561179
 20
-23.619429204384
 11
315.949551561179
 21
6.21390412894936
  0
SOLID
  5
506
100
AcDbEntity
  8
DIM
100
AcDbTrace
 10
314.549551561179
 20
84.580570795616
 30
0.0
 11
317.349551561179
 21
84.580570795616
 31
0.0
 12
315.949551561179
 22
92.980570795616
 32
0.0
 13
315.949551561179
 23
92.980570795616
 33
0.0
  0
SOLID
  5
507
100
AcDbEntity
  8
DIM
100
AcDbTrace
 10
315.949551561179
 20
-32.019429204384
 30
0.0
 11
317.349551561179
 21
-23.619429204384
 31
0.0
 12
314.549551561179
 22
-23.619429204384
 32
0.0
 13
314.549551561179
 23
-23.619429204384
 33
0.0
  0
TEXT
  5
508
100
AcDbEntity
  8
DIM
 62
0
100
AcDbText
  6
BYLAYER
 62
0
 10
321.549551561179
 20
16.4805707956161
 40
11.2
  1
Φ125
  7
Font_0
 50
90
 72
1
 11
315.949551561179
 21
30.4805707956161
100
AcDbText
 73
2
  0
LINE
  5
509
100
AcDbEntity
  8
BASE
100
AcDbLine
  6
BYLAYER
 10
375.671963885797
 20
4.48057079561602
 11
375.671963885798
 21
56.480570795616
  0
LINE
  5
50A
100
AcDbEntity
  8
BASE
100
AcDbLine
  6
BYLAYER
 10
359.171963885797
 20
-34.519429204384
 11
359.171963885798
 21
95.4805707956161
  0
LINE
  5
50B
100
AcDbEntity
  8
BASE
100
AcDbLine
  6
BYLAYER
 10
357.671963885797
 20
-34.519429204384
 11
357.671963885798
 21
95.4805707956161
  0
LINE
  5
50C
100
AcDbEntity
  8
BASE
100
AcDbLine
  6
BYLAYER
 10
327.671963885797
 20
-32.019429204384
 11
356.171963885797
 21
-32.019429204384
  0
LINE
  5
50D
100
AcDbEntity
  8
BASE
100
AcDbLine
  6
BYLAYER
 10
363.671963885797
 20
-16.019429204384
 11
363.671963885797
 21
-7.51942920438398
  0
LINE
  5
50E
100
AcDbEntity
  8
BASE
100
AcDbLine
  6
BYLAYER
 10
375.671963885797
 20
-16.019429204384
 11
375.671963885797
 21
-14.519429204384
  0
LINE
  5
50F
100
AcDbEntity
  8
BASE
100
AcDbLine
  6
BYLAYER
 10
327.671963885797
 20
92.980570795616
 11
356.171963885797
 21
92.980570795616
  0
LINE
  5
510
100
AcDbEntity
  8
BASE
100
AcDbLine
  6
BYLAYER
 10
363.671963885797
 20
75.480570795616
 11
384.724950891628
 21
75.480570795616
  0
LINE
  5
511
100
AcDbEntity
  8
BASE
100
AcDbLine
  6
BYLAYER
 10
363.671963885797
 20
68.4805707956161
 11
363.671963885798
 21
76.980570795616
  0
LINE
  5
512
100
AcDbEntity
  8
BASE
100
AcDbLine
  6
BYLAYER
 10
375.671963885798
 20
75.480570795616
 11
375.671963885798
 21
76.980570795616
  0
LINE
  5
513
100
AcDbEntity
  8
BASE
100
AcDbLine
  6
BYLAYER
 10
141.576270823005
 20
192.034152267866
 11
141.576270823005
 21
96.7020570009188
  0
LINE
  5
514
100
AcDbEntity
  8
BASE
100
AcDbLine
  6
BYLAYER
 10
356.171963885797
 20
-34.519429204384
 11
356.171963885798
 21
95.4805707956161
  0
LINE
  5
515
100
AcDbEntity
  8
BASE
100
AcDbLine
  6
BYLAYER
 10
327.671963885797
 20
30.480570795616
 11
327.671963885797
 21
92.980570795616
  0
LINE
  5
516
100
AcDbEntity
  8
BASE
100
AcDbLine
  6
BYLAYER
 10
327.671963885797
 20
30.480570795616
 11
327.671963885797
 21
-32.019429204384
  0
ARC
  5
517
100
AcDbEntity
  8
BASE
100
AcDbCircle
  6
BYLAYER
 10
461.94513320694
 20
95.4187275693868
 40
74.283058973676
100
AcDbArc
 50
197.83437120095
 51
246.952916212146
  0
ARC
  5
518
100
AcDbEntity
  8
BASE
100
AcDbCircle
  6
BYLAYER
 10
461.671963885798
 20
107.034152267867
 40
84.9999999999999
100
AcDbArc
 50
250.189259151794
 51
109.810740848206
  0
CIRCLE
  5
519
100
AcDbEntity
  8
BASE
100
AcDbCircle
  6
BYLAYER
 10
461.671963885798
 20
107.034152267867
 40
62.5
  0
CIRCLE
  5
51A
100
AcDbEntity
  8
BASE
100
AcDbCircle
  6
BYLAYER
 10
513.997865693602
 20
159.360054075671
 40
3.5
  0
CIRCLE
  5
51B
100
AcDbEntity
  8
BASE
100
AcDbCircle
  6
BYLAYER
 10
513.997865693602
 20
54.7082504600622
 40
3.5
  0
ARC
  5
51C
100
AcDbEntity
  8
BASE
100
AcDbCircle
  6
BYLAYER
 10
387.909961202451
 20
134.468198651488
 40
6.19999999999998
100
AcDbArc
 50
359.891071173938
 51
50.4114418411982
  0
ARC
  5
51D
100
AcDbEntity
  8
BASE
100
AcDbCircle
  6
BYLAYER
 10
461.94513320694
 20
118.649576966346
 40
74.283058973676
100
AcDbArc
 50
113.047083787857
 51
162.165628799052
  0
CIRCLE
  5
51E
100
AcDbEntity
  8
BASE
100
AcDbCircle
  6
BYLAYER
 10
409.346062077993
 20
159.360054075671
 40
3.5
  0
ARC
  5
51F
100
AcDbEntity
  8
BASE
100
AcDbCircle
  6
BYLAYER
 10
393.135576081813
 20
140.787450912049
 40
2
100
AcDbArc
 50
162.165628799052
 51
230.411441841198
  0
LINE
  5
520
100
AcDbEntity
  8
BASE
100
AcDbLine
  6
BYLAYER
 10
387.714755437806
 20
106.57255144945
 11
394.109949997714
 21
79.611893110438
  0
LINE
  5
521
100
AcDbEntity
  8
BASE
100
AcDbLine
  6
BYLAYER
 10
387.714755438095
 20
107.495753152596
 11
394.109949997707
 21
134.456411425265
  0
ARC
  5
522
100
AcDbEntity
  8
BASE
100
AcDbCircle
  6
BYLAYER
 10
389.66075766144
 20
107.034152300416
 40
2
100
AcDbArc
 50
166.655799253897
 51
193.344200710338
  0
CIRCLE
  5
523
100
AcDbEntity
  8
BASE
100
AcDbCircle
  6
BYLAYER
 10
409.346062077993
 20
54.7082504600623
 40
3.5
  0
ARC
  5
524
100
AcDbEntity
  8
BASE
100
AcDbCircle
  6
BYLAYER
 10
387.909961202458
 20
79.600105884249
 40
6.19999999999997
100
AcDbArc
 50
309.588558158743
 51
0.108928825747663
  0
ARC
  5
525
100
AcDbEntity
  8
BASE
100
AcDbCircle
  6
BYLAYER
 10
393.135576081813
 20
73.2808536236832
 40
2
100
AcDbArc
 50
129.588558158742
 51
197.834371200951
  0
LINE
  5
526
100
AcDbEntity
  8
BASE
100
AcDbLine
  6
BYLAYER
 10
376.671963885798
 20
62.5341522678667
 11
376.671963885798
 21
-39.4658477321333
  0
ARC
  5
527
100
AcDbEntity
  8
BASE
100
AcDbCircle
  6
BYLAYER
 10
381.671963885798
 20
62.5341522678667
 40
5
100
AcDbArc
 50
90
 51
180
  0
LINE
  5
528
100
AcDbEntity
  8
BASE
100
AcDbLine
  6
BYLAYER
 10
546.671963885797
 20
-39.4658477321333
 11
546.671963885797
 21
62.5341522678667
  0
ARC
  5
529
100
AcDbEntity
  8
BASE
100
AcDbCircle
  6
BYLAYER
 10
541.671963885798
 20
62.5341522678667
 40
5
100
AcDbArc
 50
0
 51
90
  0
LINE
  5
52A
100
AcDbEntity
  8
CEN
100
AcDbLine
  6
BYLAYER
 10
401.671963885797
 20
-44.0658477321337
 11
401.671963885797
 21
-42.4658477321337
  0
LINE
  5
52B
100
AcDbEntity
  8
HIDDEN
100
AcDbLine
  6
BYLAYER
 10
397.421963885798
 20
-44.0658477321337
 11
397.421963885798
 21
-42.4658477321337
  0
LINE
  5
52C
100
AcDbEntity
  8
HIDDEN
100
AcDbLine
  6
BYLAYER
 10
405.921963885798
 20
-44.0658477321337
 11
405.921963885798
 21
-42.4658477321337
  0
LINE
  5
52D
100
AcDbEntity
  8
HIDDEN
100
AcDbLine
  6
BYLAYER
 10
517.421963885797
 20
-44.0658477321337
 11
517.421963885797
 21
-42.4658477321338
  0
LINE
  5
52E
100
AcDbEntity
  8
HIDDEN
100
AcDbLine
  6
BYLAYER
 10
525.921963885797
 20
-44.0658477321337
 11
525.921963885797
 21
-42.4658477321338
  0
LINE
  5
52F
100
AcDbEntity
  8
CEN
100
AcDbLine
  6
BYLAYER
 10
521.671963885797
 20
-44.0658477321337
 11
521.671963885797
 21
-42.4658477321338
  0
LINE
  5
530
100
AcDbEntity
  8
DIM
100
AcDbLine
  6
BYLAYER
 62
0
370
  -2
 10
376.671963885798
 20
-45.8158477321337
 11
376.671963885798
 21
-82.9478008502552
  0
LINE
  5
531
100
AcDbEntity
  8
DIM
100
AcDbLine
  6
BYLAYER
 62
0
370
  -2
 10
546.671963885797
 20
-45.8158477321337
 11
546.671963885797
 21
-82.9478008502552
  0
LINE
  5
532
100
AcDbEntity
  8
DIM
100
AcDbLine
  6
BYLAYER
 62
0
370
  -2
 10
385.071963885798
 20
-79.4478008502552
 11
443.938630552464
 21
-79.4478008502552
  0
LINE
  5
533
100
AcDbEntity
  8
DIM
100
AcDbLine
  6
BYLAYER
 62
0
370
  -2
 10
538.271963885797
 20
-79.4478008502552
 11
479.405297219131
 21
-79.4478008502552
  0
SOLID
  5
534
100
AcDbEntity
  8
DIM
100
AcDbTrace
 10
376.671963885798
 20
-79.4478008502552
 30
0.0
 11
385.071963885798
 21
-80.8478008502553
 31
0.0
 12
385.071963885798
 22
-78.0478008502552
 32
0.0
 13
385.071963885798
 23
-78.0478008502552
 33
0.0
  0
SOLID
  5
535
100
AcDbEntity
  8
DIM
100
AcDbTrace
 10
538.271963885797
 20
-78.0478008502552
 30
0.0
 11
538.271963885797
 21
-80.8478008502553
 31
0.0
 12
546.671963885797
 22
-79.4478008502552
 32
0.0
 13
546.671963885797
 23
-79.4478008502552
 33
0.0
  0
TEXT
  5
536
100
AcDbEntity
  8
DIM
 62
0
100
AcDbText
  6
BYLAYER
 62
0
 10
453.271963885797
 20
-85.0478008502552
 40
11.2
  1
170
  7
Font_0
 72
1
 11
461.671963885797
 21
-79.4478008502552
100
AcDbText
 73
2
  0
LINE
  5
537
100
AcDbEntity
  8
DIM
100
AcDbLine
  6
BYLAYER
 62
0
370
  -2
 10
401.671963885797
 20
-45.8158477321337
 11
401.671963885797
 21
-61.3054895149087
  0
LINE
  5
538
100
AcDbEntity
  8
DIM
100
AcDbLine
  6
BYLAYER
 62
0
370
  -2
 10
521.671963885797
 20
-45.8158477321337
 11
521.671963885797
 21
-61.3054895149087
  0
LINE
  5
539
100
AcDbEntity
  8
DIM
100
AcDbLine
  6
BYLAYER
 62
0
370
  -2
 10
410.071963885797
 20
-57.8054895149087
 11
443.938630552464
 21
-57.8054895149087
  0
LINE
  5
53A
100
AcDbEntity
  8
DIM
100
AcDbLine
  6
BYLAYER
 62
0
370
  -2
 10
513.271963885798
 20
-57.8054895149087
 11
479.405297219131
 21
-57.8054895149087
  0
SOLID
  5
53B
100
AcDbEntity
  8
DIM
100
AcDbTrace
 10
401.671963885797
 20
-57.8054895149087
 30
0.0
 11
410.071963885797
 21
-59.2054895149087
 31
0.0
 12
410.071963885797
 22
-56.4054895149087
 32
0.0
 13
410.071963885797
 23
-56.4054895149087
 33
0.0
  0
SOLID
  5
53C
100
AcDbEntity
  8
DIM
100
AcDbTrace
 10
513.271963885798
 20
-56.4054895149087
 30
0.0
 11
513.271963885798
 21
-59.2054895149087
 31
0.0
 12
521.671963885797
 22
-57.8054895149087
 32
0.0
 13
521.671963885797
 23
-57.8054895149087
 33
0.0
  0
TEXT
  5
53D
100
AcDbEntity
  8
DIM
 62
0
100
AcDbText
  6
BYLAYER
 62
0
 10
453.271963885798
 20
-63.4054895149087
 40
11.2
  1
120
  7
Font_0
 72
1
 11
461.671963885798
 21
-57.8054895149087
100
AcDbText
 73
2
  0
LINE
  5
53E
100
AcDbEntity
  8
BASE
100
AcDbLine
  6
BYLAYER
 10
234.076270823005
 20
192.034152267866
 11
233.076270823005
 21
192.034152267866
  0
LINE
  5
53F
100
AcDbEntity
  8
BASE
100
AcDbLine
  6
BYLAYER
 10
235.876270823005
 20
192.034152267866
 11
235.876270823005
 21
96.6295129774595
  0
LINE
  5
540
100
AcDbEntity
  8
BASE
100
AcDbLine
  6
BYLAYER
 10
234.076270823005
 20
192.034152267866
 11
234.076270823005
 21
96.729424345133
  0
LINE
  5
541
100
AcDbEntity
  8
BASE
100
AcDbLine
  6
BYLAYER
 10
143.076270823005
 20
192.034152267866
 11
141.576270823005
 21
192.034152267866
  0
LINE
  5
542
100
AcDbEntity
  8
DIM
100
AcDbLine
  6
BYLAYER
 62
0
370
  -2
 10
129.076270823005
 20
-45.8158477321336
 11
129.076270823005
 21
-72.7591661490604
  0
LINE
  5
543
100
AcDbEntity
  8
DIM
100
AcDbLine
  6
BYLAYER
 62
0
370
  -2
 10
247.076270823004
 20
-45.8158477321336
 11
247.076270823004
 21
-72.7591661490604
  0
LINE
  5
544
100
AcDbEntity
  8
DIM
100
AcDbLine
  6
BYLAYER
 62
0
370
  -2
 10
137.476270823005
 20
-69.2591661490604
 11
171.276270823004
 21
-69.2591661490604
  0
LINE
  5
545
100
AcDbEntity
  8
DIM
100
AcDbLine
  6
BYLAYER
 62
0
370
  -2
 10
238.676270823004
 20
-69.2591661490604
 11
204.876270823004
 21
-69.2591661490604
  0
SOLID
  5
546
100
AcDbEntity
  8
DIM
100
AcDbTrace
 10
129.076270823005
 20
-69.2591661490604
 30
0.0
 11
137.476270823005
 21
-70.6591661490604
 31
0.0
 12
137.476270823005
 22
-67.8591661490604
 32
0.0
 13
137.476270823005
 23
-67.8591661490604
 33
0.0
  0
SOLID
  5
547
100
AcDbEntity
  8
DIM
100
AcDbTrace
 10
238.676270823004
 20
-67.8591661490604
 30
0.0
 11
238.676270823004
 21
-70.6591661490604
 31
0.0
 12
247.076270823004
 22
-69.2591661490604
 32
0.0
 13
247.076270823004
 23
-69.2591661490604
 33
0.0
  0
TEXT
  5
548
100
AcDbEntity
  8
DIM
 62
0
100
AcDbText
  6
BYLAYER
 62
0
 10
179.676270823005
 20
-74.8591661490604
 40
11.2
  1
118
  7
Font_0
 72
1
 11
188.076270823005
 21
-69.2591661490604
100
AcDbText
 73
2
  0
LINE
  5
549
100
AcDbEntity
  8
DIM
100
AcDbLine
  6
BYLAYER
 62
0
370
  -2
 10
116.476270823005
 20
-45.8158477321336
 11
116.476270823005
 21
-106.1529369509
  0
LINE
  5
54A
100
AcDbEntity
  8
DIM
100
AcDbLine
  6
BYLAYER
 62
0
370
  -2
 10
259.676270823004
 20
-45.8158477321336
 11
259.676270823004
 21
-106.1529369509
  0
LINE
  5
54B
100
AcDbEntity
  8
DIM
100
AcDbLine
  6
BYLAYER
 62
0
370
  -2
 10
124.876270823005
 20
-102.6529369509
 11
169.409604156338
 21
-102.6529369509
  0
LINE
  5
54C
100
AcDbEntity
  8
DIM
100
AcDbLine
  6
BYLAYER
 62
0
370
  -2
 10
251.276270823004
 20
-102.6529369509
 11
206.742937489671
 21
-102.6529369509
  0
SOLID
  5
54D
100
AcDbEntity
  8
DIM
100
AcDbTrace
 10
116.476270823005
 20
-102.6529369509
 30
0.0
 11
124.876270823005
 21
-104.0529369509
 31
0.0
 12
124.876270823005
 22
-101.2529369509
 32
0.0
 13
124.876270823005
 23
-101.2529369509
 33
0.0
  0
SOLID
  5
54E
100
AcDbEntity
  8
DIM
100
AcDbTrace
 10
251.276270823004
 20
-101.2529369509
 30
0.0
 11
251.276270823004
 21
-104.0529369509
 31
0.0
 12
259.676270823004
 22
-102.6529369509
 32
0.0
 13
259.676270823004
 23
-102.6529369509
 33
0.0
  0
TEXT
  5
54F
100
AcDbEntity
  8
DIM
 62
0
100
AcDbText
  6
BYLAYER
 62
0
 10
179.676270823005
 20
-108.2529369509
 40
11.2
  1
143
  7
Font_0
 72
1
 11
188.076270823005
 21
-102.6529369509
100
AcDbText
 73
2
  0
LINE
  5
550
100
AcDbEntity
  8
DIM
100
AcDbLine
  6
BYLAYER
 62
0
370
  -2
 10
143.076270823005
 20
201.81463618865
 11
143.076270823005
 21
219.655924207691
  0
LINE
  5
551
100
AcDbEntity
  8
DIM
100
AcDbLine
  6
BYLAYER
 62
0
370
  -2
 10
233.076270823005
 20
201.81463618865
 11
233.076270823005
 21
219.655924207691
  0
LINE
  5
552
100
AcDbEntity
  8
DIM
100
AcDbLine
  6
BYLAYER
 62
0
370
  -2
 10
151.476270823005
 20
216.155924207691
 11
174.076270823005
 21
216.155924207691
  0
LINE
  5
553
100
AcDbEntity
  8
DIM
100
AcDbLine
  6
BYLAYER
 62
0
370
  -2
 10
224.676270823005
 20
216.155924207691
 11
202.076270823005
 21
216.155924207691
  0
SOLID
  5
554
100
AcDbEntity
  8
DIM
100
AcDbTrace
 10
143.076270823005
 20
216.155924207691
 30
0.0
 11
151.476270823005
 21
214.755924207691
 31
0.0
 12
151.476270823005
 22
217.555924207691
 32
0.0
 13
151.476270823005
 23
217.555924207691
 33
0.0
  0
SOLID
  5
555
100
AcDbEntity
  8
DIM
100
AcDbTrace
 10
224.676270823005
 20
217.555924207691
 30
0.0
 11
224.676270823005
 21
214.755924207691
 31
0.0
 12
233.076270823005
 22
216.155924207691
 32
0.0
 13
233.076270823005
 23
216.155924207691
 33
0.0
  0
TEXT
  5
556
100
AcDbEntity
  8
DIM
 62
0
100
AcDbText
  6
BYLAYER
 62
0
 10
182.476270823005
 20
210.555924207691
 40
11.2
  1
90
  7
Font_0
 72
1
 11
188.076270823005
 21
216.155924207691
100
AcDbText
 73
2
  0
LINE
  5
557
100
AcDbEntity
  8
0
100
AcDbLine
  6
BYLAYER
 10
136.576270823005
 20
96.412056623261
 11
136.576270823004
 21
154.534152267867
  0
LINE
  5
558
100
AcDbEntity
  8
0
100
AcDbLine
  6
BYLAYER
 10
131.576270823005
 20
96.0923490044581
 11
131.576270823004
 21
154.534152267867
  0
LINE
  5
559
100
AcDbEntity
  8
0
100
AcDbLine
  6
BYLAYER
 10
131.576270823004
 20
96.0923490044583
 11
131.576270823004
 21
97.0742878576977
  0
LINE
  5
55A
100
AcDbEntity
  8
0
100
AcDbLine
  6
BYLAYER
 10
131.576270823004
 20
97.6567785206825
 11
131.576270823004
 21
97.0742878576977
  0
LINE
  5
55B
100
AcDbEntity
  8
0
100
AcDbLine
  6
BYLAYER
 10
131.576270823004
 20
105.448701623016
 11
131.576270823004
 21
109.448504022872
  0
LINE
  5
55C
100
AcDbEntity
  8
0
100
AcDbLine
  6
BYLAYER
 10
131.576270823004
 20
105.162987623887
 11
131.576270823004
 21
105.448701623016
  0
LINE
  5
55D
100
AcDbEntity
  8
0
100
AcDbLine
  6
BYLAYER
 10
46.5762708230044
 20
105.984152267867
 11
131.576270823005
 21
105.984152267867
  0
LINE
  5
55E
100
AcDbEntity
  8
0
100
AcDbLine
  6
BYLAYER
 10
46.5762708230044
 20
108.284152267867
 11
131.576270823005
 21
108.284152267867
  0
LINE
  5
55F
100
AcDbEntity
  8
0
100
AcDbLine
  6
BYLAYER
 10
46.5762708230044
 20
121.784152267867
 11
131.576270823005
 21
121.784152267867
  0
LINE
  5
560
100
AcDbEntity
  8
0
100
AcDbLine
  6
BYLAYER
 10
46.5762708230044
 20
123.984152267867
 11
131.576270823004
 21
123.984152267867
  0
LINE
  5
561
100
AcDbEntity
  8
0
100
AcDbLine
  6
BYLAYER
 10
46.5762708230044
 20
134.984152267867
 11
131.576270823004
 21
134.984152267867
  0
LINE
  5
562
100
AcDbEntity
  8
0
100
AcDbLine
  6
BYLAYER
 10
46.5762708230044
 20
136.984152267867
 11
131.576270823004
 21
136.984152267867
  0
LINE
  5
563
100
AcDbEntity
  8
0
100
AcDbLine
  6
BYLAYER
 10
46.5762708230044
 20
143.484152267867
 11
131.576270823004
 21
143.484152267867
  0
LINE
  5
564
100
AcDbEntity
  8
0
100
AcDbLine
  6
BYLAYER
 10
46.5762708230044
 20
145.784152267867
 11
131.576270823004
 21
145.784152267867
  0
LINE
  5
565
100
AcDbEntity
  8
0
100
AcDbLine
  6
BYLAYER
 10
46.5762708230044
 20
149.534152267867
 11
131.576270823004
 21
149.534152267867
  0
LINE
  5
566
100
AcDbEntity
  8
0
100
AcDbLine
  6
BYLAYER
 10
46.5762708230044
 20
150.534152267867
 11
131.576270823004
 21
150.534152267867
  0
LINE
  5
567
100
AcDbEntity
  8
0
100
AcDbLine
  6
BYLAYER
 10
46.5762708230044
 20
59.5341522678667
 11
121.075153824845
 21
59.5341522678667
  0
LINE
  5
568
100
AcDbEntity
  8
0
100
AcDbLine
  6
BYLAYER
 10
46.5762708230044
 20
154.230570795616
 11
46.5762708230044
 21
60.730570795616
  0
LINE
  5
569
100
AcDbEntity
  8
0
100
AcDbLine
  6
BYLAYER
 10
141.576270823004
 20
154.534152267867
 11
141.576270823004
 21
96.7020570009188
  0
LINE
  5
56A
100
AcDbEntity
  8
0
100
AcDbLine
  6
BYLAYER
 10
46.5762708230044
 20
59.5341522678667
 11
46.5762708230044
 21
154.534152267867
  0
LINE
  5
56B
100
AcDbEntity
  8
0
100
AcDbLine
  6
BYLAYER
 10
46.5762708230044
 20
154.534152267867
 11
141.576270823004
 21
154.534152267867
  0
LINE
  5
56C
100
AcDbEntity
  8
0
100
AcDbLine
  6
BYLAYER
 10
235.876270823005
 20
192.034152267866
 11
234.876270823005
 21
192.034152267866
  0
LINE
  5
56D
100
AcDbEntity
  8
0
100
AcDbLine
  6
BYLAYER
 10
234.876270823005
 20
192.034152267866
 11
234.876270823005
 21
96.6854941495178
  0
LINE
  5
56E
100
AcDbEntity
  8
DIM
100
AcDbLine
  6
BYLAYER
 62
0
370
  -2
 10
264.877802449213
 20
171.284152267867
 11
264.877802449213
 21
236.954037358345
  0
LINE
  5
56F
100
AcDbEntity
  8
DIM
100
AcDbLine
  6
BYLAYER
 62
0
370
  -2
 10
46.5762708230044
 20
156.730570795616
 11
46.5762708230045
 21
236.954037358345
  0
LINE
  5
570
100
AcDbEntity
  8
DIM
100
AcDbLine
  6
BYLAYER
 62
0
370
  -2
 10
256.477802449213
 20
233.454037358345
 11
178.578649726584
 21
233.454037358345
  0
LINE
  5
571
100
AcDbEntity
  8
DIM
100
AcDbLine
  6
BYLAYER
 62
0
370
  -2
 10
54.9762708230045
 20
233.454037358345
 11
141.24531639325
 21
233.454037358345
  0
SOLID
  5
572
100
AcDbEntity
  8
DIM
100
AcDbTrace
 10
256.477802449213
 20
234.854037358345
 30
0.0
 11
256.477802449213
 21
232.054037358345
 31
0.0
 12
264.877802449213
 22
233.454037358345
 32
0.0
 13
264.877802449213
 23
233.454037358345
 33
0.0
  0
SOLID
  5
573
100
AcDbEntity
  8
DIM
100
AcDbTrace
 10
46.5762708230045
 20
233.454037358345
 30
0.0
 11
54.9762708230045
 21
232.054037358345
 31
0.0
 12
54.9762708230045
 22
234.854037358345
 32
0.0
 13
54.9762708230045
 23
234.854037358345
 33
0.0
  0
TEXT
  5
574
100
AcDbEntity
  8
DIM
 62
0
100
AcDbText
  6
BYLAYER
 62
0
 10
151.511983059917
 20
227.854037358345
 40
11.2
  1
218
  7
Font_0
 72
1
 11
159.911983059917
 21
233.454037358345
100
AcDbText
 73
2
  0
LINE
  5
575
100
AcDbEntity
  8
DIM
100
AcDbLine
  6
BYLAYER
 62
0
370
  -2
 10
264.877802449213
 20
175.511789574817
 11
264.877802449213
 21
219.655924207691
  0
LINE
  5
576
100
AcDbEntity
  8
DIM
100
AcDbLine
  6
BYLAYER
 62
0
370
  -2
 10
233.076270823005
 20
201.81463618865
 11
233.076270823005
 21
219.655924207691
  0
LINE
  5
577
100
AcDbEntity
  8
DIM
100
AcDbLine
  6
BYLAYER
 62
0
370
  -2
 10
273.277802449213
 20
216.155924207691
 11
281.677802449213
 21
216.155924207691
  0
LINE
  5
578
100
AcDbEntity
  8
DIM
100
AcDbLine
  6
BYLAYER
 62
0
370
  -2
 10
224.676270823005
 20
216.155924207691
 11
216.276270823005
 21
216.155924207691
  0
SOLID
  5
579
100
AcDbEntity
  8
DIM
100
AcDbTrace
 10
264.877802449213
 20
216.155924207691
 30
0.0
 11
273.277802449213
 21
214.755924207691
 31
0.0
 12
273.277802449213
 22
217.555924207691
 32
0.0
 13
273.277802449213
 23
217.555924207691
 33
0.0
  0
SOLID
  5
57A
100
AcDbEntity
  8
DIM
100
AcDbTrace
 10
224.676270823005
 20
217.555924207691
 30
0.0
 11
224.676270823005
 21
214.755924207691
 31
0.0
 12
233.076270823005
 22
216.155924207691
 32
0.0
 13
233.076270823005
 23
216.155924207691
 33
0.0
  0
TEXT
  5
57B
100
AcDbEntity
  8
DIM
 62
0
100
AcDbText
  6
BYLAYER
 62
0
 10
243.377036636109
 20
210.555924207691
 40
11.2
  1
32
  7
Font_0
 72
1
 11
248.977036636109
 21
216.155924207691
100
AcDbText
 73
2
  0
LINE
  5
57C
100
AcDbEntity
  8
DIM
100
AcDbLine
  6
BYLAYER
 62
0
370
  -2
 10
475.527803512001
 20
200.06463618865
 11
603.874890267124
 21
200.06463618865
  0
LINE
  5
57D
100
AcDbEntity
  8
DIM
100
AcDbLine
  6
BYLAYER
 62
0
370
  -2
 10
548.421963885797
 20
-44.0658477321337
 11
603.874890267124
 21
-44.0658477321337
  0
LINE
  5
57E
100
AcDbEntity
  8
DIM
100
AcDbLine
  6
BYLAYER
 62
0
370
  -2
 10
600.374890267124
 20
191.66463618865
 11
600.374890267124
 21
98.5327275615914
  0
LINE
  5
57F
100
AcDbEntity
  8
DIM
100
AcDbLine
  6
BYLAYER
 62
0
370
  -2
 10
600.374890267124
 20
-35.6658477321337
 11
600.374890267124
 21
57.4660608949247
  0
SOLID
  5
580
100
AcDbEntity
  8
DIM
100
AcDbTrace
 10
598.974890267124
 20
191.66463618865
 30
0.0
 11
601.774890267124
 21
191.66463618865
 31
0.0
 12
600.374890267124
 22
200.06463618865
 32
0.0
 13
600.374890267124
 23
200.06463618865
 33
0.0
  0
SOLID
  5
581
100
AcDbEntity
  8
DIM
100
AcDbTrace
 10
600.374890267124
 20
-44.0658477321337
 30
0.0
 11
601.774890267124
 21
-35.6658477321337
 31
0.0
 12
598.974890267124
 22
-35.6658477321337
 32
0.0
 13
598.974890267124
 23
-35.6658477321337
 33
0.0
  0
TEXT
  5
582
100
AcDbEntity
  8
DIM
 62
0
100
AcDbText
  6
BYLAYER
 62
0
 10
605.974890267124
 20
69.5993942282582
 40
11.2
  1
244
  7
Font_0
 50
90
 72
1
 11
600.374890267124
 21
77.9993942282581
100
AcDbText
 73
2
  0
LINE
  5
583
100
AcDbEntity
  8
DIM
100
AcDbLine
  6
BYLAYER
 62
0
370
  -2
 10
463.421963885798
 20
107.034152267867
 11
587.687573231514
 21
107.034152267867
  0
LINE
  5
584
100
AcDbEntity
  8
DIM
100
AcDbLine
  6
BYLAYER
 62
0
370
  -2
 10
463.42196388579
 20
-14.5194292043843
 11
587.687573231514
 21
-14.5194292043844
  0
LINE
  5
585
100
AcDbEntity
  8
DIM
100
AcDbLine
  6
BYLAYER
 62
0
370
  -2
 10
584.187573231514
 20
98.6341522678666
 11
584.187573231514
 21
64.9240281984078
  0
LINE
  5
586
100
AcDbEntity
  8
DIM
100
AcDbLine
  6
BYLAYER
 62
0
370
  -2
 10
584.187573231514
 20
-6.11942920438436
 11
584.187573231514
 21
27.5906948650744
  0
SOLID
  5
587
100
AcDbEntity
  8
DIM
100
AcDbTrace
 10
582.787573231514
 20
98.6341522678666
 30
0.0
 11
585.587573231514
 21
98.6341522678666
 31
0.0
 12
584.187573231514
 22
107.034152267867
 32
0.0
 13
584.187573231514
 23
107.034152267867
 33
0.0
  0
SOLID
  5
588
100
AcDbEntity
  8
DIM
100
AcDbTrace
 10
584.187573231514
 20
-14.5194292043844
 30
0.0
 11
585.587573231514
 21
-6.11942920438436
 31
0.0
 12
582.787573231514
 22
-6.11942920438436
 32
0.0
 13
582.787573231514
 23
-6.11942920438436
 33
0.0
  0
TEXT
  5
589
100
AcDbEntity
  8
DIM
 62
0
100
AcDbText
  6
BYLAYER
 62
0
 10
589.787573231514
 20
37.8573615317412
 40
11.2
  1
122
  7
Font_0
 50
90
 72
1
 11
584.187573231514
 21
46.2573615317412
100
AcDbText
 73
2
  0
LINE
  5
58A
100
AcDbEntity
  8
DIM
100
AcDbLine
  6
BYLAYER
 62
0
370
  -2
 10
463.421963885798
 20
107.034152267867
 11
587.687573231514
 21
107.034152267867
  0
LINE
  5
58B
100
AcDbEntity
  8
DIM
100
AcDbLine
  6
BYLAYER
 62
0
370
  -2
 10
475.527803512001
 20
200.06463618865
 11
587.687573231514
 21
200.06463618865
  0
LINE
  5
58C
100
AcDbEntity
  8
DIM
100
AcDbLine
  6
BYLAYER
 62
0
370
  -2
 10
584.187573231514
 20
115.434152267866
 11
584.187573231514
 21
138.616060894925
  0
LINE
  5
58D
100
AcDbEntity
  8
DIM
100
AcDbLine
  6
BYLAYER
 62
0
370
  -2
 10
584.187573231514
 20
191.66463618865
 11
584.187573231514
 21
168.482727561591
  0
SOLID
  5
58E
100
AcDbEntity
  8
DIM
100
AcDbTrace
 10
584.187573231514
 20
107.034152267867
 30
0.0
 11
585.587573231514
 21
115.434152267866
 31
0.0
 12
582.787573231514
 22
115.434152267866
 32
0.0
 13
582.787573231514
 23
115.434152267866
 33
0.0
  0
SOLID
  5
58F
100
AcDbEntity
  8
DIM
100
AcDbTrace
 10
582.787573231514
 20
191.66463618865
 30
0.0
 11
585.587573231514
 21
191.66463618865
 31
0.0
 12
584.187573231514
 22
200.06463618865
 32
0.0
 13
584.187573231514
 23
200.06463618865
 33
0.0
  0
TEXT
  5
590
100
AcDbEntity
  8
DIM
 62
0
100
AcDbText
  6
BYLAYER
 62
0
 10
589.787573231514
 20
147.949394228258
 40
11.2
  1
93
  7
Font_0
 50
90
 72
1
 11
584.187573231514
 21
153.549394228258
100
AcDbText
 73
2
  0
CIRCLE
  5
591
100
AcDbEntity
  8
0
100
AcDbCircle
  6
BYLAYER
 10
188.076270823005
 20
30.480570795616
 40
61.5
  0
LINE
  5
592
100
AcDbEntity
  8
DIM
100
AcDbLine
  6
BYLAYER
 62
0
370
  -2
 10
569.194576080207
 20
98.68613551173
 11
569.194576080207
 21
236.954037358345
  0
LINE
  5
593
100
AcDbEntity
  8
DIM
100
AcDbLine
  6
BYLAYER
 62
0
370
  -2
 10
327.671963885797
 20
94.730570795616
 11
327.671963885797
 21
236.954037358345
  0
LINE
  5
594
100
AcDbEntity
  8
DIM
100
AcDbLine
  6
BYLAYER
 62
0
370
  -2
 10
560.794576080207
 20
233.454037358345
 11
468.966603316335
 21
233.454037358345
  0
LINE
  5
595
100
AcDbEntity
  8
DIM
100
AcDbLine
  6
BYLAYER
 62
0
370
  -2
 10
336.071963885797
 20
233.454037358345
 11
427.899936649669
 21
233.454037358345
  0
SOLID
  5
596
100
AcDbEntity
  8
DIM
100
AcDbTrace
 10
560.794576080207
 20
234.854037358345
 30
0.0
 11
560.794576080207
 21
232.054037358345
 31
0.0
 12
569.194576080207
 22
233.454037358345
 32
0.0
 13
569.194576080207
 23
233.454037358345
 33
0.0
  0
SOLID
  5
597
100
AcDbEntity
  8
DIM
100
AcDbTrace
 10
327.671963885797
 20
233.454037358345
 30
0.0
 11
336.071963885797
 21
232.054037358345
 31
0.0
 12
336.071963885797
 22
234.854037358345
 32
0.0
 13
336.071963885797
 23
234.854037358345
 33
0.0
  0
TEXT
  5
598
100
AcDbEntity
  8
DIM
 62
0
100
AcDbText
  6
BYLAYER
 62
0
 10
440.033269983002
 20
227.854037358345
 40
11.2
  1
242
  7
Font_0
 72
1
 11
448.433269983002
 21
233.454037358345
100
AcDbText
 73
2
  0
LINE
  5
599
100
AcDbEntity
  8
DIM
100
AcDbLine
  6
BYLAYER
 62
0
370
  -2
 10
569.194576080207
 20
98.68613551173
 11
569.194576080207
 21
219.655924207691
  0
LINE
  5
59A
100
AcDbEntity
  8
DIM
100
AcDbLine
  6
BYLAYER
 62
0
370
  -2
 10
461.671963885798
 20
108.784152267866
 11
461.671963885798
 21
219.655924207691
  0
LINE
  5
59B
100
AcDbEntity
  8
DIM
100
AcDbLine
  6
BYLAYER
 62
0
370
  -2
 10
560.794576080207
 20
216.155924207691
 11
533.166603316335
 21
216.155924207691
  0
LINE
  5
59C
100
AcDbEntity
  8
DIM
100
AcDbLine
  6
BYLAYER
 62
0
370
  -2
 10
470.071963885798
 20
216.155924207691
 11
497.699936649669
 21
216.155924207691
  0
SOLID
  5
59D
100
AcDbEntity
  8
DIM
100
AcDbTrace
 10
560.794576080207
 20
217.555924207691
 30
0.0
 11
560.794576080207
 21
214.755924207691
 31
0.0
 12
569.194576080207
 22
216.155924207691
 32
0.0
 13
569.194576080207
 23
216.155924207691
 33
0.0
  0
SOLID
  5
59E
100
AcDbEntity
  8
DIM
100
AcDbTrace
 10
461.671963885798
 20
216.155924207691
 30
0.0
 11
470.071963885798
 21
214.755924207691
 31
0.0
 12
470.071963885798
 22
217.555924207691
 32
0.0
 13
470.071963885798
 23
217.555924207691
 33
0.0
  0
TEXT
  5
59F
100
AcDbEntity
  8
DIM
 62
0
100
AcDbText
  6
BYLAYER
 62
0
 10
507.033269983002
 20
210.555924207691
 40
11.2
  1
108
  7
Font_0
 72
1
 11
515.433269983002
 21
216.155924207691
100
AcDbText
 73
2
  0
LINE
  5
5A0
100
AcDbEntity
  8
DIM
100
AcDbLine
  6
BYLAYER
 62
0
370
  -2
 10
461.671963885798
 20
108.784152267866
 11
461.671963885798
 21
219.655924207691
  0
LINE
  5
5A1
100
AcDbEntity
  8
DIM
100
AcDbLine
  6
BYLAYER
 62
0
370
  -2
 10
357.671963885798
 20
97.2305707956161
 11
357.671963885798
 21
219.655924207691
  0
LINE
  5
5A2
100
AcDbEntity
  8
DIM
100
AcDbLine
  6
BYLAYER
 62
0
370
  -2
 10
453.271963885798
 20
216.155924207691
 11
427.405297219131
 21
216.155924207691
  0
LINE
  5
5A3
100
AcDbEntity
  8
DIM
100
AcDbLine
  6
BYLAYER
 62
0
370
  -2
 10
366.071963885798
 20
216.155924207691
 11
391.938630552464
 21
216.155924207691
  0
SOLID
  5
5A4
100
AcDbEntity
  8
DIM
100
AcDbTrace
 10
453.271963885798
 20
217.555924207691
 30
0.0
 11
453.271963885798
 21
214.755924207691
 31
0.0
 12
461.671963885798
 22
216.155924207691
 32
0.0
 13
461.671963885798
 23
216.155924207691
 33
0.0
  0
SOLID
  5
5A5
100
AcDbEntity
  8
DIM
100
AcDbTrace
 10
357.671963885798
 20
216.155924207691
 30
0.0
 11
366.071963885798
 21
214.755924207691
 31
0.0
 12
366.071963885798
 22
217.555924207691
 32
0.0
 13
366.071963885798
 23
217.555924207691
 33
0.0
  0
TEXT
  5
5A6
100
AcDbEntity
  8
DIM
 62
0
100
AcDbText
  6
BYLAYER
 62
0
 10
401.271963885798
 20
210.555924207691
 40
11.2
  1
104
  7
Font_0
 72
1
 11
409.671963885798
 21
216.155924207691
100
AcDbText
 73
2
  0
LINE
  5
5A7
100
AcDbEntity
  8
DIM
100
AcDbLine
  6
BYLAYER
 62
0
370
  -2
 10
357.671963885798
 20
97.2305707956161
 11
357.671963885798
 21
219.655924207691
  0
LINE
  5
5A8
100
AcDbEntity
  8
DIM
100
AcDbLine
  6
BYLAYER
 62
0
370
  -2
 10
327.671963885797
 20
94.730570795616
 11
327.671963885797
 21
219.655924207691
  0
LINE
  5
5A9
100
AcDbEntity
  8
DIM
100
AcDbLine
  6
BYLAYER
 62
0
370
  -2
 10
366.071963885798
 20
216.155924207691
 11
374.471963885798
 21
216.155924207691
  0
LINE
  5
5AA
100
AcDbEntity
  8
DIM
100
AcDbLine
  6
BYLAYER
 62
0
370
  -2
 10
319.271963885797
 20
216.155924207691
 11
310.871963885797
 21
216.155924207691
  0
SOLID
  5
5AB
100
AcDbEntity
  8
DIM
100
AcDbTrace
 10
357.671963885798
 20
216.155924207691
 30
0.0
 11
366.071963885798
 21
214.755924207691
 31
0.0
 12
366.071963885798
 22
217.555924207691
 32
0.0
 13
366.071963885798
 23
217.555924207691
 33
0.0
  0
SOLID
  5
5AC
100
AcDbEntity
  8
DIM
100
AcDbTrace
 10
319.271963885797
 20
217.555924207691
 30
0.0
 11
319.271963885797
 21
214.755924207691
 31
0.0
 12
327.671963885797
 22
216.155924207691
 32
0.0
 13
327.671963885797
 23
216.155924207691
 33
0.0
  0
TEXT
  5
5AD
100
AcDbEntity
  8
DIM
 62
0
100
AcDbText
  6
BYLAYER
 62
0
 10
337.071963885797
 20
210.555924207691
 40
11.2
  1
30
  7
Font_0
 72
1
 11
342.671963885798
 21
216.155924207691
100
AcDbText
 73
2
  0
CIRCLE
  5
5AE
100
AcDbEntity
  8
0
100
AcDbCircle
  6
BYLAYER
 10
461.671963885798
 20
107.034152267866
 40
61.5
  0
LINE
  5
5AF
100
AcDbEntity
  8
DIM
100
AcDbLine
  6
BYLAYER
 62
0
370
  -2
 10
438.420877991243
 20
6.76929425774035
 11
446.820877991243
 21
6.76929425774035
  0
LINE
  5
5B0
100
AcDbEntity
  8
DIM
100
AcDbLine
  6
BYLAYER
 62
0
370
  -2
 10
446.820877991243
 20
6.76929425774035
 11
451.283694748466
 21
36.8993259379299
  0
TEXT
  5
5B1
100
AcDbEntity
  8
DIM
 62
0
100
AcDbText
  6
BYLAYER
 62
0
 10
400.154211324576
 20
1.1692942577403
 40
11.2
  1
φ125
  7
Font_0
 72
1
 11
414.154211324576
 21
6.7692942577403
100
AcDbText
 73
2
  0
SOLID
  5
5B2
100
AcDbEntity
  8
DIM
100
AcDbTrace
 10
449.898803960569
 20
37.1044539603878
 30
0.0
 11
452.668585536363
 21
36.6941979154721
 31
0.0
 12
452.514462883213
 22
45.2086706653131
 32
0.0
 13
452.514462883213
 23
45.2086706653131
 33
0.0
  0
LWPOLYLINE
  5
5B3
100
AcDbEntity
  8
0
100
AcDbPolyline
  6
BYLAYER
370
0
 90
     6
 10
234.676270823004
  20
-35.7354063300913
 10
234.676270823004
  20
-42.4658477321336
 10
259.676270823004
  20
-42.4658477321336
 10
259.676270823004
  20
-44.0658477321336
 10
233.076270823005
  20
-44.0658477321336
 10
233.076270823005
  20
-35.822127265281
  0
LINE
  5
5B4
100
AcDbEntity
  8
HIDDEN
100
AcDbLine
  6
BYLAYER
 10
242.826270823004
 20
-42.4658477321336
 11
242.826270823004
 21
-44.0658477321336
  0
LINE
  5
5B5
100
AcDbEntity
  8
HIDDEN
100
AcDbLine
  6
BYLAYER
 10
251.326270823004
 20
-42.4658477321336
 11
251.326270823004
 21
-44.0658477321336
  0
LINE
  5
5B6
100
AcDbEntity
  8
CEN
100
AcDbLine
  6
BYLAYER
 10
247.076270823004
 20
-42.4658477321336
 11
247.076270823004
 21
-44.0658477321336
  0
LWPOLYLINE
  5
5B7
100
AcDbEntity
  8
0
100
AcDbPolyline
  6
BYLAYER
370
0
 90
     6
 10
141.476270823005
  20
-35.7354063300914
 10
141.476270823005
  20
-42.4658477321336
 10
116.476270823005
  20
-42.4658477321336
 10
116.476270823005
  20
-44.0658477321336
 10
143.076270823005
  20
-44.0658477321336
 10
143.076270823005
  20
-35.822127265281
  0
LINE
  5
5B8
100
AcDbEntity
  8
HIDDEN
100
AcDbLine
  6
BYLAYER
 10
133.326270823005
 20
-42.4658477321336
 11
133.326270823005
 21
-44.0658477321336
  0
LINE
  5
5B9
100
AcDbEntity
  8
HIDDEN
100
AcDbLine
  6
BYLAYER
 10
124.826270823005
 20
-42.4658477321336
 11
124.826270823005
 21
-44.0658477321336
  0
LINE
  5
5BA
100
AcDbEntity
  8
CEN
100
AcDbLine
  6
BYLAYER
 10
129.076270823005
 20
-42.4658477321336
 11
129.076270823005
 21
-44.0658477321336
  0
ARC
  5
5BB
100
AcDbEntity
  8
0
100
AcDbCircle
  6
BYLAYER
 10
461.671963885798
 20
107.534152267866
 40
98.25
100
AcDbArc
 50
314.09529220277
 51
315.90470779723
  0
ARC
  5
5BC
100
AcDbEntity
  8
0
100
AcDbCircle
  6
BYLAYER
 10
527.778073771837
 20
39.3067220382668
 40
3.25
100
AcDbArc
 50
134.09529220277
 51
314.09529220277
  0
ARC
  5
5BD
100
AcDbEntity
  8
0
100
AcDbCircle
  6
BYLAYER
 10
461.671963885798
 20
107.534152267866
 40
98.25
100
AcDbArc
 50
224.09529220277
 51
225.90470779723
  0
ARC
  5
5BE
100
AcDbEntity
  8
0
100
AcDbCircle
  6
BYLAYER
 10
395.565853999758
 20
39.3067220382668
 40
3.25
100
AcDbArc
 50
225.90470779723
 51
45.9047077972298
  0
ARC
  5
5BF
100
AcDbEntity
  8
BASE
100
AcDbCircle
  6
BYLAYER
 10
461.671963885798
 20
107.534152267866
 40
85.5
100
AcDbArc
 50
208.685402014121
 51
331.314597985879
  0
LINE
  5
5C0
100
AcDbEntity
  8
BASE
100
AcDbLine
  6
BYLAYER
 10
376.671963885797
 20
62.5341522678662
 11
376.671963885797
 21
-39.4658477321338
  0
LINE
  5
5C1
100
AcDbEntity
  8
BASE
100
AcDbLine
  6
BYLAYER
 10
546.671963885797
 20
-39.4658477321338
 11
546.671963885797
 21
62.5341522678662
  0
LINE
  5
5C2
100
AcDbEntity
  8
0
100
AcDbLine
  6
BYLAYER
 10
546.671963885797
 20
-44.0658477321337
 11
376.671963885797
 21
-44.0658477321337
  0
LINE
  5
5C3
100
AcDbEntity
  8
0
100
AcDbLine
  6
BYLAYER
 10
546.671963885797
 20
-42.4658477321338
 11
376.671963885797
 21
-42.4658477321337
  0
LINE
  5
5C4
100
AcDbEntity
  8
0
100
AcDbLine
  6
BYLAYER
 10
379.671963885797
 20
-42.4658477321338
 11
376.671963885797
 21
-39.4658477321338
  0
LINE
  5
5C5
100
AcDbEntity
  8
0
100
AcDbLine
  6
BYLAYER
 10
376.671963885797
 20
-42.4658477321337
 11
376.671963885797
 21
-44.0658477321337
  0
LINE
  5
5C6
100
AcDbEntity
  8
0
100
AcDbLine
  6
BYLAYER
 10
543.671963885797
 20
-42.4658477321338
 11
546.671963885797
 21
-39.4658477321338
  0
LINE
  5
5C7
100
AcDbEntity
  8
0
100
AcDbLine
  6
BYLAYER
 10
546.671963885797
 20
-44.0658477321338
 11
546.671963885797
 21
-42.4658477321338
  0
ARC
  5
5C8
100
AcDbEntity
  8
BASE
100
AcDbCircle
  6
BYLAYER
 10
381.671963885797
 20
62.5341522678662
 40
5
100
AcDbArc
 50
90
 51
180
  0
ARC
  5
5C9
100
AcDbEntity
  8
0
100
AcDbCircle
  6
BYLAYER
 10
461.671963885798
 20
107.534152267866
 40
91.75
100
AcDbArc
 50
224.09529220277
 51
225.90470779723
  0
ARC
  5
5CA
100
AcDbEntity
  8
0
100
AcDbCircle
  6
BYLAYER
 10
393.444533656198
 20
41.4280423818265
 40
3.25
100
AcDbArc
 50
44.0952922027656
 51
224.09529220277
  0
ARC
  5
5CB
100
AcDbEntity
  8
BASE
100
AcDbCircle
  6
BYLAYER
 10
384.910971187683
 20
65.5341522678662
 40
2
100
AcDbArc
 50
28.6854020141205
 51
90
  0
LINE
  5
5CC
100
AcDbEntity
  8
BASE
100
AcDbLine
  6
BYLAYER
 10
381.671963885797
 20
67.5341522678662
 11
384.910971187683
 21
67.5341522678662
  0
ARC
  5
5CD
100
AcDbEntity
  8
0
100
AcDbCircle
  6
BYLAYER
 10
461.671963885798
 20
107.534152267866
 40
91.75
100
AcDbArc
 50
314.09529220277
 51
315.90470779723
  0
ARC
  5
5CE
100
AcDbEntity
  8
0
100
AcDbCircle
  6
BYLAYER
 10
529.899394115397
 20
41.4280423818265
 40
3.25
100
AcDbArc
 50
315.90470779723
 51
135.904707797234
  0
ARC
  5
5CF
100
AcDbEntity
  8
BASE
100
AcDbCircle
  6
BYLAYER
 10
541.671963885797
 20
62.5341522678662
 40
5
100
AcDbArc
 50
0
 51
90
  0
ARC
  5
5D0
100
AcDbEntity
  8
BASE
100
AcDbCircle
  6
BYLAYER
 10
538.432956583912
 20
65.5341522678662
 40
2
100
AcDbArc
 50
90
 51
151.314597985879
  0
LINE
  5
5D1
100
AcDbEntity
  8
BASE
100
AcDbLine
  6
BYLAYER
 10
538.432956583912
 20
67.5341522678662
 11
541.671963885797
 21
67.5341522678662
  0
LINE
  5
5D2
100
AcDbEntity
  8
BASE
100
AcDbLine
  6
BYLAYER
 10
231.076270823004
 20
73.4805707956161
 11
145.076270823005
 21
73.480570795616
  0
ARC
  5
5D3
100
AcDbEntity
  8
BASE
100
AcDbCircle
  6
BYLAYER
 10
199.060472926782
 20
26.1642563947504
 40
34.3349205354911
100
AcDbArc
 50
21.9100959895975
 51
37.7443540321983
  0
LINE
  5
5D4
100
AcDbEntity
  8
BASE
100
AcDbLine
  6
BYLAYER
 10
218.210807846336
 20
42.0505177197563
 11
158.210807846336
 21
42.0505177197563
  0
LINE
  5
5D5
100
AcDbEntity
  8
BASE
100
AcDbLine
  6
BYLAYER
 10
218.210807846336
 20
42.5481861341286
 11
158.210807846336
 21
42.5481861341286
  0
LINE
  5
5D6
100
AcDbEntity
  8
BASE
100
AcDbLine
  6
BYLAYER
 10
218.210807846336
 20
43.3752668926153
 11
158.210807846336
 21
43.3752668926153
  0
LINE
  5
5D7
100
AcDbEntity
  8
BASE
100
AcDbLine
  6
BYLAYER
 10
218.210807846336
 20
43.8720876743694
 11
158.210807846336
 21
43.8720876743694
  0
LINE
  5
5D8
100
AcDbEntity
  8
BASE
100
AcDbLine
  6
BYLAYER
 10
218.210807846336
 20
47.1475908861113
 11
158.210807846336
 21
47.1475908861113
  0
LINE
  5
5D9
100
AcDbEntity
  8
BASE
100
AcDbLine
  6
BYLAYER
 10
218.210807846336
 20
47.4822148255961
 11
158.210807846336
 21
47.4822148255961
  0
LINE
  5
5DA
100
AcDbEntity
  8
BASE
100
AcDbLine
  6
BYLAYER
 10
218.210807846336
 20
47.9564745225588
 11
158.210807846336
 21
47.9564745225588
  0
LINE
  5
5DB
100
AcDbEntity
  8
BASE
100
AcDbLine
  6
BYLAYER
 10
218.210807846336
 20
53.2944936263301
 11
158.210807846336
 21
53.2944936263301
  0
LINE
  5
5DC
100
AcDbEntity
  8
BASE
100
AcDbLine
  6
BYLAYER
 10
218.210807846336
 20
54.1918681867048
 11
158.210807846336
 21
54.1918681867048
  0
LINE
  5
5DD
100
AcDbEntity
  8
BASE
100
AcDbLine
  6
BYLAYER
 10
218.210807846336
 20
54.6228393743683
 11
158.210807846336
 21
54.6228393743683
  0
LINE
  5
5DE
100
AcDbEntity
  8
BASE
100
AcDbLine
  6
BYLAYER
 10
218.210807846336
 20
61.5059961302161
 11
158.210807846336
 21
61.5059961302161
  0
LINE
  5
5DF
100
AcDbEntity
  8
BASE
100
AcDbLine
  6
BYLAYER
 10
218.210807846336
 20
63.2109829275719
 11
158.210807846336
 21
63.210982927572
  0
LINE
  5
5E0
100
AcDbEntity
  8
BASE
100
AcDbLine
  6
BYLAYER
 10
218.210807846336
 20
63.5798300970061
 11
158.210807846336
 21
63.5798300970061
  0
LINE
  5
5E1
100
AcDbEntity
  8
BASE
100
AcDbLine
  6
BYLAYER
 10
218.210807846336
 20
59.7692544158526
 11
158.210807846336
 21
59.7692544158526
  0
LINE
  5
5E2
100
AcDbEntity
  8
BASE
100
AcDbLine
  6
BYLAYER
 10
218.210807846336
 20
66.5371172308429
 11
158.210807846336
 21
66.5371172308429
  0
LINE
  5
5E3
100
AcDbEntity
  8
0
100
AcDbLine
  6
BYLAYER
 10
156.260807846336
 20
45.0341522678666
 11
156.260807846336
 21
73.480570795616
  0
LINE
  5
5E4
100
AcDbEntity
  8
BASE
100
AcDbLine
  6
BYLAYER
 10
154.295805034106
 20
73.480570795616
 11
151.510807846336
 21
63.5341522678666
  0
LINE
  5
5E5
100
AcDbEntity
  8
BASE
100
AcDbLine
  6
BYLAYER
 10
153.451071212159
 20
73.480570795616
 11
150.710807846336
 21
63.6939159176783
  0
LINE
  5
5E6
100
AcDbEntity
  8
BASE
100
AcDbLine
  6
BYLAYER
 10
150.210807846336
 20
46.3341522678666
 11
150.210807846336
 21
73.480570795616
  0
LINE
  5
5E7
100
AcDbEntity
  8
BASE
100
AcDbLine
  6
BYLAYER
 10
158.210807846336
 20
47.9564745225588
 11
156.260807846336
 21
50.9401090706692
  0
LINE
  5
5E8
100
AcDbEntity
  8
BASE
100
AcDbLine
  6
BYLAYER
 10
158.210807846336
 20
47.4822148255961
 11
156.260807846336
 21
50.4658493737065
  0
LINE
  5
5E9
100
AcDbEntity
  8
BASE
100
AcDbLine
  6
BYLAYER
 10
155.010807846336
 20
50.5341522678666
 11
155.010807846336
 21
45.0341522678666
  0
LINE
  5
5EA
100
AcDbEntity
  8
BASE
100
AcDbLine
  6
BYLAYER
 10
154.210807846336
 20
50.1341522678666
 11
154.210807846336
 21
46.3341522678666
  0
LINE
  5
5EB
100
AcDbEntity
  8
BASE
100
AcDbLine
  6
BYLAYER
 10
158.210807846336
 20
47.1475908861113
 11
156.260807846336
 21
50.1312254342217
  0
LINE
  5
5EC
100
AcDbEntity
  8
BASE
100
AcDbLine
  6
BYLAYER
 10
150.210807846336
 20
42.5341522678667
 11
150.210807846336
 21
46.3341522678666
  0
LINE
  5
5ED
100
AcDbEntity
  8
BASE
100
AcDbLine
  6
BYLAYER
 10
152.310807846336
 20
45.0341522678667
 11
152.310807846336
 21
42.5341522678666
  0
LINE
  5
5EE
100
AcDbEntity
  8
BASE
100
AcDbLine
  6
BYLAYER
 10
158.210807846336
 20
42.5481861341286
 11
156.260807846336
 21
45.531820682239
  0
LINE
  5
5EF
100
AcDbEntity
  8
BASE
100
AcDbLine
  6
BYLAYER
 10
158.210807846336
 20
42.0505177197563
 11
156.260807846336
 21
45.0341522678666
  0
LINE
  5
5F0
100
AcDbEntity
  8
BASE
100
AcDbLine
  6
BYLAYER
 10
151.010807846336
 20
41.7341522678666
 11
151.510807846336
 21
41.7341522678666
  0
ARC
  5
5F1
100
AcDbEntity
  8
BASE
100
AcDbCircle
  6
BYLAYER
 10
151.510807846336
 20
42.5341522678666
 40
0.8
100
AcDbArc
 50
270
 51
0
  0
ARC
  5
5F2
100
AcDbEntity
  8
BASE
100
AcDbCircle
  6
BYLAYER
 10
151.010807846336
 20
42.5341522678666
 40
0.8
100
AcDbArc
 50
179.999999999998
 51
270
  0
LINE
  5
5F3
100
AcDbEntity
  8
BASE
100
AcDbLine
  6
BYLAYER
 10
152.310807846336
 20
45.0341522678667
 11
155.010807846336
 21
45.0341522678666
  0
LINE
  5
5F4
100
AcDbEntity
  8
BASE
100
AcDbLine
  6
BYLAYER
 10
154.210807846336
 20
46.3341522678666
 11
150.210807846336
 21
46.3341522678666
  0
LINE
  5
5F5
100
AcDbEntity
  8
BASE
100
AcDbLine
  6
BYLAYER
 10
158.210807846336
 20
43.3752668926153
 11
156.260807846336
 21
46.3589014407257
  0
LINE
  5
5F6
100
AcDbEntity
  8
BASE
100
AcDbLine
  6
BYLAYER
 10
158.210807846336
 20
43.8720876743694
 11
156.260807846336
 21
46.8557222224798
  0
LINE
  5
5F7
100
AcDbEntity
  8
BASE
100
AcDbLine
  6
BYLAYER
 10
156.260807846336
 20
45.0341522678666
 11
155.010807846336
 21
45.0341522678666
  0
LINE
  5
5F8
100
AcDbEntity
  8
BASE
100
AcDbLine
  6
BYLAYER
 10
151.510807846336
 20
63.5341522678666
 11
151.510807846336
 21
53.5341522678666
  0
LINE
  5
5F9
100
AcDbEntity
  8
BASE
100
AcDbLine
  6
BYLAYER
 10
150.710807846336
 20
63.6939159176783
 11
150.710807846336
 21
53.1341522678666
  0
LINE
  5
5FA
100
AcDbEntity
  8
BASE
100
AcDbLine
  6
BYLAYER
 10
158.210807846336
 20
59.7692544158526
 11
156.260807846336
 21
62.7528889639629
  0
LINE
  5
5FB
100
AcDbEntity
  8
BASE
100
AcDbLine
  6
BYLAYER
 10
158.210807846336
 20
61.5059961302161
 11
156.260807846336
 21
64.4896306783264
  0
LINE
  5
5FC
100
AcDbEntity
  8
BASE
100
AcDbLine
  6
BYLAYER
 10
158.210807846336
 20
54.6228393743683
 11
156.260807846336
 21
57.6064739224787
  0
LINE
  5
5FD
100
AcDbEntity
  8
BASE
100
AcDbLine
  6
BYLAYER
 10
158.210807846336
 20
54.1918681867048
 11
156.260807846336
 21
57.1755027348152
  0
LINE
  5
5FE
100
AcDbEntity
  8
BASE
100
AcDbLine
  6
BYLAYER
 10
158.210807846336
 20
53.2944936263301
 11
156.260807846336
 21
56.2781281744404
  0
LINE
  5
5FF
100
AcDbEntity
  8
BASE
100
AcDbLine
  6
BYLAYER
 10
151.510807846336
 20
53.5341522678666
 11
155.010807846336
 21
50.5341522678666
  0
LINE
  5
600
100
AcDbEntity
  8
BASE
100
AcDbLine
  6
BYLAYER
 10
150.710807846336
 20
53.1341522678666
 11
154.210807846336
 21
50.1341522678666
  0
LINE
  5
601
100
AcDbEntity
  8
BASE
100
AcDbLine
  6
BYLAYER
 10
158.210807846336
 20
66.5371172308429
 11
156.260807846336
 21
69.5207517789533
  0
LINE
  5
602
100
AcDbEntity
  8
BASE
100
AcDbLine
  6
BYLAYER
 10
158.210807846336
 20
63.5798300970061
 11
156.260807846336
 21
66.5634646451165
  0
LINE
  5
603
100
AcDbEntity
  8
BASE
100
AcDbLine
  6
BYLAYER
 10
158.210807846336
 20
63.2109829275719
 11
156.260807846336
 21
66.1946174756823
  0
LINE
  5
604
100
AcDbEntity
  8
BASE
100
AcDbLine
  6
BYLAYER
 10
221.410807846336
 20
50.5341522678666
 11
221.410807846336
 21
73.480570795616
  0
LINE
  5
605
100
AcDbEntity
  8
BASE
100
AcDbLine
  6
BYLAYER
 10
222.210807846336
 20
50.5341522678666
 11
222.210807846336
 21
73.480570795616
  0
LINE
  5
606
100
AcDbEntity
  8
0
100
AcDbLine
  6
BYLAYER
 10
220.160807846336
 20
45.0341522678666
 11
220.160807846336
 21
73.4805707956161
  0
LINE
  5
607
100
AcDbEntity
  8
BASE
100
AcDbLine
  6
BYLAYER
 10
226.210807846336
 20
46.3341522678666
 11
226.210807846336
 21
73.4805707956161
  0
LINE
  5
608
100
AcDbEntity
  8
BASE
100
AcDbLine
  6
BYLAYER
 10
218.210807846336
 20
47.4822148255961
 11
220.160807846336
 21
50.4658493737065
  0
LINE
  5
609
100
AcDbEntity
  8
BASE
100
AcDbLine
  6
BYLAYER
 10
218.210807846336
 20
47.9564745225588
 11
220.160807846336
 21
50.9401090706692
  0
LINE
  5
60A
100
AcDbEntity
  8
BASE
100
AcDbLine
  6
BYLAYER
 10
222.210807846336
 20
50.5341522678666
 11
222.210807846336
 21
46.3341522678666
  0
LINE
  5
60B
100
AcDbEntity
  8
BASE
100
AcDbLine
  6
BYLAYER
 10
221.410807846336
 20
50.5341522678666
 11
221.410807846336
 21
45.5341522678666
  0
LINE
  5
60C
100
AcDbEntity
  8
BASE
100
AcDbLine
  6
BYLAYER
 10
218.210807846336
 20
47.1475908861113
 11
220.160807846336
 21
50.1312254342217
  0
LINE
  5
60D
100
AcDbEntity
  8
BASE
100
AcDbLine
  6
BYLAYER
 10
218.210807846336
 20
42.0505177197563
 11
220.160807846336
 21
45.0341522678666
  0
LINE
  5
60E
100
AcDbEntity
  8
BASE
100
AcDbLine
  6
BYLAYER
 10
218.210807846336
 20
42.5481861341286
 11
220.160807846336
 21
45.5318206822389
  0
LINE
  5
60F
100
AcDbEntity
  8
BASE
100
AcDbLine
  6
BYLAYER
 10
226.210807846336
 20
46.3341522678666
 11
226.210807846336
 21
42.5341522678666
  0
LINE
  5
610
100
AcDbEntity
  8
BASE
100
AcDbLine
  6
BYLAYER
 10
224.110807846336
 20
45.0341522678666
 11
224.110807846336
 21
42.5341522678666
  0
LINE
  5
611
100
AcDbEntity
  8
BASE
100
AcDbLine
  6
BYLAYER
 10
225.410807846336
 20
41.7341522678666
 11
224.910807846336
 21
41.7341522678666
  0
ARC
  5
612
100
AcDbEntity
  8
BASE
100
AcDbCircle
  6
BYLAYER
 10
225.410807846336
 20
42.5341522678666
 40
0.8
100
AcDbArc
 50
270
 51
1.6284E-12
  0
ARC
  5
613
100
AcDbEntity
  8
BASE
100
AcDbCircle
  6
BYLAYER
 10
224.910807846336
 20
42.5341522678666
 40
0.8
100
AcDbArc
 50
180
 51
270
  0
LINE
  5
614
100
AcDbEntity
  8
BASE
100
AcDbLine
  6
BYLAYER
 10
224.110807846336
 20
45.0341522678666
 11
221.410807846336
 21
45.0341522678666
  0
LINE
  5
615
100
AcDbEntity
  8
BASE
100
AcDbLine
  6
BYLAYER
 10
222.210807846336
 20
46.3341522678666
 11
226.210807846336
 21
46.3341522678666
  0
LINE
  5
616
100
AcDbEntity
  8
BASE
100
AcDbLine
  6
BYLAYER
 10
221.410807846336
 20
45.0341522678666
 11
221.410807846336
 21
45.5341522678666
  0
LINE
  5
617
100
AcDbEntity
  8
BASE
100
AcDbLine
  6
BYLAYER
 10
221.410807846336
 20
45.0341522678666
 11
220.160807846336
 21
45.0341522678666
  0
LINE
  5
618
100
AcDbEntity
  8
BASE
100
AcDbLine
  6
BYLAYER
 10
218.210807846336
 20
43.3752668926153
 11
220.160807846336
 21
46.3589014407257
  0
LINE
  5
619
100
AcDbEntity
  8
BASE
100
AcDbLine
  6
BYLAYER
 10
218.210807846336
 20
43.8720876743694
 11
220.160807846336
 21
46.8557222224798
  0
LINE
  5
61A
100
AcDbEntity
  8
BASE
100
AcDbLine
  6
BYLAYER
 10
218.210807846336
 20
59.7692544158526
 11
220.160807846336
 21
62.7528889639629
  0
LINE
  5
61B
100
AcDbEntity
  8
BASE
100
AcDbLine
  6
BYLAYER
 10
218.210807846336
 20
61.5059961302161
 11
220.160807846336
 21
64.4896306783264
  0
LINE
  5
61C
100
AcDbEntity
  8
BASE
100
AcDbLine
  6
BYLAYER
 10
218.210807846336
 20
54.1918681867048
 11
220.160807846336
 21
57.1755027348151
  0
LINE
  5
61D
100
AcDbEntity
  8
BASE
100
AcDbLine
  6
BYLAYER
 10
218.210807846336
 20
54.6228393743683
 11
220.160807846336
 21
57.6064739224786
  0
LINE
  5
61E
100
AcDbEntity
  8
BASE
100
AcDbLine
  6
BYLAYER
 10
218.210807846336
 20
53.2944936263301
 11
220.160807846336
 21
56.2781281744404
  0
LINE
  5
61F
100
AcDbEntity
  8
BASE
100
AcDbLine
  6
BYLAYER
 10
221.410807846336
 20
50.5341522678666
 11
222.210807846336
 21
50.5341522678666
  0
LINE
  5
620
100
AcDbEntity
  8
BASE
100
AcDbLine
  6
BYLAYER
 10
218.210807846336
 20
66.5371172308429
 11
220.160807846336
 21
69.5207517789533
  0
LINE
  5
621
100
AcDbEntity
  8
BASE
100
AcDbLine
  6
BYLAYER
 10
218.210807846336
 20
63.2109829275719
 11
220.160807846336
 21
66.1946174756823
  0
LINE
  5
622
100
AcDbEntity
  8
BASE
100
AcDbLine
  6
BYLAYER
 10
218.210807846336
 20
63.5798300970061
 11
220.160807846336
 21
66.5634646451165
  0
LINE
  5
623
100
AcDbEntity
  8
0
100
AcDbLine
  6
BYLAYER
 10
46.5762708230044
 20
63.5341522678666
 11
121.222035230575
 21
63.5341522678667
  0
LINE
  5
624
100
AcDbEntity
  8
0
100
AcDbLine
  6
BYLAYER
 10
46.5762708230044
 20
64.5341522678667
 11
121.261716168002
 21
64.5341522678667
  0
LINE
  5
625
100
AcDbEntity
  8
0
100
AcDbLine
  6
BYLAYER
 10
46.5762708230044
 20
68.2841522678667
 11
121.421071094572
 21
68.2841522678667
  0
LINE
  5
626
100
AcDbEntity
  8
0
100
AcDbLine
  6
BYLAYER
 10
46.5762708230044
 20
70.5841522678667
 11
121.527054419074
 21
70.5841522678666
  0
LINE
  5
627
100
AcDbEntity
  8
0
100
AcDbLine
  6
BYLAYER
 10
46.5762708230044
 20
77.0841522678667
 11
121.860491223642
 21
77.0841522678666
  0
LINE
  5
628
100
AcDbEntity
  8
0
100
AcDbLine
  6
BYLAYER
 10
46.5762708230044
 20
79.0841522678667
 11
121.973174499111
 21
79.0841522678666
  0
LINE
  5
629
100
AcDbEntity
  8
0
100
AcDbLine
  6
BYLAYER
 10
46.5762708230044
 20
90.0841522678667
 11
122.677897860241
 21
90.0841522678666
  0
LINE
  5
62A
100
AcDbEntity
  8
0
100
AcDbLine
  6
BYLAYER
 10
46.5762708230044
 20
92.2841522678666
 11
122.963542495043
 21
92.2841522678666
  0
LINE
  5
62B
100
AcDbEntity
  8
DIM
100
AcDbLine
  6
BYLAYER
 62
0
370
  -2
 10
278.034631164425
 20
-56.3941147643677
 11
269.634631164425
 21
-56.3941147643677
  0
LINE
  5
62C
100
AcDbEntity
  8
DIM
100
AcDbLine
  6
BYLAYER
 62
0
370
  -2
 10
269.634631164425
 20
-56.3941147643677
 11
251.173905714978
 21
-34.2380098186652
  0
TEXT
  5
62D
100
AcDbEntity
  8
DIM
 62
0
100
AcDbText
  6
BYLAYER
 62
0
 10
292.034631164425
 20
-61.9941147643677
 40
11.2
  1
4-φ8.5
  7
Font_0
 72
1
 11
311.634631164425
 21
-56.3941147643677
100
AcDbText
 73
2
  0
SOLID
  5
62E
100
AcDbEntity
  8
DIM
100
AcDbTrace
 10
245.796820095011
 20
-27.7845649838855
 30
0.0
 11
250.098331575849
 21
-35.1341907553264
 31
0.0
 12
252.249479854108
 22
-33.341828882004
 32
0.0
 13
252.249479854108
 23
-33.341828882004
 33
0.0
  0
LINE
  5
62F
100
AcDbEntity
  8
DIM
100
AcDbLine
  6
BYLAYER
 62
0
370
  -2
 10
191.912230076296
 20
97.9779999048522
 11
295.743689033716
 21
97.9779999048521
  0
LINE
  5
630
100
AcDbEntity
  8
DIM
100
AcDbLine
  6
BYLAYER
 62
0
370
  -2
 10
189.826270823004
 20
-37.019429204385
 11
295.743689033716
 21
-37.019429204385
  0
LINE
  5
631
100
AcDbEntity
  8
DIM
100
AcDbLine
  6
BYLAYER
 62
0
370
  -2
 10
292.243689033716
 20
89.5779999048521
 11
292.243689033716
 21
49.1472374622816
  0
LINE
  5
632
100
AcDbEntity
  8
DIM
100
AcDbLine
  6
BYLAYER
 62
0
370
  -2
 10
292.243689033716
 20
-28.619429204385
 11
292.243689033716
 21
11.8139041289483
  0
SOLID
  5
633
100
AcDbEntity
  8
DIM
100
AcDbTrace
 10
290.843689033716
 20
89.5779999048521
 30
0.0
 11
293.643689033716
 21
89.5779999048521
 31
0.0
 12
292.243689033716
 22
97.9779999048521
 32
0.0
 13
292.243689033716
 23
97.9779999048521
 33
0.0
  0
SOLID
  5
634
100
AcDbEntity
  8
DIM
100
AcDbTrace
 10
292.243689033716
 20
-37.019429204385
 30
0.0
 11
293.643689033716
 21
-28.619429204385
 31
0.0
 12
290.843689033716
 22
-28.619429204385
 32
0.0
 13
290.843689033716
 23
-28.619429204385
 33
0.0
  0
TEXT
  5
635
100
AcDbEntity
  8
DIM
 62
0
100
AcDbText
  6
BYLAYER
 62
0
 10
297.843689033716
 20
22.080570795615
 40
11.2
  1
135
  7
Font_0
 50
90
 72
1
 11
292.243689033716
 21
30.480570795615
100
AcDbText
 73
2
  0
LINE
  5
636
100
AcDbEntity
  8
DIM
100
AcDbLine
  6
BYLAYER
 62
0
370
  -2
 10
244.826270823005
 20
85.480570795616
 11
278.595053465598
 21
85.480570795616
  0
LINE
  5
637
100
AcDbEntity
  8
DIM
100
AcDbLine
  6
BYLAYER
 62
0
370
  -2
 10
244.826270823005
 20
-24.519429204384
 11
278.595053465598
 21
-24.519429204384
  0
LINE
  5
638
100
AcDbEntity
  8
DIM
100
AcDbLine
  6
BYLAYER
 62
0
370
  -2
 10
275.095053465598
 20
77.080570795616
 11
275.095053465598
 21
46.3472374622827
  0
LINE
  5
639
100
AcDbEntity
  8
DIM
100
AcDbLine
  6
BYLAYER
 62
0
370
  -2
 10
275.095053465598
 20
-16.119429204384
 11
275.095053465598
 21
14.6139041289493
  0
SOLID
  5
63A
100
AcDbEntity
  8
DIM
100
AcDbTrace
 10
273.695053465598
 20
77.080570795616
 30
0.0
 11
276.495053465598
 21
77.080570795616
 31
0.0
 12
275.095053465598
 22
85.480570795616
 32
0.0
 13
275.095053465598
 23
85.480570795616
 33
0.0
  0
SOLID
  5
63B
100
AcDbEntity
  8
DIM
100
AcDbTrace
 10
275.095053465598
 20
-24.519429204384
 30
0.0
 11
276.495053465598
 21
-16.119429204384
 31
0.0
 12
273.695053465598
 22
-16.119429204384
 32
0.0
 13
273.695053465598
 23
-16.119429204384
 33
0.0
  0
TEXT
  5
63C
100
AcDbEntity
  8
DIM
 62
0
100
AcDbText
  6
BYLAYER
 62
0
 10
280.695053465598
 20
22.0805707956161
 40
11.2
  1
110
  7
Font_0
 50
90
 72
1
 11
275.095053465598
 21
30.4805707956161
100
AcDbText
 73
2
  0
ARC
  5
63D
100
AcDbEntity
  8
BASE
100
AcDbCircle
  6
BYLAYER
370
0
 10
-590.673729177
 20
30.4805707956149
 40
846.250000000004
100
AcDbArc
 50
-4.11273126796785
 51
4.11273126796785
  0
ARC
  5
63E
100
AcDbEntity
  8
BASE
100
AcDbCircle
  6
BYLAYER
370
0
 10
248.409943882575
 20
90.8142438551859
 40
4.99999999999983
100
AcDbArc
 50
4.11273126796858
 51
85.8872687320342
  0
ARC
  5
63F
100
AcDbEntity
  8
BASE
100
AcDbCircle
  6
BYLAYER
370
0
 10
188.076270823004
 20
-748.269429204388
 40
846.250000000003
100
AcDbArc
 50
85.8872687320322
 51
94.1127312679678
  0
ARC
  5
640
100
AcDbEntity
  8
BASE
100
AcDbCircle
  6
BYLAYER
370
0
 10
127.742597763433
 20
90.8142438551859
 40
4.99999999999983
100
AcDbArc
 50
-265.887268732034
 51
-184.112731267969
  0
ARC
  5
641
100
AcDbEntity
  8
BASE
100
AcDbCircle
  6
BYLAYER
370
0
 10
966.826270823005
 20
30.4805707956152
 40
846.250000000001
100
AcDbArc
 50
-184.112731267968
 51
-175.887268732032
  0
ARC
  5
642
100
AcDbEntity
  8
BASE
100
AcDbCircle
  6
BYLAYER
370
0
 10
127.742597763434
 20
-29.8531022639558
 40
5.00000000000012
100
AcDbArc
 50
-175.887268732032
 51
-94.1127312679666
  0
ARC
  5
643
100
AcDbEntity
  8
BASE
100
AcDbCircle
  6
BYLAYER
370
0
 10
188.076270823003
 20
809.230570795616
 40
846.250000000001
100
AcDbArc
 50
-94.1127312679677
 51
-85.887268732032
  0
ARC
  5
644
100
AcDbEntity
  8
BASE
100
AcDbCircle
  6
BYLAYER
370
0
 10
248.409943882576
 20
-29.853102263956
 40
4.99999999999966
100
AcDbArc
 50
-85.8872687320339
 51
-4.11273126797077
  0
LINE
  5
645
100
AcDbEntity
  8
DIM
100
AcDbLine
  6
BYLAYER
 62
0
370
  -2
 10
243.076270823005
 20
-26.269429204384
 11
243.076270823005
 21
-55.19831394642
  0
LINE
  5
646
100
AcDbEntity
  8
DIM
100
AcDbLine
  6
BYLAYER
 62
0
370
  -2
 10
133.076270823005
 20
-26.269429204384
 11
133.076270823005
 21
-55.19831394642
  0
LINE
  5
647
100
AcDbEntity
  8
DIM
100
AcDbLine
  6
BYLAYER
 62
0
370
  -2
 10
234.676270823005
 20
-51.69831394642
 11
203.942937489671
 21
-51.69831394642
  0
LINE
  5
648
100
AcDbEntity
  8
DIM
100
AcDbLine
  6
BYLAYER
 62
0
370
  -2
 10
141.476270823005
 20
-51.69831394642
 11
172.209604156338
 21
-51.69831394642
  0
SOLID
  5
649
100
AcDbEntity
  8
DIM
100
AcDbTrace
 10
234.676270823005
 20
-50.29831394642
 30
0.0
 11
234.676270823005
 21
-53.09831394642
 31
0.0
 12
243.076270823005
 22
-51.69831394642
 32
0.0
 13
243.076270823005
 23
-51.69831394642
 33
0.0
  0
SOLID
  5
64A
100
AcDbEntity
  8
DIM
100
AcDbTrace
 10
133.076270823005
 20
-51.69831394642
 30
0.0
 11
141.476270823005
 21
-53.09831394642
 31
0.0
 12
141.476270823005
 22
-50.29831394642
 32
0.0
 13
141.476270823005
 23
-50.29831394642
 33
0.0
  0
TEXT
  5
64B
100
AcDbEntity
  8
DIM
 62
0
100
AcDbText
  6
BYLAYER
 62
0
 10
179.676270823005
 20
-57.29831394642
 40
11.2
  1
110
  7
Font_0
 72
1
 11
188.076270823005
 21
-51.69831394642
100
AcDbText
 73
2
  0
LINE
  5
64C
100
AcDbEntity
  8
DIM
100
AcDbLine
  6
BYLAYER
 62
0
370
  -2
 10
255.576270823004
 20
28.7305707956148
 11
255.576270823004
 21
-90.0030067829962
  0
LINE
  5
64D
100
AcDbEntity
  8
DIM
100
AcDbLine
  6
BYLAYER
 62
0
370
  -2
 10
120.576270823004
 20
28.7305707956152
 11
120.576270823004
 21
-90.0030067829962
  0
LINE
  5
64E
100
AcDbEntity
  8
DIM
100
AcDbLine
  6
BYLAYER
 62
0
370
  -2
 10
247.176270823004
 20
-86.5030067829962
 11
206.742937489671
 21
-86.5030067829962
  0
LINE
  5
64F
100
AcDbEntity
  8
DIM
100
AcDbLine
  6
BYLAYER
 62
0
370
  -2
 10
128.976270823004
 20
-86.5030067829962
 11
169.409604156338
 21
-86.5030067829962
  0
SOLID
  5
650
100
AcDbEntity
  8
DIM
100
AcDbTrace
 10
247.176270823004
 20
-85.1030067829962
 30
0.0
 11
247.176270823004
 21
-87.9030067829962
 31
0.0
 12
255.576270823004
 22
-86.5030067829962
 32
0.0
 13
255.576270823004
 23
-86.5030067829962
 33
0.0
  0
SOLID
  5
651
100
AcDbEntity
  8
DIM
100
AcDbTrace
 10
120.576270823004
 20
-86.5030067829962
 30
0.0
 11
128.976270823004
 21
-87.9030067829962
 31
0.0
 12
128.976270823004
 22
-85.1030067829962
 32
0.0
 13
128.976270823004
 23
-85.1030067829962
 33
0.0
  0
TEXT
  5
652
100
AcDbEntity
  8
DIM
 62
0
100
AcDbText
  6
BYLAYER
 62
0
 10
179.676270823005
 20
-92.1030067829962
 40
11.2
  1
135
  7
Font_0
 72
1
 11
188.076270823005
 21
-86.5030067829962
100
AcDbText
 73
2
  0
LINE
  5
653
100
AcDbEntity
  8
DIM
100
AcDbLine
  6
BYLAYER
 62
0
370
  -2
 10
103.789662154783
 20
-18.0796161768275
 11
112.189662154783
 21
-18.0796161768275
  0
LINE
  5
654
100
AcDbEntity
  8
DIM
100
AcDbLine
  6
BYLAYER
 62
0
370
  -2
 10
112.189662154783
 20
-18.0796161768275
 11
128.356640862813
 21
-7.73429277103606
  0
TEXT
  5
655
100
AcDbEntity
  8
DIM
 62
0
100
AcDbText
  6
BYLAYER
 62
0
 10
65.5229954881159
 20
-23.6796161768275
 40
11.2
  1
φ125
  7
Font_0
 72
1
 11
79.5229954881159
 21
-18.0796161768275
100
AcDbText
 73
2
  0
SOLID
  5
656
100
AcDbEntity
  8
DIM
100
AcDbTrace
 10
127.602045531455
 20
-6.55506171399419
 30
0.0
 11
129.111236194172
 21
-8.91352382807792
 31
0.0
 12
135.432027205064
 22
-3.20672078288546
 32
0.0
 13
135.432027205064
 23
-3.20672078288546
 33
0.0
  0
LINE
  5
657
100
AcDbEntity
  8
BASE
100
AcDbLine
  6
BYLAYER
 10
543.671963885797
 20
-256.961996495246
 11
546.08617744817
 21
-259.376210057619
  0
ARC
  5
658
100
AcDbEntity
  8
BASE
100
AcDbCircle
  6
BYLAYER
 10
541.671963885797
 20
-276.961996495246
 40
5
100
AcDbArc
 50
270
 51
0
  0
LINE
  5
659
100
AcDbEntity
  8
BASE
100
AcDbLine
  6
BYLAYER
 10
546.671963885797
 20
-276.961996495246
 11
546.671963885797
 21
-260.790423619992
  0
ARC
  5
65A
100
AcDbEntity
  8
BASE
100
AcDbCircle
  6
BYLAYER
 10
544.671963885797
 20
-260.790423619992
 40
2
100
AcDbArc
 50
0
 51
44.9999999999907
  0
CIRCLE
  5
65B
100
AcDbEntity
  8
BASE
100
AcDbCircle
  6
BYLAYER
 10
521.671963885797
 20
-269.361996495246
 40
4.25
  0
CIRCLE
  5
65C
100
AcDbEntity
  8
BASE
100
AcDbCircle
  6
BYLAYER
 10
401.671963885797
 20
-269.361996495246
 40
4.25
  0
LINE
  5
65D
100
AcDbEntity
  8
BASE
100
AcDbLine
  6
BYLAYER
 10
379.671963885797
 20
-256.961996495246
 11
377.257750323424
 21
-259.37621005762
  0
ARC
  5
65E
100
AcDbEntity
  8
BASE
100
AcDbCircle
  6
BYLAYER
 10
381.671963885797
 20
-276.961996495246
 40
5
100
AcDbArc
 50
180
 51
270
  0
LINE
  5
65F
100
AcDbEntity
  8
BASE
100
AcDbLine
  6
BYLAYER
 10
376.671963885797
 20
-260.790423619993
 11
376.671963885797
 21
-276.961996495246
  0
ARC
  5
660
100
AcDbEntity
  8
BASE
100
AcDbCircle
  6
BYLAYER
 10
378.671963885797
 20
-260.790423619993
 40
2
100
AcDbArc
 50
135.000000000009
 51
180
  0
LINE
  5
661
100
AcDbEntity
  8
BASE
100
AcDbLine
  6
BYLAYER
 10
381.671963885797
 20
-281.961996495246
 11
541.671963885797
 21
-281.961996495246
  0
LINE
  5
662
100
AcDbEntity
  8
0
100
AcDbLine
  6
BYLAYER
 10
376.671963885798
 20
-256.961996495246
 11
379.671963885797
 21
-256.961996495246
  0
LINE
  5
663
100
AcDbEntity
  8
0
100
AcDbLine
  6
BYLAYER
 10
376.671963885798
 20
-255.361996495246
 11
546.671963885797
 21
-255.361996495246
  0
LINE
  5
664
100
AcDbEntity
  8
BASE
100
AcDbLine
  6
BYLAYER
 10
376.671963885798
 20
-256.961996495247
 11
376.671963885798
 21
-255.361996495246
  0
LINE
  5
665
100
AcDbEntity
  8
BASE
100
AcDbLine
  6
BYLAYER
 10
546.671963885797
 20
-256.961996495247
 11
546.671963885797
 21
-255.361996495246
  0
LINE
  5
666
100
AcDbEntity
  8
BASE
100
AcDbLine
  6
BYLAYER
 10
543.671963885797
 20
-163.761996495246
 11
546.08617744817
 21
-161.347782932873
  0
ARC
  5
667
100
AcDbEntity
  8
BASE
100
AcDbCircle
  6
BYLAYER
 10
541.671963885797
 20
-143.761996495246
 40
5
100
AcDbArc
 50
0
 51
90
  0
LINE
  5
668
100
AcDbEntity
  8
BASE
100
AcDbLine
  6
BYLAYER
 10
546.671963885797
 20
-143.761996495246
 11
546.671963885797
 21
-159.9335693705
  0
ARC
  5
669
100
AcDbEntity
  8
BASE
100
AcDbCircle
  6
BYLAYER
 10
544.671963885797
 20
-159.9335693705
 40
2
100
AcDbArc
 50
315.000000000009
 51
0
  0
CIRCLE
  5
66A
100
AcDbEntity
  8
BASE
100
AcDbCircle
  6
BYLAYER
 10
521.671963885797
 20
-151.361996495246
 40
4.25
  0
CIRCLE
  5
66B
100
AcDbEntity
  8
BASE
100
AcDbCircle
  6
BYLAYER
 10
401.671963885797
 20
-151.361996495246
 40
4.25
  0
LINE
  5
66C
100
AcDbEntity
  8
BASE
100
AcDbLine
  6
BYLAYER
 10
379.671963885797
 20
-163.761996495246
 11
377.257750323424
 21
-161.347782932873
  0
ARC
  5
66D
100
AcDbEntity
  8
BASE
100
AcDbCircle
  6
BYLAYER
 10
381.671963885797
 20
-143.761996495246
 40
5
100
AcDbArc
 50
90
 51
180
  0
LINE
  5
66E
100
AcDbEntity
  8
BASE
100
AcDbLine
  6
BYLAYER
 10
376.671963885797
 20
-159.9335693705
 11
376.671963885797
 21
-143.761996495246
  0
ARC
  5
66F
100
AcDbEntity
  8
BASE
100
AcDbCircle
  6
BYLAYER
 10
378.671963885797
 20
-159.9335693705
 40
2
100
AcDbArc
 50
180
 51
224.999999999991
  0
LINE
  5
670
100
AcDbEntity
  8
BASE
100
AcDbLine
  6
BYLAYER
 10
381.671963885797
 20
-138.761996495246
 11
541.671963885797
 21
-138.761996495246
  0
LINE
  5
671
100
AcDbEntity
  8
0
100
AcDbLine
  6
BYLAYER
 10
376.671963885798
 20
-163.761996495246
 11
379.671963885797
 21
-163.761996495246
  0
LINE
  5
672
100
AcDbEntity
  8
0
100
AcDbLine
  6
BYLAYER
 10
376.671963885798
 20
-165.361996495246
 11
546.671963885797
 21
-165.361996495246
  0
LINE
  5
673
100
AcDbEntity
  8
BASE
100
AcDbLine
  6
BYLAYER
 10
376.671963885798
 20
-163.761996495246
 11
376.671963885798
 21
-165.361996495246
  0
LINE
  5
674
100
AcDbEntity
  8
BASE
100
AcDbLine
  6
BYLAYER
 10
546.671963885797
 20
-163.761996495246
 11
546.671963885797
 21
-165.361996495246
  0
LINE
  5
675
100
AcDbEntity
  8
0
100
AcDbLine
  6
BYLAYER
 10
543.671963885797
 20
-256.961996495246
 11
546.671963885797
 21
-256.961996495246
  0
LINE
  5
676
100
AcDbEntity
  8
0
100
AcDbLine
  6
BYLAYER
 10
543.671963885797
 20
-163.761996495246
 11
546.671963885797
 21
-163.761996495246
  0
LINE
  5
677
100
AcDbEntity
  8
DIM
100
AcDbLine
  6
BYLAYER
 62
0
370
  -2
 10
523.421963885797
 20
-269.361996495246
 11
560.523928315269
 21
-269.361996495246
  0
LINE
  5
678
100
AcDbEntity
  8
DIM
100
AcDbLine
  6
BYLAYER
 62
0
370
  -2
 10
523.421963885797
 20
-151.361996495246
 11
560.52392831527
 21
-151.361996495246
  0
LINE
  5
679
100
AcDbEntity
  8
DIM
100
AcDbLine
  6
BYLAYER
 62
0
370
  -2
 10
557.023928315269
 20
-260.961996495246
 11
557.02392831527
 21
-227.161996495246
  0
LINE
  5
67A
100
AcDbEntity
  8
DIM
100
AcDbLine
  6
BYLAYER
 62
0
370
  -2
 10
557.02392831527
 20
-159.761996495246
 11
557.02392831527
 21
-193.561996495246
  0
SOLID
  5
67B
100
AcDbEntity
  8
DIM
100
AcDbTrace
 10
557.023928315269
 20
-269.361996495246
 30
0.0
 11
558.423928315269
 21
-260.961996495246
 31
0.0
 12
555.623928315269
 22
-260.961996495246
 32
0.0
 13
555.623928315269
 23
-260.961996495246
 33
0.0
  0
SOLID
  5
67C
100
AcDbEntity
  8
DIM
100
AcDbTrace
 10
555.623928315269
 20
-159.761996495246
 30
0.0
 11
558.423928315269
 21
-159.761996495246
 31
0.0
 12
557.02392831527
 22
-151.361996495246
 32
0.0
 13
557.02392831527
 23
-151.361996495246
 33
0.0
  0
TEXT
  5
67D
100
AcDbEntity
  8
DIM
 62
0
100
AcDbText
  6
BYLAYER
 62
0
 10
562.62392831527
 20
-218.761996495246
 40
11.2
  1
118
  7
Font_0
 50
90
 72
1
 11
557.02392831527
 21
-210.361996495246
100
AcDbText
 73
2
  0
LINE
  5
67E
100
AcDbEntity
  8
DIM
100
AcDbLine
  6
BYLAYER
 62
0
370
  -2
 10
521.671963885797
 20
-271.111996495246
 11
521.671963885797
 21
-300.895947796255
  0
LINE
  5
67F
100
AcDbEntity
  8
DIM
100
AcDbLine
  6
BYLAYER
 62
0
370
  -2
 10
401.671963885797
 20
-271.111996495246
 11
401.671963885797
 21
-300.895947796255
  0
LINE
  5
680
100
AcDbEntity
  8
DIM
100
AcDbLine
  6
BYLAYER
 62
0
370
  -2
 10
513.271963885797
 20
-297.395947796255
 11
479.405297219131
 21
-297.395947796255
  0
LINE
  5
681
100
AcDbEntity
  8
DIM
100
AcDbLine
  6
BYLAYER
 62
0
370
  -2
 10
410.071963885797
 20
-297.395947796255
 11
443.938630552464
 21
-297.395947796255
  0
SOLID
  5
682
100
AcDbEntity
  8
DIM
100
AcDbTrace
 10
513.271963885797
 20
-295.995947796255
 30
0.0
 11
513.271963885797
 21
-298.795947796255
 31
0.0
 12
521.671963885797
 22
-297.395947796255
 32
0.0
 13
521.671963885797
 23
-297.395947796255
 33
0.0
  0
SOLID
  5
683
100
AcDbEntity
  8
DIM
100
AcDbTrace
 10
401.671963885797
 20
-297.395947796255
 30
0.0
 11
410.071963885797
 21
-298.795947796255
 31
0.0
 12
410.071963885797
 22
-295.995947796255
 32
0.0
 13
410.071963885797
 23
-295.995947796255
 33
0.0
  0
TEXT
  5
684
100
AcDbEntity
  8
DIM
 62
0
100
AcDbText
  6
BYLAYER
 62
0
 10
453.271963885797
 20
-302.995947796255
 40
11.2
  1
120
  7
Font_0
 72
1
 11
461.671963885797
 21
-297.395947796255
100
AcDbText
 73
2
  0
LINE
  5
685
100
AcDbEntity
  8
DIM
100
AcDbLine
  6
BYLAYER
 62
0
370
  -2
 10
503.530496093378
 20
-182.962522560409
 11
511.930496093378
 21
-182.962522560409
  0
LINE
  5
686
100
AcDbEntity
  8
DIM
100
AcDbLine
  6
BYLAYER
 62
0
370
  -2
 10
511.930496093378
 20
-182.962522560409
 11
517.945408096199
 21
-163.450639179477
  0
TEXT
  5
687
100
AcDbEntity
  8
DIM
 62
0
100
AcDbText
  6
BYLAYER
 62
0
 10
450.330496093378
 20
-188.562522560409
 40
11.2
  1
4-φ8.5
  7
Font_0
 72
1
 11
469.930496093378
 21
-182.962522560409
100
AcDbText
 73
2
  0
SOLID
  5
688
100
AcDbEntity
  8
DIM
100
AcDbTrace
 10
516.607534597548
 20
-163.038214032802
 30
0.0
 11
519.283281594849
 21
-163.863064326152
 31
0.0
 12
520.419958976248
 22
-155.423398187577
 32
0.0
 13
520.419958976248
 23
-155.423398187577
 33
0.0
  0
CIRCLE
  5
689
100
AcDbEntity
  8
0
100
AcDbCircle
  6
BYLAYER
 10
461.671963885798
 20
107.034152267866
 40
7
  0
CIRCLE
  5
68A
100
AcDbEntity
  8
0
100
AcDbCircle
  6
BYLAYER
 10
461.671963885798
 20
107.034152267866
 40
15
  0
CIRCLE
  5
68B
100
AcDbEntity
  8
0
100
AcDbCircle
  6
BYLAYER
 10
461.671963885798
 20
107.034152267866
 40
54
  0
LWPOLYLINE
  5
68C
100
AcDbEntity
  8
0
100
AcDbPolyline
  6
BYLAYER
 90
     73
 10
384.724950891628
  20
75.480570795616
 10
383.808879377258
  20
80.7750734204115
 10
382.92409777489
  20
86.1797928057608
 10
382.123966187742
  20
91.6785515146994
 10
381.461844719028
  20
97.255172110263
 10
380.991093471965
  20
102.893477155487
 10
380.765072549771
  20
108.577289213407
 10
380.837142055659
  20
114.290430847059
 10
381.260662092848
  20
120.016724619478
 10
382.088992764553
  20
125.739993093701
 10
383.364033109734
  20
131.44202322089
 10
385.081837910321
  20
137.096459504724
 10
387.22700088399
  20
142.674910837008
 10
389.784115748415
  20
148.148986109549
 10
392.73777622127
  20
153.490294214153
 10
396.072576020229
  20
158.670444042626
 10
399.773108862967
  20
163.661044486774
 10
403.823968467158
  20
168.433704438403
 10
408.209748550477
  20
172.960032789319
 10
412.912284970217
  20
177.213075383824
 10
417.902382142141
  20
181.171625876201
 10
423.148086621633
  20
184.815914873228
 10
428.617444964077
  20
188.126172981684
 10
434.278503724854
  20
191.082630808348
 10
440.099309459348
  20
193.665518959998
 10
446.047908722941
  20
195.855068043412
 10
452.092348071018
  20
197.631508665371
 10
458.20067405896
  20
198.975071432651
 10
464.343385681707
  20
199.87077884301
 10
470.500791692424
  20
200.322820958119
 10
476.655653283834
  20
200.340179730628
 10
482.790731648658
  20
199.931837113184
 10
488.888787979617
  20
199.106775058437
 10
494.932583469435
  20
197.873975519038
 10
500.904879310832
  20
196.242420447633
 10
506.78843669653
  20
194.221091796874
 10
512.566016819252
  20
191.818971519409
 10
518.218001741198
  20
189.046144903506
 10
523.715257002486
  20
185.917110579918
 10
529.026269012713
  20
182.447470515012
 10
534.119524181475
  20
178.652826675158
 10
538.963508918369
  20
174.548781026728
 10
543.526709632993
  20
170.15093553609
 10
547.777612734942
  20
165.474892169615
 10
551.684704633813
  20
160.536252893672
 10
555.216471739204
  20
155.350619674632
 10
558.34841440972
  20
149.938018238898
 10
561.08408880001
  20
144.336169353013
 10
563.434065013728
  20
138.587217543553
 10
565.408913154532
  20
132.733307337094
 10
567.019203326077
  20
126.816583260214
 10
568.275505632022
  20
120.879189839489
 10
569.188390176021
  20
114.963271601494
 10
569.768427061732
  20
109.110973072807
 10
570.026186392811
  20
103.364438780004
 10
569.974892292858
  20
97.7598313215254
 10
569.638384965244
  20
92.3093855832653
 10
569.043158633284
  20
87.019354522982
 10
568.215707520293
  20
81.8959910984337
 10
567.182525849586
  20
76.9455482673785
 10
565.970107844477
  20
72.1742789875746
 10
564.604947728282
  20
67.5884362167801
 10
563.113539724315
  20
63.1942729127533
 10
561.522378055891
  20
58.9980420332522
 10
559.857390977736
  20
55.006762326245
 10
558.142242870226
  20
51.2305157005393
 10
556.400032145147
  20
47.6801498551529
 10
554.653857214286
  20
44.3665124891035
 10
552.926816489428
  20
41.3004513014087
 10
551.242008382361
  20
38.4928139910862
 10
549.622531304872
  20
35.9544482571537
 10
548.091483668746
  20
33.6962017986289
 10
546.671963885771
  20
31.7289223145295
  0
LWPOLYLINE
  5
68D
100
AcDbEntity
  8
HIDDEN
100
AcDbPolyline
  6
BYLAYER
 90
     28
 10
546.671963885772
  20
31.7289223145303
 10
543.863934144753
  20
28.124152291229
 10
540.85815140239
  20
24.5667529090574
 10
537.681599372294
  20
21.081093261099
 10
534.361261768072
  20
17.6915424404372
 10
530.924122303337
  20
14.4224695401557
 10
527.397164691696
  20
11.2982436533378
 10
523.807372646761
  20
8.34323387306724
 10
520.181729882141
  20
5.58180929242743
 10
516.547220111445
  20
3.03833900450191
 10
512.926615377031
  20
0.730691380932908
 10
509.325841036239
  20
-1.34926809240264
 10
505.746610775159
  20
-3.21617465106908
 10
502.190638279878
  20
-4.88466353063077
 10
498.659637236486
  20
-6.36936996665207
 10
495.155321331071
  20
-7.68492919469735
 10
491.679404249721
  20
-8.84597645033096
 10
488.233599678525
  20
-9.86714696911725
 10
484.819621303571
  20
-10.7630759866206
 10
481.447225624283
  20
-11.5469090892282
 10
478.158340393425
  20
-12.2258332666185
 10
475.002936177097
  20
-12.805545859293
 10
472.030983541396
  20
-13.2917442077531
 10
469.292453052424
  20
-13.6901256525
 10
466.837315276278
  20
-14.0063875340352
 10
464.715540779059
  20
-14.24622719286
 10
462.977100126866
  20
-14.4153419694758
 10
461.671963885797
  20
-14.519429204384
  0
LINE
  5
68E
100
AcDbEntity
  8
HIDDEN
100
AcDbLine
  6
BYLAYER
 10
376.671963885798
 20
-14.519429204384
 11
461.67196388579
 21
-14.5194292043843
  0
ENDSEC
  0
SECTION
  2
OBJECTS
  0
DICTIONARY
  5
68F
100
AcDbDictionary
  3
ACAD_GROUP
350
690
  3
ACAD_MLINESTYLE
350
691
  0
DICTIONARY
  5
690
102
{ACAD_REACTORS
330
68F
102
}
100
AcDbDictionary
  0
DICTIONARY
  5
691
102
{ACAD_REACTORS
330
68F
102
}
100
AcDbDictionary
  3
STANDARD
350
692
  0
MLINESTYLE
  5
692
102
{ACAD_REACTORS
330
691
102
}
100
AcDbMlineStyle
  2
Standard
 70
     0
  3

 62
     0
 51
90.0
 52
90.0
 71
     2
 49
0.5
 62
   256
  6
ByLayer
 49
-0.5
 62
   256
  6
ByLayer
  0
ENDSEC
  0
EOF
