999
Outputted By AR_CAD Ver.1.6.0
  0
SECTION
  2
HEADER
  9
$ACADVER
  1
AC1014
  9
$DWGCODEPAGE
  3
ANSI_932
  9
$EXTMIN
 10
0
 20
0
  9
$EXTMAX
 10
297
 20
210
  9
$INSBASE
 10
0.0
 20
0.0
 30
0.0
  9
$HANDLING
 70
     1
  9
$HANDSEED
  5
8D8
  9
$LTSCALE
 40
1
  0
ENDSEC
  0
SECTION
  2
TABLES
  0
TABLE
  2
VPORT
  5
1
100
AcDbSymbolTable
 70
     1
  0
VPORT
  5
30
100
AcDbSymbolTableRecord
100
AcDbViewportTableRecord
  2
*ACTIVE
 70
     0
 10
0.0
 20
0.0
 11
1.0
 21
1.0
 12
210.0
 22
148.5
 13
0.0
 23
0.0
 14
10.0
 24
10.0
 15
10.0
 25
10.0
 16
0.0
 26
0.0
 36
1.0
 17
0.0
 27
0.0
 37
0.0
 40
302.94
 41
1.333333
 42
50.0
 43
0.0
 44
0.0
 50
0.0
 51
0.0
 71
     0
 72
   100
 73
     1
 74
     1
 75
     0
 76
     0
 77
     0
 78
     0
  0
ENDTAB
  0
TABLE
  2
LTYPE
  5
2
100
AcDbSymbolTable
 70
     28
  0
LTYPE
  5
31
100
AcDbSymbolTableRecord
100
AcDbLinetypeTableRecord
  2
BYBLOCK
 70
    64
 3

 72
    65
 73
    0
 40
    0
  0
LTYPE
  5
32
100
AcDbSymbolTableRecord
100
AcDbLinetypeTableRecord
  2
BYLAYER
 70
    64
 3

 72
    65
 73
    0
 40
    0
  0
LTYPE
  5
33
100
AcDbSymbolTableRecord
100
AcDbLinetypeTableRecord
  2
CONTINUOUS
 70
    64
 3
CONTINUOUS
 72
    65
 73
    0
 40
    0
  0
LTYPE
  5
34
100
AcDbSymbolTableRecord
100
AcDbLinetypeTableRecord
  2
DASHED
 70
    64
 3

 72
    65
 73
    2
 40
    3.5
 49
    2.91666666666667
 74
    0
 49
    -0.583333333333333
 74
    0
  0
LTYPE
  5
35
100
AcDbSymbolTableRecord
100
AcDbLinetypeTableRecord
  2
DOT
 70
    64
 3

 72
    65
 73
    2
 40
    0.5
 49
    0.25
 74
    0
 49
    -0.25
 74
    0
  0
LTYPE
  5
36
100
AcDbSymbolTableRecord
100
AcDbLinetypeTableRecord
  2
DASHDOT
 70
    64
 3

 72
    65
 73
    4
 40
    3.5
 49
    1.84210526315789
 74
    0
 49
    -0.552631578947368
 74
    0
 49
    0.552631578947368
 74
    0
 49
    -0.552631578947368
 74
    0
  0
LTYPE
  5
37
100
AcDbSymbolTableRecord
100
AcDbLinetypeTableRecord
  2
DIVIDE
 70
    64
 3

 72
    65
 73
    6
 40
    3.5
 49
    1.4
 74
    0
 49
    -0.42
 74
    0
 49
    0.42
 74
    0
 49
    -0.42
 74
    0
 49
    0.42
 74
    0
 49
    -0.42
 74
    0
  0
LTYPE
  5
38
100
AcDbSymbolTableRecord
100
AcDbLinetypeTableRecord
  2
HIDDEN
 70
    64
 3

 72
    65
 73
    2
 40
    9.525
 49
    6.35
 74
    0
 49
    -3.175
 74
    0
  0
LTYPE
  5
39
100
AcDbSymbolTableRecord
100
AcDbLinetypeTableRecord
  2
CENTERX2
 70
    64
 3

 72
    65
 73
    4
 40
    4
 49
    2.5
 74
    0
 49
    -0.5
 74
    0
 49
    0.5
 74
    0
 49
    -0.5
 74
    0
  0
LTYPE
  5
3A
100
AcDbSymbolTableRecord
100
AcDbLinetypeTableRecord
  2
CENTER
 70
    64
 3

 72
    65
 73
    4
 40
    50.8
 49
    31.75
 74
    0
 49
    -6.35
 74
    0
 49
    6.35
 74
    0
 49
    -6.35
 74
    0
  0
LTYPE
  5
3B
100
AcDbSymbolTableRecord
100
AcDbLinetypeTableRecord
  2
BORDER
 70
    64
 3

 72
    65
 73
    6
 40
    44.45
 49
    12.7
 74
    0
 49
    -6.35
 74
    0
 49
    12.7
 74
    0
 49
    -6.35
 74
    0
 49
    0
 74
    0
 49
    -6.35
 74
    0
  0
LTYPE
  5
3C
100
AcDbSymbolTableRecord
100
AcDbLinetypeTableRecord
  2
AM_ISO02W050
 70
    64
 3

 72
    65
 73
    2
 40
    7.5
 49
    6
 74
    0
 49
    -1.5
 74
    0
  0
LTYPE
  5
3D
100
AcDbSymbolTableRecord
100
AcDbLinetypeTableRecord
  2
AM_ISO08W050
 70
    64
 3

 72
    65
 73
    4
 40
    18
 49
    12
 74
    0
 49
    -1.5
 74
    0
 49
    3
 74
    0
 49
    -1.5
 74
    0
  0
LTYPE
  5
3E
100
AcDbSymbolTableRecord
100
AcDbLinetypeTableRecord
  2
AM_ISO09W050
 70
    64
 3

 72
    65
 73
    6
 40
    22.5
 49
    12
 74
    0
 49
    -1.5
 74
    0
 49
    3
 74
    0
 49
    -1.5
 74
    0
 49
    3
 74
    0
 49
    -1.5
 74
    0
  0
LTYPE
  5
3F
100
AcDbSymbolTableRecord
100
AcDbLinetypeTableRecord
  2
Amconstr
 70
    64
 3

 72
    65
 73
    1
 40
    9999
 49
    9999
 74
    0
  0
LTYPE
  5
40
100
AcDbSymbolTableRecord
100
AcDbLinetypeTableRecord
  2
AM_ISO08W050x2
 70
    64
 3

 72
    65
 73
    4
 40
    9
 49
    6
 74
    0
 49
    -0.75
 74
    0
 49
    1.5
 74
    0
 49
    -0.75
 74
    0
  0
LTYPE
  5
41
100
AcDbSymbolTableRecord
100
AcDbLinetypeTableRecord
  2
AM_ISO02W050x2
 70
    64
 3

 72
    65
 73
    2
 40
    3.75
 49
    3
 74
    0
 49
    -0.75
 74
    0
  0
LTYPE
  5
42
100
AcDbSymbolTableRecord
100
AcDbLinetypeTableRecord
  2
Amzigzag
 70
    64
 3

 72
    65
 73
    2
 40
    4
 49
    2
 74
    0
 49
    -2
 74
    0
  0
LTYPE
  5
43
100
AcDbSymbolTableRecord
100
AcDbLinetypeTableRecord
  2
PHANTOM2
 70
    64
 3

 72
    65
 73
    6
 40
    1.25
 49
    0.625
 74
    0
 49
    -0.125
 74
    0
 49
    0.125
 74
    0
 49
    -0.125
 74
    0
 49
    0.125
 74
    0
 49
    -0.125
 74
    0
  0
LTYPE
  5
44
100
AcDbSymbolTableRecord
100
AcDbLinetypeTableRecord
  2
CENTER2
 70
    64
 3

 72
    65
 73
    4
 40
    1.125
 49
    0.75
 74
    0
 49
    -0.125
 74
    0
 49
    0.125
 74
    0
 49
    -0.125
 74
    0
  0
LTYPE
  5
45
100
AcDbSymbolTableRecord
100
AcDbLinetypeTableRecord
  2
HIDDEN2
 70
    64
 3

 72
    65
 73
    2
 40
    0.188
 49
    0.125668449197861
 74
    0
 49
    -0.062331550802139
 74
    0
  0
LTYPE
  5
46
100
AcDbSymbolTableRecord
100
AcDbLinetypeTableRecord
  2
Amzigzag2
 70
    64
 3

 72
    65
 73
    2
 40
    4
 49
    2
 74
    0
 49
    -2
 74
    0
  0
LTYPE
  5
47
100
AcDbSymbolTableRecord
100
AcDbLinetypeTableRecord
  2
ACANSTGB
 70
    64
 3

 72
    65
 73
    6
 40
    0.354
 49
    0.157892045454545
 74
    0
 49
    -0.0392215909090909
 74
    0
 49
    0.0392215909090909
 74
    0
 49
    -0.0392215909090909
 74
    0
 49
    0.0392215909090909
 74
    0
 49
    -0.0392215909090909
 74
    0
  0
LTYPE
  5
48
100
AcDbSymbolTableRecord
100
AcDbLinetypeTableRecord
  2
ACANSTGL
 70
    64
 3

 72
    65
 73
    2
 40
    0.118
 49
    0.079
 74
    0
 49
    -0.039
 74
    0
  0
LTYPE
  5
49
100
AcDbSymbolTableRecord
100
AcDbLinetypeTableRecord
  2
BORDERX2
 70
    64
 3

 72
    65
 73
    6
 40
    3.5
 49
    1
 74
    0
 49
    -0.5
 74
    0
 49
    1
 74
    0
 49
    -0.5
 74
    0
 49
    0
 74
    0
 49
    -0.5
 74
    0
  0
LTYPE
  5
4A
100
AcDbSymbolTableRecord
100
AcDbLinetypeTableRecord
  2
BORDER2
 70
    64
 3

 72
    65
 73
    6
 40
    0.875
 49
    0.25
 74
    0
 49
    -0.125
 74
    0
 49
    0.25
 74
    0
 49
    -0.125
 74
    0
 49
    0
 74
    0
 49
    -0.125
 74
    0
  0
LTYPE
  5
4B
100
AcDbSymbolTableRecord
100
AcDbLinetypeTableRecord
  2
ACISOWELD
 70
    64
 3

 72
    65
 73
    2
 40
    2
 49
    1.33333333333333
 74
    0
 49
    -0.666666666666667
 74
    0
  0
LTYPE
  5
4C
100
AcDbSymbolTableRecord
100
AcDbLinetypeTableRecord
  2
ACISOTGB
 70
    64
 3

 72
    65
 73
    6
 40
    9
 49
    4
 74
    0
 49
    -1
 74
    0
 49
    1
 74
    0
 49
    -1
 74
    0
 49
    1
 74
    0
 49
    -1
 74
    0
  0
LTYPE
  5
4D
100
AcDbSymbolTableRecord
100
AcDbLinetypeTableRecord
  2
ACISOTGL
 70
    64
 3

 72
    65
 73
    2
 40
    3
 49
    2
 74
    0
 49
    -1
 74
    0
  0
ENDTAB
  0
TABLE
  2
LAYER
  5
3
100
AcDbSymbolTable
 70
   257
  0
LAYER
  5
4E
100
AcDbSymbolTableRecord
100
AcDbLayerTableRecord
  2
0
 70
    0
 62
7
  6
CONTINUOUS
  0
LAYER
  5
4F
100
AcDbSymbolTableRecord
100
AcDbLayerTableRecord
  2
DEFPOINTS
 70
    0
 62
7
  6
CONTINUOUS
  0
LAYER
  5
50
100
AcDbSymbolTableRecord
100
AcDbLayerTableRecord
  2
ASHADE
 70
    4
 62
7
  6
CONTINUOUS
  0
LAYER
  5
51
100
AcDbSymbolTableRecord
100
AcDbLayerTableRecord
  2
CEN
 70
    0
 62
72
  6
AM_ISO08W050
  0
LAYER
  5
52
100
AcDbSymbolTableRecord
100
AcDbLayerTableRecord
  2
DIM
 70
    0
 62
1
  6
CONTINUOUS
  0
LAYER
  5
53
100
AcDbSymbolTableRecord
100
AcDbLayerTableRecord
  2
HIDDEN
 70
    0
 62
3
  6
CONTINUOUS
  0
LAYER
  5
54
100
AcDbSymbolTableRecord
100
AcDbLayerTableRecord
  2
HATCH
 70
    0
 62
5
  6
CONTINUOUS
  0
LAYER
  5
55
100
AcDbSymbolTableRecord
100
AcDbLayerTableRecord
  2
TEXT
 70
    0
 62
250
  6
CONTINUOUS
  0
LAYER
  5
56
100
AcDbSymbolTableRecord
100
AcDbLayerTableRecord
  2
M
 70
    0
 62
6
  6
CONTINUOUS
  0
LAYER
  5
57
100
AcDbSymbolTableRecord
100
AcDbLayerTableRecord
  2
BREAK
 70
    0
 62
3
  6
AM_ISO09W050
  0
LAYER
  5
58
100
AcDbSymbolTableRecord
100
AcDbLayerTableRecord
  2
01
 70
    0
 62
3
  6
CONTINUOUS
  0
LAYER
  5
59
100
AcDbSymbolTableRecord
100
AcDbLayerTableRecord
  2
7475A
 70
    0
 62
1
  6
CONTINUOUS
  0
LAYER
  5
5A
100
AcDbSymbolTableRecord
100
AcDbLayerTableRecord
  2
BASE
 70
    0
 62
7
  6
CONTINUOUS
  0
LAYER
  5
5B
100
AcDbSymbolTableRecord
100
AcDbLayerTableRecord
  2
AME
 70
    0
 62
7
  6
CONTINUOUS
  0
LAYER
  5
5C
100
AcDbSymbolTableRecord
100
AcDbLayerTableRecord
  2
PV-230
 70
    0
 62
7
  6
CONTINUOUS
  0
LAYER
  5
5D
100
AcDbSymbolTableRecord
100
AcDbLayerTableRecord
  2
4
 70
    0
 62
4
  6
CONTINUOUS
  0
LAYER
  5
5E
100
AcDbSymbolTableRecord
100
AcDbLayerTableRecord
  2
ｸ_ｮy
 70
    0
 62
241
  6
CONTINUOUS
  0
LAYER
  5
5F
100
AcDbSymbolTableRecord
100
AcDbLayerTableRecord
  2
_Xｭｷ､f
 70
    0
 62
3
  6
CONTINUOUS
  0
LAYER
  5
60
100
AcDbSymbolTableRecord
100
AcDbLayerTableRecord
  2
ｾﾉｪO
 70
    0
 62
4
  6
CONTINUOUS
  0
LAYER
  5
61
100
AcDbSymbolTableRecord
100
AcDbLayerTableRecord
  2
__ｴﾟ
 70
    0
 62
7
  6
CONTINUOUS
  0
LAYER
  5
62
100
AcDbSymbolTableRecord
100
AcDbLayerTableRecord
  2
､Jｭｷ､f
 70
    0
 62
200
  6
CONTINUOUS
  0
LAYER
  5
63
100
AcDbSymbolTableRecord
100
AcDbLayerTableRecord
  2
ｺ�
 70
    0
 62
41
  6
CONTINUOUS
  0
LAYER
  5
64
100
AcDbSymbolTableRecord
100
AcDbLayerTableRecord
  2
ｨ茹L
 70
    0
 62
41
  6
CONTINUOUS
  0
LAYER
  5
65
100
AcDbSymbolTableRecord
100
AcDbLayerTableRecord
  2
_ｨｹF
 70
    0
 62
9
  6
CONTINUOUS
  0
LAYER
  5
66
100
AcDbSymbolTableRecord
100
AcDbLayerTableRecord
  2
画層24
 70
    0
 62
7
  6
CONTINUOUS
  0
LAYER
  5
67
100
AcDbSymbolTableRecord
100
AcDbLayerTableRecord
  2
画層25
 70
    0
 62
7
  6
CONTINUOUS
  0
LAYER
  5
68
100
AcDbSymbolTableRecord
100
AcDbLayerTableRecord
  2
画層26
 70
    0
 62
7
  6
CONTINUOUS
  0
LAYER
  5
69
100
AcDbSymbolTableRecord
100
AcDbLayerTableRecord
  2
画層27
 70
    0
 62
7
  6
CONTINUOUS
  0
LAYER
  5
6A
100
AcDbSymbolTableRecord
100
AcDbLayerTableRecord
  2
画層28
 70
    0
 62
7
  6
CONTINUOUS
  0
LAYER
  5
6B
100
AcDbSymbolTableRecord
100
AcDbLayerTableRecord
  2
画層29
 70
    0
 62
7
  6
CONTINUOUS
  0
LAYER
  5
6C
100
AcDbSymbolTableRecord
100
AcDbLayerTableRecord
  2
画層30
 70
    0
 62
7
  6
CONTINUOUS
  0
LAYER
  5
6D
100
AcDbSymbolTableRecord
100
AcDbLayerTableRecord
  2
画層31
 70
    0
 62
7
  6
CONTINUOUS
  0
LAYER
  5
6E
100
AcDbSymbolTableRecord
100
AcDbLayerTableRecord
  2
画層32
 70
    0
 62
7
  6
CONTINUOUS
  0
LAYER
  5
6F
100
AcDbSymbolTableRecord
100
AcDbLayerTableRecord
  2
画層33
 70
    0
 62
7
  6
CONTINUOUS
  0
LAYER
  5
70
100
AcDbSymbolTableRecord
100
AcDbLayerTableRecord
  2
画層34
 70
    0
 62
7
  6
CONTINUOUS
  0
LAYER
  5
71
100
AcDbSymbolTableRecord
100
AcDbLayerTableRecord
  2
画層35
 70
    0
 62
7
  6
CONTINUOUS
  0
LAYER
  5
72
100
AcDbSymbolTableRecord
100
AcDbLayerTableRecord
  2
画層36
 70
    0
 62
7
  6
CONTINUOUS
  0
LAYER
  5
73
100
AcDbSymbolTableRecord
100
AcDbLayerTableRecord
  2
画層37
 70
    0
 62
7
  6
CONTINUOUS
  0
LAYER
  5
74
100
AcDbSymbolTableRecord
100
AcDbLayerTableRecord
  2
画層38
 70
    0
 62
7
  6
CONTINUOUS
  0
LAYER
  5
75
100
AcDbSymbolTableRecord
100
AcDbLayerTableRecord
  2
画層39
 70
    0
 62
7
  6
CONTINUOUS
  0
LAYER
  5
76
100
AcDbSymbolTableRecord
100
AcDbLayerTableRecord
  2
画層40
 70
    0
 62
7
  6
CONTINUOUS
  0
LAYER
  5
77
100
AcDbSymbolTableRecord
100
AcDbLayerTableRecord
  2
画層41
 70
    0
 62
7
  6
CONTINUOUS
  0
LAYER
  5
78
100
AcDbSymbolTableRecord
100
AcDbLayerTableRecord
  2
画層42
 70
    0
 62
7
  6
CONTINUOUS
  0
LAYER
  5
79
100
AcDbSymbolTableRecord
100
AcDbLayerTableRecord
  2
画層43
 70
    0
 62
7
  6
CONTINUOUS
  0
LAYER
  5
7A
100
AcDbSymbolTableRecord
100
AcDbLayerTableRecord
  2
画層44
 70
    0
 62
7
  6
CONTINUOUS
  0
LAYER
  5
7B
100
AcDbSymbolTableRecord
100
AcDbLayerTableRecord
  2
画層45
 70
    0
 62
7
  6
CONTINUOUS
  0
LAYER
  5
7C
100
AcDbSymbolTableRecord
100
AcDbLayerTableRecord
  2
画層46
 70
    0
 62
7
  6
CONTINUOUS
  0
LAYER
  5
7D
100
AcDbSymbolTableRecord
100
AcDbLayerTableRecord
  2
画層47
 70
    0
 62
7
  6
CONTINUOUS
  0
LAYER
  5
7E
100
AcDbSymbolTableRecord
100
AcDbLayerTableRecord
  2
画層48
 70
    0
 62
7
  6
CONTINUOUS
  0
LAYER
  5
7F
100
AcDbSymbolTableRecord
100
AcDbLayerTableRecord
  2
画層49
 70
    0
 62
7
  6
CONTINUOUS
  0
LAYER
  5
80
100
AcDbSymbolTableRecord
100
AcDbLayerTableRecord
  2
画層50
 70
    0
 62
7
  6
CONTINUOUS
  0
LAYER
  5
81
100
AcDbSymbolTableRecord
100
AcDbLayerTableRecord
  2
画層51
 70
    0
 62
7
  6
CONTINUOUS
  0
LAYER
  5
82
100
AcDbSymbolTableRecord
100
AcDbLayerTableRecord
  2
画層52
 70
    0
 62
7
  6
CONTINUOUS
  0
LAYER
  5
83
100
AcDbSymbolTableRecord
100
AcDbLayerTableRecord
  2
画層53
 70
    0
 62
7
  6
CONTINUOUS
  0
LAYER
  5
84
100
AcDbSymbolTableRecord
100
AcDbLayerTableRecord
  2
画層54
 70
    0
 62
7
  6
CONTINUOUS
  0
LAYER
  5
85
100
AcDbSymbolTableRecord
100
AcDbLayerTableRecord
  2
画層55
 70
    0
 62
7
  6
CONTINUOUS
  0
LAYER
  5
86
100
AcDbSymbolTableRecord
100
AcDbLayerTableRecord
  2
画層56
 70
    0
 62
7
  6
CONTINUOUS
  0
LAYER
  5
87
100
AcDbSymbolTableRecord
100
AcDbLayerTableRecord
  2
画層57
 70
    0
 62
7
  6
CONTINUOUS
  0
LAYER
  5
88
100
AcDbSymbolTableRecord
100
AcDbLayerTableRecord
  2
画層58
 70
    0
 62
7
  6
CONTINUOUS
  0
LAYER
  5
89
100
AcDbSymbolTableRecord
100
AcDbLayerTableRecord
  2
画層59
 70
    0
 62
7
  6
CONTINUOUS
  0
LAYER
  5
8A
100
AcDbSymbolTableRecord
100
AcDbLayerTableRecord
  2
画層60
 70
    0
 62
7
  6
CONTINUOUS
  0
LAYER
  5
8B
100
AcDbSymbolTableRecord
100
AcDbLayerTableRecord
  2
画層61
 70
    0
 62
7
  6
CONTINUOUS
  0
LAYER
  5
8C
100
AcDbSymbolTableRecord
100
AcDbLayerTableRecord
  2
画層62
 70
    0
 62
7
  6
CONTINUOUS
  0
LAYER
  5
8D
100
AcDbSymbolTableRecord
100
AcDbLayerTableRecord
  2
画層63
 70
    0
 62
7
  6
CONTINUOUS
  0
LAYER
  5
8E
100
AcDbSymbolTableRecord
100
AcDbLayerTableRecord
  2
画層64
 70
    0
 62
7
  6
CONTINUOUS
  0
LAYER
  5
8F
100
AcDbSymbolTableRecord
100
AcDbLayerTableRecord
  2
画層65
 70
    0
 62
7
  6
CONTINUOUS
  0
LAYER
  5
90
100
AcDbSymbolTableRecord
100
AcDbLayerTableRecord
  2
画層66
 70
    0
 62
7
  6
CONTINUOUS
  0
LAYER
  5
91
100
AcDbSymbolTableRecord
100
AcDbLayerTableRecord
  2
画層67
 70
    0
 62
7
  6
CONTINUOUS
  0
LAYER
  5
92
100
AcDbSymbolTableRecord
100
AcDbLayerTableRecord
  2
画層68
 70
    0
 62
7
  6
CONTINUOUS
  0
LAYER
  5
93
100
AcDbSymbolTableRecord
100
AcDbLayerTableRecord
  2
画層69
 70
    0
 62
7
  6
CONTINUOUS
  0
LAYER
  5
94
100
AcDbSymbolTableRecord
100
AcDbLayerTableRecord
  2
画層70
 70
    0
 62
7
  6
CONTINUOUS
  0
LAYER
  5
95
100
AcDbSymbolTableRecord
100
AcDbLayerTableRecord
  2
画層71
 70
    0
 62
7
  6
CONTINUOUS
  0
LAYER
  5
96
100
AcDbSymbolTableRecord
100
AcDbLayerTableRecord
  2
画層72
 70
    0
 62
7
  6
CONTINUOUS
  0
LAYER
  5
97
100
AcDbSymbolTableRecord
100
AcDbLayerTableRecord
  2
画層73
 70
    0
 62
7
  6
CONTINUOUS
  0
LAYER
  5
98
100
AcDbSymbolTableRecord
100
AcDbLayerTableRecord
  2
画層74
 70
    0
 62
7
  6
CONTINUOUS
  0
LAYER
  5
99
100
AcDbSymbolTableRecord
100
AcDbLayerTableRecord
  2
画層75
 70
    0
 62
7
  6
CONTINUOUS
  0
LAYER
  5
9A
100
AcDbSymbolTableRecord
100
AcDbLayerTableRecord
  2
画層76
 70
    0
 62
7
  6
CONTINUOUS
  0
LAYER
  5
9B
100
AcDbSymbolTableRecord
100
AcDbLayerTableRecord
  2
画層77
 70
    0
 62
7
  6
CONTINUOUS
  0
LAYER
  5
9C
100
AcDbSymbolTableRecord
100
AcDbLayerTableRecord
  2
画層78
 70
    0
 62
7
  6
CONTINUOUS
  0
LAYER
  5
9D
100
AcDbSymbolTableRecord
100
AcDbLayerTableRecord
  2
画層79
 70
    0
 62
7
  6
CONTINUOUS
  0
LAYER
  5
9E
100
AcDbSymbolTableRecord
100
AcDbLayerTableRecord
  2
画層80
 70
    0
 62
7
  6
CONTINUOUS
  0
LAYER
  5
9F
100
AcDbSymbolTableRecord
100
AcDbLayerTableRecord
  2
画層81
 70
    0
 62
7
  6
CONTINUOUS
  0
LAYER
  5
A0
100
AcDbSymbolTableRecord
100
AcDbLayerTableRecord
  2
画層82
 70
    0
 62
7
  6
CONTINUOUS
  0
LAYER
  5
A1
100
AcDbSymbolTableRecord
100
AcDbLayerTableRecord
  2
画層83
 70
    0
 62
7
  6
CONTINUOUS
  0
LAYER
  5
A2
100
AcDbSymbolTableRecord
100
AcDbLayerTableRecord
  2
画層84
 70
    0
 62
7
  6
CONTINUOUS
  0
LAYER
  5
A3
100
AcDbSymbolTableRecord
100
AcDbLayerTableRecord
  2
画層85
 70
    0
 62
7
  6
CONTINUOUS
  0
LAYER
  5
A4
100
AcDbSymbolTableRecord
100
AcDbLayerTableRecord
  2
画層86
 70
    0
 62
7
  6
CONTINUOUS
  0
LAYER
  5
A5
100
AcDbSymbolTableRecord
100
AcDbLayerTableRecord
  2
画層87
 70
    0
 62
7
  6
CONTINUOUS
  0
LAYER
  5
A6
100
AcDbSymbolTableRecord
100
AcDbLayerTableRecord
  2
画層88
 70
    0
 62
7
  6
CONTINUOUS
  0
LAYER
  5
A7
100
AcDbSymbolTableRecord
100
AcDbLayerTableRecord
  2
画層89
 70
    0
 62
7
  6
CONTINUOUS
  0
LAYER
  5
A8
100
AcDbSymbolTableRecord
100
AcDbLayerTableRecord
  2
画層90
 70
    0
 62
7
  6
CONTINUOUS
  0
LAYER
  5
A9
100
AcDbSymbolTableRecord
100
AcDbLayerTableRecord
  2
画層91
 70
    0
 62
7
  6
CONTINUOUS
  0
LAYER
  5
AA
100
AcDbSymbolTableRecord
100
AcDbLayerTableRecord
  2
画層92
 70
    0
 62
7
  6
CONTINUOUS
  0
LAYER
  5
AB
100
AcDbSymbolTableRecord
100
AcDbLayerTableRecord
  2
画層93
 70
    0
 62
7
  6
CONTINUOUS
  0
LAYER
  5
AC
100
AcDbSymbolTableRecord
100
AcDbLayerTableRecord
  2
画層94
 70
    0
 62
7
  6
CONTINUOUS
  0
LAYER
  5
AD
100
AcDbSymbolTableRecord
100
AcDbLayerTableRecord
  2
画層95
 70
    0
 62
7
  6
CONTINUOUS
  0
LAYER
  5
AE
100
AcDbSymbolTableRecord
100
AcDbLayerTableRecord
  2
画層96
 70
    0
 62
7
  6
CONTINUOUS
  0
LAYER
  5
AF
100
AcDbSymbolTableRecord
100
AcDbLayerTableRecord
  2
画層97
 70
    0
 62
7
  6
CONTINUOUS
  0
LAYER
  5
B0
100
AcDbSymbolTableRecord
100
AcDbLayerTableRecord
  2
画層98
 70
    0
 62
7
  6
CONTINUOUS
  0
LAYER
  5
B1
100
AcDbSymbolTableRecord
100
AcDbLayerTableRecord
  2
画層99
 70
    0
 62
7
  6
CONTINUOUS
  0
LAYER
  5
B2
100
AcDbSymbolTableRecord
100
AcDbLayerTableRecord
  2
画層100
 70
    0
 62
7
  6
CONTINUOUS
  0
LAYER
  5
B3
100
AcDbSymbolTableRecord
100
AcDbLayerTableRecord
  2
画層101
 70
    0
 62
7
  6
CONTINUOUS
  0
LAYER
  5
B4
100
AcDbSymbolTableRecord
100
AcDbLayerTableRecord
  2
画層102
 70
    0
 62
7
  6
CONTINUOUS
  0
LAYER
  5
B5
100
AcDbSymbolTableRecord
100
AcDbLayerTableRecord
  2
画層103
 70
    0
 62
7
  6
CONTINUOUS
  0
LAYER
  5
B6
100
AcDbSymbolTableRecord
100
AcDbLayerTableRecord
  2
画層104
 70
    0
 62
7
  6
CONTINUOUS
  0
LAYER
  5
B7
100
AcDbSymbolTableRecord
100
AcDbLayerTableRecord
  2
画層105
 70
    0
 62
7
  6
CONTINUOUS
  0
LAYER
  5
B8
100
AcDbSymbolTableRecord
100
AcDbLayerTableRecord
  2
画層106
 70
    0
 62
7
  6
CONTINUOUS
  0
LAYER
  5
B9
100
AcDbSymbolTableRecord
100
AcDbLayerTableRecord
  2
画層107
 70
    0
 62
7
  6
CONTINUOUS
  0
LAYER
  5
BA
100
AcDbSymbolTableRecord
100
AcDbLayerTableRecord
  2
画層108
 70
    0
 62
7
  6
CONTINUOUS
  0
LAYER
  5
BB
100
AcDbSymbolTableRecord
100
AcDbLayerTableRecord
  2
画層109
 70
    0
 62
7
  6
CONTINUOUS
  0
LAYER
  5
BC
100
AcDbSymbolTableRecord
100
AcDbLayerTableRecord
  2
画層110
 70
    0
 62
7
  6
CONTINUOUS
  0
LAYER
  5
BD
100
AcDbSymbolTableRecord
100
AcDbLayerTableRecord
  2
画層111
 70
    0
 62
7
  6
CONTINUOUS
  0
LAYER
  5
BE
100
AcDbSymbolTableRecord
100
AcDbLayerTableRecord
  2
画層112
 70
    0
 62
7
  6
CONTINUOUS
  0
LAYER
  5
BF
100
AcDbSymbolTableRecord
100
AcDbLayerTableRecord
  2
画層113
 70
    0
 62
7
  6
CONTINUOUS
  0
LAYER
  5
C0
100
AcDbSymbolTableRecord
100
AcDbLayerTableRecord
  2
画層114
 70
    0
 62
7
  6
CONTINUOUS
  0
LAYER
  5
C1
100
AcDbSymbolTableRecord
100
AcDbLayerTableRecord
  2
画層115
 70
    0
 62
7
  6
CONTINUOUS
  0
LAYER
  5
C2
100
AcDbSymbolTableRecord
100
AcDbLayerTableRecord
  2
画層116
 70
    0
 62
7
  6
CONTINUOUS
  0
LAYER
  5
C3
100
AcDbSymbolTableRecord
100
AcDbLayerTableRecord
  2
画層117
 70
    0
 62
7
  6
CONTINUOUS
  0
LAYER
  5
C4
100
AcDbSymbolTableRecord
100
AcDbLayerTableRecord
  2
画層118
 70
    0
 62
7
  6
CONTINUOUS
  0
LAYER
  5
C5
100
AcDbSymbolTableRecord
100
AcDbLayerTableRecord
  2
画層119
 70
    0
 62
7
  6
CONTINUOUS
  0
LAYER
  5
C6
100
AcDbSymbolTableRecord
100
AcDbLayerTableRecord
  2
画層120
 70
    0
 62
7
  6
CONTINUOUS
  0
LAYER
  5
C7
100
AcDbSymbolTableRecord
100
AcDbLayerTableRecord
  2
画層121
 70
    0
 62
7
  6
CONTINUOUS
  0
LAYER
  5
C8
100
AcDbSymbolTableRecord
100
AcDbLayerTableRecord
  2
画層122
 70
    0
 62
7
  6
CONTINUOUS
  0
LAYER
  5
C9
100
AcDbSymbolTableRecord
100
AcDbLayerTableRecord
  2
画層123
 70
    0
 62
7
  6
CONTINUOUS
  0
LAYER
  5
CA
100
AcDbSymbolTableRecord
100
AcDbLayerTableRecord
  2
画層124
 70
    0
 62
7
  6
CONTINUOUS
  0
LAYER
  5
CB
100
AcDbSymbolTableRecord
100
AcDbLayerTableRecord
  2
画層125
 70
    0
 62
7
  6
CONTINUOUS
  0
LAYER
  5
CC
100
AcDbSymbolTableRecord
100
AcDbLayerTableRecord
  2
画層126
 70
    0
 62
7
  6
CONTINUOUS
  0
LAYER
  5
CD
100
AcDbSymbolTableRecord
100
AcDbLayerTableRecord
  2
画層127
 70
    0
 62
7
  6
CONTINUOUS
  0
LAYER
  5
CE
100
AcDbSymbolTableRecord
100
AcDbLayerTableRecord
  2
画層128
 70
    0
 62
7
  6
CONTINUOUS
  0
LAYER
  5
CF
100
AcDbSymbolTableRecord
100
AcDbLayerTableRecord
  2
画層129
 70
    0
 62
7
  6
CONTINUOUS
  0
LAYER
  5
D0
100
AcDbSymbolTableRecord
100
AcDbLayerTableRecord
  2
画層130
 70
    0
 62
7
  6
CONTINUOUS
  0
LAYER
  5
D1
100
AcDbSymbolTableRecord
100
AcDbLayerTableRecord
  2
画層131
 70
    0
 62
7
  6
CONTINUOUS
  0
LAYER
  5
D2
100
AcDbSymbolTableRecord
100
AcDbLayerTableRecord
  2
画層132
 70
    0
 62
7
  6
CONTINUOUS
  0
LAYER
  5
D3
100
AcDbSymbolTableRecord
100
AcDbLayerTableRecord
  2
画層133
 70
    0
 62
7
  6
CONTINUOUS
  0
LAYER
  5
D4
100
AcDbSymbolTableRecord
100
AcDbLayerTableRecord
  2
画層134
 70
    0
 62
7
  6
CONTINUOUS
  0
LAYER
  5
D5
100
AcDbSymbolTableRecord
100
AcDbLayerTableRecord
  2
画層135
 70
    0
 62
7
  6
CONTINUOUS
  0
LAYER
  5
D6
100
AcDbSymbolTableRecord
100
AcDbLayerTableRecord
  2
画層136
 70
    0
 62
7
  6
CONTINUOUS
  0
LAYER
  5
D7
100
AcDbSymbolTableRecord
100
AcDbLayerTableRecord
  2
画層137
 70
    0
 62
7
  6
CONTINUOUS
  0
LAYER
  5
D8
100
AcDbSymbolTableRecord
100
AcDbLayerTableRecord
  2
画層138
 70
    0
 62
7
  6
CONTINUOUS
  0
LAYER
  5
D9
100
AcDbSymbolTableRecord
100
AcDbLayerTableRecord
  2
画層139
 70
    0
 62
7
  6
CONTINUOUS
  0
LAYER
  5
DA
100
AcDbSymbolTableRecord
100
AcDbLayerTableRecord
  2
画層140
 70
    0
 62
7
  6
CONTINUOUS
  0
LAYER
  5
DB
100
AcDbSymbolTableRecord
100
AcDbLayerTableRecord
  2
画層141
 70
    0
 62
7
  6
CONTINUOUS
  0
LAYER
  5
DC
100
AcDbSymbolTableRecord
100
AcDbLayerTableRecord
  2
画層142
 70
    0
 62
7
  6
CONTINUOUS
  0
LAYER
  5
DD
100
AcDbSymbolTableRecord
100
AcDbLayerTableRecord
  2
画層143
 70
    0
 62
7
  6
CONTINUOUS
  0
LAYER
  5
DE
100
AcDbSymbolTableRecord
100
AcDbLayerTableRecord
  2
画層144
 70
    0
 62
7
  6
CONTINUOUS
  0
LAYER
  5
DF
100
AcDbSymbolTableRecord
100
AcDbLayerTableRecord
  2
画層145
 70
    0
 62
7
  6
CONTINUOUS
  0
LAYER
  5
E0
100
AcDbSymbolTableRecord
100
AcDbLayerTableRecord
  2
画層146
 70
    0
 62
7
  6
CONTINUOUS
  0
LAYER
  5
E1
100
AcDbSymbolTableRecord
100
AcDbLayerTableRecord
  2
画層147
 70
    0
 62
7
  6
CONTINUOUS
  0
LAYER
  5
E2
100
AcDbSymbolTableRecord
100
AcDbLayerTableRecord
  2
画層148
 70
    0
 62
7
  6
CONTINUOUS
  0
LAYER
  5
E3
100
AcDbSymbolTableRecord
100
AcDbLayerTableRecord
  2
画層149
 70
    0
 62
7
  6
CONTINUOUS
  0
LAYER
  5
E4
100
AcDbSymbolTableRecord
100
AcDbLayerTableRecord
  2
画層150
 70
    0
 62
7
  6
CONTINUOUS
  0
LAYER
  5
E5
100
AcDbSymbolTableRecord
100
AcDbLayerTableRecord
  2
画層151
 70
    0
 62
7
  6
CONTINUOUS
  0
LAYER
  5
E6
100
AcDbSymbolTableRecord
100
AcDbLayerTableRecord
  2
画層152
 70
    0
 62
7
  6
CONTINUOUS
  0
LAYER
  5
E7
100
AcDbSymbolTableRecord
100
AcDbLayerTableRecord
  2
画層153
 70
    0
 62
7
  6
CONTINUOUS
  0
LAYER
  5
E8
100
AcDbSymbolTableRecord
100
AcDbLayerTableRecord
  2
画層154
 70
    0
 62
7
  6
CONTINUOUS
  0
LAYER
  5
E9
100
AcDbSymbolTableRecord
100
AcDbLayerTableRecord
  2
画層155
 70
    0
 62
7
  6
CONTINUOUS
  0
LAYER
  5
EA
100
AcDbSymbolTableRecord
100
AcDbLayerTableRecord
  2
画層156
 70
    0
 62
7
  6
CONTINUOUS
  0
LAYER
  5
EB
100
AcDbSymbolTableRecord
100
AcDbLayerTableRecord
  2
画層157
 70
    0
 62
7
  6
CONTINUOUS
  0
LAYER
  5
EC
100
AcDbSymbolTableRecord
100
AcDbLayerTableRecord
  2
画層158
 70
    0
 62
7
  6
CONTINUOUS
  0
LAYER
  5
ED
100
AcDbSymbolTableRecord
100
AcDbLayerTableRecord
  2
画層159
 70
    0
 62
7
  6
CONTINUOUS
  0
LAYER
  5
EE
100
AcDbSymbolTableRecord
100
AcDbLayerTableRecord
  2
画層160
 70
    0
 62
7
  6
CONTINUOUS
  0
LAYER
  5
EF
100
AcDbSymbolTableRecord
100
AcDbLayerTableRecord
  2
画層161
 70
    0
 62
7
  6
CONTINUOUS
  0
LAYER
  5
F0
100
AcDbSymbolTableRecord
100
AcDbLayerTableRecord
  2
画層162
 70
    0
 62
7
  6
CONTINUOUS
  0
LAYER
  5
F1
100
AcDbSymbolTableRecord
100
AcDbLayerTableRecord
  2
画層163
 70
    0
 62
7
  6
CONTINUOUS
  0
LAYER
  5
F2
100
AcDbSymbolTableRecord
100
AcDbLayerTableRecord
  2
画層164
 70
    0
 62
7
  6
CONTINUOUS
  0
LAYER
  5
F3
100
AcDbSymbolTableRecord
100
AcDbLayerTableRecord
  2
画層165
 70
    0
 62
7
  6
CONTINUOUS
  0
LAYER
  5
F4
100
AcDbSymbolTableRecord
100
AcDbLayerTableRecord
  2
画層166
 70
    0
 62
7
  6
CONTINUOUS
  0
LAYER
  5
F5
100
AcDbSymbolTableRecord
100
AcDbLayerTableRecord
  2
画層167
 70
    0
 62
7
  6
CONTINUOUS
  0
LAYER
  5
F6
100
AcDbSymbolTableRecord
100
AcDbLayerTableRecord
  2
画層168
 70
    0
 62
7
  6
CONTINUOUS
  0
LAYER
  5
F7
100
AcDbSymbolTableRecord
100
AcDbLayerTableRecord
  2
画層169
 70
    0
 62
7
  6
CONTINUOUS
  0
LAYER
  5
F8
100
AcDbSymbolTableRecord
100
AcDbLayerTableRecord
  2
画層170
 70
    0
 62
7
  6
CONTINUOUS
  0
LAYER
  5
F9
100
AcDbSymbolTableRecord
100
AcDbLayerTableRecord
  2
画層171
 70
    0
 62
7
  6
CONTINUOUS
  0
LAYER
  5
FA
100
AcDbSymbolTableRecord
100
AcDbLayerTableRecord
  2
画層172
 70
    0
 62
7
  6
CONTINUOUS
  0
LAYER
  5
FB
100
AcDbSymbolTableRecord
100
AcDbLayerTableRecord
  2
画層173
 70
    0
 62
7
  6
CONTINUOUS
  0
LAYER
  5
FC
100
AcDbSymbolTableRecord
100
AcDbLayerTableRecord
  2
画層174
 70
    0
 62
7
  6
CONTINUOUS
  0
LAYER
  5
FD
100
AcDbSymbolTableRecord
100
AcDbLayerTableRecord
  2
画層175
 70
    0
 62
7
  6
CONTINUOUS
  0
LAYER
  5
FE
100
AcDbSymbolTableRecord
100
AcDbLayerTableRecord
  2
画層176
 70
    0
 62
7
  6
CONTINUOUS
  0
LAYER
  5
FF
100
AcDbSymbolTableRecord
100
AcDbLayerTableRecord
  2
画層177
 70
    0
 62
7
  6
CONTINUOUS
  0
LAYER
  5
100
100
AcDbSymbolTableRecord
100
AcDbLayerTableRecord
  2
画層178
 70
    0
 62
7
  6
CONTINUOUS
  0
LAYER
  5
101
100
AcDbSymbolTableRecord
100
AcDbLayerTableRecord
  2
画層179
 70
    0
 62
7
  6
CONTINUOUS
  0
LAYER
  5
102
100
AcDbSymbolTableRecord
100
AcDbLayerTableRecord
  2
画層180
 70
    0
 62
7
  6
CONTINUOUS
  0
LAYER
  5
103
100
AcDbSymbolTableRecord
100
AcDbLayerTableRecord
  2
画層181
 70
    0
 62
7
  6
CONTINUOUS
  0
LAYER
  5
104
100
AcDbSymbolTableRecord
100
AcDbLayerTableRecord
  2
画層182
 70
    0
 62
7
  6
CONTINUOUS
  0
LAYER
  5
105
100
AcDbSymbolTableRecord
100
AcDbLayerTableRecord
  2
画層183
 70
    0
 62
7
  6
CONTINUOUS
  0
LAYER
  5
106
100
AcDbSymbolTableRecord
100
AcDbLayerTableRecord
  2
画層184
 70
    0
 62
7
  6
CONTINUOUS
  0
LAYER
  5
107
100
AcDbSymbolTableRecord
100
AcDbLayerTableRecord
  2
画層185
 70
    0
 62
7
  6
CONTINUOUS
  0
LAYER
  5
108
100
AcDbSymbolTableRecord
100
AcDbLayerTableRecord
  2
画層186
 70
    0
 62
7
  6
CONTINUOUS
  0
LAYER
  5
109
100
AcDbSymbolTableRecord
100
AcDbLayerTableRecord
  2
画層187
 70
    0
 62
7
  6
CONTINUOUS
  0
LAYER
  5
10A
100
AcDbSymbolTableRecord
100
AcDbLayerTableRecord
  2
画層188
 70
    0
 62
7
  6
CONTINUOUS
  0
LAYER
  5
10B
100
AcDbSymbolTableRecord
100
AcDbLayerTableRecord
  2
画層189
 70
    0
 62
7
  6
CONTINUOUS
  0
LAYER
  5
10C
100
AcDbSymbolTableRecord
100
AcDbLayerTableRecord
  2
画層190
 70
    0
 62
7
  6
CONTINUOUS
  0
LAYER
  5
10D
100
AcDbSymbolTableRecord
100
AcDbLayerTableRecord
  2
画層191
 70
    0
 62
7
  6
CONTINUOUS
  0
LAYER
  5
10E
100
AcDbSymbolTableRecord
100
AcDbLayerTableRecord
  2
画層192
 70
    0
 62
7
  6
CONTINUOUS
  0
LAYER
  5
10F
100
AcDbSymbolTableRecord
100
AcDbLayerTableRecord
  2
画層193
 70
    0
 62
7
  6
CONTINUOUS
  0
LAYER
  5
110
100
AcDbSymbolTableRecord
100
AcDbLayerTableRecord
  2
画層194
 70
    0
 62
7
  6
CONTINUOUS
  0
LAYER
  5
111
100
AcDbSymbolTableRecord
100
AcDbLayerTableRecord
  2
画層195
 70
    0
 62
7
  6
CONTINUOUS
  0
LAYER
  5
112
100
AcDbSymbolTableRecord
100
AcDbLayerTableRecord
  2
画層196
 70
    0
 62
7
  6
CONTINUOUS
  0
LAYER
  5
113
100
AcDbSymbolTableRecord
100
AcDbLayerTableRecord
  2
画層197
 70
    0
 62
7
  6
CONTINUOUS
  0
LAYER
  5
114
100
AcDbSymbolTableRecord
100
AcDbLayerTableRecord
  2
画層198
 70
    0
 62
7
  6
CONTINUOUS
  0
LAYER
  5
115
100
AcDbSymbolTableRecord
100
AcDbLayerTableRecord
  2
画層199
 70
    0
 62
7
  6
CONTINUOUS
  0
LAYER
  5
116
100
AcDbSymbolTableRecord
100
AcDbLayerTableRecord
  2
画層200
 70
    0
 62
7
  6
CONTINUOUS
  0
LAYER
  5
117
100
AcDbSymbolTableRecord
100
AcDbLayerTableRecord
  2
画層201
 70
    0
 62
7
  6
CONTINUOUS
  0
LAYER
  5
118
100
AcDbSymbolTableRecord
100
AcDbLayerTableRecord
  2
画層202
 70
    0
 62
7
  6
CONTINUOUS
  0
LAYER
  5
119
100
AcDbSymbolTableRecord
100
AcDbLayerTableRecord
  2
画層203
 70
    0
 62
7
  6
CONTINUOUS
  0
LAYER
  5
11A
100
AcDbSymbolTableRecord
100
AcDbLayerTableRecord
  2
画層204
 70
    0
 62
7
  6
CONTINUOUS
  0
LAYER
  5
11B
100
AcDbSymbolTableRecord
100
AcDbLayerTableRecord
  2
画層205
 70
    0
 62
7
  6
CONTINUOUS
  0
LAYER
  5
11C
100
AcDbSymbolTableRecord
100
AcDbLayerTableRecord
  2
画層206
 70
    0
 62
7
  6
CONTINUOUS
  0
LAYER
  5
11D
100
AcDbSymbolTableRecord
100
AcDbLayerTableRecord
  2
画層207
 70
    0
 62
7
  6
CONTINUOUS
  0
LAYER
  5
11E
100
AcDbSymbolTableRecord
100
AcDbLayerTableRecord
  2
画層208
 70
    0
 62
7
  6
CONTINUOUS
  0
LAYER
  5
11F
100
AcDbSymbolTableRecord
100
AcDbLayerTableRecord
  2
画層209
 70
    0
 62
7
  6
CONTINUOUS
  0
LAYER
  5
120
100
AcDbSymbolTableRecord
100
AcDbLayerTableRecord
  2
画層210
 70
    0
 62
7
  6
CONTINUOUS
  0
LAYER
  5
121
100
AcDbSymbolTableRecord
100
AcDbLayerTableRecord
  2
画層211
 70
    0
 62
7
  6
CONTINUOUS
  0
LAYER
  5
122
100
AcDbSymbolTableRecord
100
AcDbLayerTableRecord
  2
画層212
 70
    0
 62
7
  6
CONTINUOUS
  0
LAYER
  5
123
100
AcDbSymbolTableRecord
100
AcDbLayerTableRecord
  2
画層213
 70
    0
 62
7
  6
CONTINUOUS
  0
LAYER
  5
124
100
AcDbSymbolTableRecord
100
AcDbLayerTableRecord
  2
画層214
 70
    0
 62
7
  6
CONTINUOUS
  0
LAYER
  5
125
100
AcDbSymbolTableRecord
100
AcDbLayerTableRecord
  2
画層215
 70
    0
 62
7
  6
CONTINUOUS
  0
LAYER
  5
126
100
AcDbSymbolTableRecord
100
AcDbLayerTableRecord
  2
画層216
 70
    0
 62
7
  6
CONTINUOUS
  0
LAYER
  5
127
100
AcDbSymbolTableRecord
100
AcDbLayerTableRecord
  2
画層217
 70
    0
 62
7
  6
CONTINUOUS
  0
LAYER
  5
128
100
AcDbSymbolTableRecord
100
AcDbLayerTableRecord
  2
画層218
 70
    0
 62
7
  6
CONTINUOUS
  0
LAYER
  5
129
100
AcDbSymbolTableRecord
100
AcDbLayerTableRecord
  2
画層219
 70
    0
 62
7
  6
CONTINUOUS
  0
LAYER
  5
12A
100
AcDbSymbolTableRecord
100
AcDbLayerTableRecord
  2
画層220
 70
    0
 62
7
  6
CONTINUOUS
  0
LAYER
  5
12B
100
AcDbSymbolTableRecord
100
AcDbLayerTableRecord
  2
画層221
 70
    0
 62
7
  6
CONTINUOUS
  0
LAYER
  5
12C
100
AcDbSymbolTableRecord
100
AcDbLayerTableRecord
  2
画層222
 70
    0
 62
7
  6
CONTINUOUS
  0
LAYER
  5
12D
100
AcDbSymbolTableRecord
100
AcDbLayerTableRecord
  2
画層223
 70
    0
 62
7
  6
CONTINUOUS
  0
LAYER
  5
12E
100
AcDbSymbolTableRecord
100
AcDbLayerTableRecord
  2
画層224
 70
    0
 62
7
  6
CONTINUOUS
  0
LAYER
  5
12F
100
AcDbSymbolTableRecord
100
AcDbLayerTableRecord
  2
画層225
 70
    0
 62
7
  6
CONTINUOUS
  0
LAYER
  5
130
100
AcDbSymbolTableRecord
100
AcDbLayerTableRecord
  2
画層226
 70
    0
 62
7
  6
CONTINUOUS
  0
LAYER
  5
131
100
AcDbSymbolTableRecord
100
AcDbLayerTableRecord
  2
画層227
 70
    0
 62
7
  6
CONTINUOUS
  0
LAYER
  5
132
100
AcDbSymbolTableRecord
100
AcDbLayerTableRecord
  2
画層228
 70
    0
 62
7
  6
CONTINUOUS
  0
LAYER
  5
133
100
AcDbSymbolTableRecord
100
AcDbLayerTableRecord
  2
画層229
 70
    0
 62
7
  6
CONTINUOUS
  0
LAYER
  5
134
100
AcDbSymbolTableRecord
100
AcDbLayerTableRecord
  2
画層230
 70
    0
 62
7
  6
CONTINUOUS
  0
LAYER
  5
135
100
AcDbSymbolTableRecord
100
AcDbLayerTableRecord
  2
画層231
 70
    0
 62
7
  6
CONTINUOUS
  0
LAYER
  5
136
100
AcDbSymbolTableRecord
100
AcDbLayerTableRecord
  2
画層232
 70
    0
 62
7
  6
CONTINUOUS
  0
LAYER
  5
137
100
AcDbSymbolTableRecord
100
AcDbLayerTableRecord
  2
画層233
 70
    0
 62
7
  6
CONTINUOUS
  0
LAYER
  5
138
100
AcDbSymbolTableRecord
100
AcDbLayerTableRecord
  2
画層234
 70
    0
 62
7
  6
CONTINUOUS
  0
LAYER
  5
139
100
AcDbSymbolTableRecord
100
AcDbLayerTableRecord
  2
画層235
 70
    0
 62
7
  6
CONTINUOUS
  0
LAYER
  5
13A
100
AcDbSymbolTableRecord
100
AcDbLayerTableRecord
  2
画層236
 70
    0
 62
7
  6
CONTINUOUS
  0
LAYER
  5
13B
100
AcDbSymbolTableRecord
100
AcDbLayerTableRecord
  2
画層237
 70
    0
 62
7
  6
CONTINUOUS
  0
LAYER
  5
13C
100
AcDbSymbolTableRecord
100
AcDbLayerTableRecord
  2
画層238
 70
    0
 62
7
  6
CONTINUOUS
  0
LAYER
  5
13D
100
AcDbSymbolTableRecord
100
AcDbLayerTableRecord
  2
画層239
 70
    0
 62
7
  6
CONTINUOUS
  0
LAYER
  5
13E
100
AcDbSymbolTableRecord
100
AcDbLayerTableRecord
  2
画層240
 70
    0
 62
7
  6
CONTINUOUS
  0
LAYER
  5
13F
100
AcDbSymbolTableRecord
100
AcDbLayerTableRecord
  2
画層241
 70
    0
 62
7
  6
CONTINUOUS
  0
LAYER
  5
140
100
AcDbSymbolTableRecord
100
AcDbLayerTableRecord
  2
画層242
 70
    0
 62
7
  6
CONTINUOUS
  0
LAYER
  5
141
100
AcDbSymbolTableRecord
100
AcDbLayerTableRecord
  2
画層243
 70
    0
 62
7
  6
CONTINUOUS
  0
LAYER
  5
142
100
AcDbSymbolTableRecord
100
AcDbLayerTableRecord
  2
画層244
 70
    0
 62
7
  6
CONTINUOUS
  0
LAYER
  5
143
100
AcDbSymbolTableRecord
100
AcDbLayerTableRecord
  2
画層245
 70
    0
 62
7
  6
CONTINUOUS
  0
LAYER
  5
144
100
AcDbSymbolTableRecord
100
AcDbLayerTableRecord
  2
画層246
 70
    0
 62
7
  6
CONTINUOUS
  0
LAYER
  5
145
100
AcDbSymbolTableRecord
100
AcDbLayerTableRecord
  2
画層247
 70
    0
 62
7
  6
CONTINUOUS
  0
LAYER
  5
146
100
AcDbSymbolTableRecord
100
AcDbLayerTableRecord
  2
画層248
 70
    0
 62
7
  6
CONTINUOUS
  0
LAYER
  5
147
100
AcDbSymbolTableRecord
100
AcDbLayerTableRecord
  2
画層249
 70
    0
 62
7
  6
CONTINUOUS
  0
LAYER
  5
148
100
AcDbSymbolTableRecord
100
AcDbLayerTableRecord
  2
画層250
 70
    0
 62
7
  6
CONTINUOUS
  0
LAYER
  5
149
100
AcDbSymbolTableRecord
100
AcDbLayerTableRecord
  2
画層251
 70
    0
 62
7
  6
CONTINUOUS
  0
LAYER
  5
14A
100
AcDbSymbolTableRecord
100
AcDbLayerTableRecord
  2
画層252
 70
    0
 62
7
  6
CONTINUOUS
  0
LAYER
  5
14B
100
AcDbSymbolTableRecord
100
AcDbLayerTableRecord
  2
画層253
 70
    0
 62
7
  6
CONTINUOUS
  0
LAYER
  5
14C
100
AcDbSymbolTableRecord
100
AcDbLayerTableRecord
  2
画層254
 70
    0
 62
7
  6
CONTINUOUS
  0
LAYER
  5
14D
100
AcDbSymbolTableRecord
100
AcDbLayerTableRecord
  2
画層255
 70
    0
 62
7
  6
CONTINUOUS
  0
ENDTAB
  0
TABLE
  2
STYLE
  5
4
100
AcDbSymbolTable
 70
     1
  0
STYLE
  5
14E
100
AcDbSymbolTableRecord
100
AcDbTextStyleTableRecord
  2
Standard
 70
     0
 40
0.0
 41
1.0
 50
0.0
 71
     0
 42
3.2
  3
TXT
  4
BIGFONT
  0
STYLE
  5
14F
100
AcDbSymbolTableRecord
100
AcDbTextStyleTableRecord
  2
Font_0
 70
     0
 40
0.0
 41
1.0
 50
0.0
 71
     0
 42
3.2
  3
MS Gothic.ttf
  4

1001
ACAD
1000
MS Gothic
1071
  32817
  0
STYLE
  5
150
100
AcDbSymbolTableRecord
100
AcDbTextStyleTableRecord
  2
Font_1
 70
     0
 40
0.0
 41
1.0
 50
0.0
 71
     0
 42
3.2
  3
MS Gothic.ttf
  4

1001
ACAD
1000
@MS Gothic
1071
  32817
  0
ENDTAB
  0
TABLE
  2
VIEW
  5
5
100
AcDbSymbolTable
 70
     0
  0
ENDTAB
  0
TABLE
  2
UCS
  5
6
100
AcDbSymbolTable
 70
     0
  0
ENDTAB
  0
TABLE
  2
APPID
  5
7
100
AcDbSymbolTable
 70
     1
  0
APPID
  5
151
100
AcDbSymbolTableRecord
100
AcDbRegAppTableRecord
  2
ACAD
 70
     0
  0
ENDTAB
  0
TABLE
  2
DIMSTYLE
  5
8
100
AcDbSymbolTable
 70
     1
  0
DIMSTYLE
105
2A
100
AcDbSymbolTableRecord
100
AcDbDimStyleTableRecord
  2
STANDARD
 70
     0
  3

  4

  5

  6

  7

 40
1.0
 41
2.5
 42
2.0
 43
7.0
 44
1.25
 45
0.0
 46
0.0
 47
0.0
 48
0.0
 71
     0
 72
     0
 73
     0
 74
     0
 75
     0
 76
     0
 77
     1
 78
     0
140
2.5
141
2.5
142
0.0
143
0.0394
144
1.0
145
0.0
146
1.0
147
1.0
170
     0
171
     2
172
     0
173
     0
174
     1
175
     0
176
     0
177
     0
178
     0
270
     2
271
     2
272
     4
273
     2
274
     2
275
     0
280
     0
281
     0
282
     0
283
     1
284
     0
285
     0
286
     0
287
     3
288
     0
  0
ENDTAB
  0
TABLE
  2
BLOCK_RECORD
  5
9
100
AcDbSymbolTable
 70
     0
  0
BLOCK_RECORD
  5
152
100
AcDbSymbolTableRecord
100
AcDbBlockTableRecord
  2
*MODEL_SPACE
  0
BLOCK_RECORD
  5
153
100
AcDbSymbolTableRecord
100
AcDbBlockTableRecord
  2
*PAPER_SPACE
  0
BLOCK_RECORD
  5
154
100
AcDbSymbolTableRecord
100
AcDbBlockTableRecord
  2
0
  0
BLOCK_RECORD
  5
155
100
AcDbSymbolTableRecord
100
AcDbBlockTableRecord
  2
A4
  0
BLOCK_RECORD
  5
156
100
AcDbSymbolTableRecord
100
AcDbBlockTableRecord
  2
NOTE
  0
BLOCK_RECORD
  5
157
100
AcDbSymbolTableRecord
100
AcDbBlockTableRecord
  2
BASE
  0
BLOCK_RECORD
  5
158
100
AcDbSymbolTableRecord
100
AcDbBlockTableRecord
  2
LIST
  0
BLOCK_RECORD
  5
159
100
AcDbSymbolTableRecord
100
AcDbBlockTableRecord
  2
A4ｹﾏｮﾘ
  0
BLOCK_RECORD
  5
15A
100
AcDbSymbolTableRecord
100
AcDbBlockTableRecord
  2
JAME
  0
BLOCK_RECORD
  5
15B
100
AcDbSymbolTableRecord
100
AcDbBlockTableRecord
  2
GENAXEH
  0
BLOCK_RECORD
  5
15C
100
AcDbSymbolTableRecord
100
AcDbBlockTableRecord
  2
A$C36D836D4
  0
BLOCK_RECORD
  5
15D
100
AcDbSymbolTableRecord
100
AcDbBlockTableRecord
  2
A$C520435C5
  0
BLOCK_RECORD
  5
15E
100
AcDbSymbolTableRecord
100
AcDbBlockTableRecord
  2
A$C60F9129D
  0
BLOCK_RECORD
  5
15F
100
AcDbSymbolTableRecord
100
AcDbBlockTableRecord
  2
A
  0
BLOCK_RECORD
  5
160
100
AcDbSymbolTableRecord
100
AcDbBlockTableRecord
  2
B
  0
BLOCK_RECORD
  5
161
100
AcDbSymbolTableRecord
100
AcDbBlockTableRecord
  2
C
  0
BLOCK_RECORD
  5
162
100
AcDbSymbolTableRecord
100
AcDbBlockTableRecord
  2
D
  0
BLOCK_RECORD
  5
163
100
AcDbSymbolTableRecord
100
AcDbBlockTableRecord
  2
A4ｹﾏｮﾘ_JAME_
  0
BLOCK_RECORD
  5
164
100
AcDbSymbolTableRecord
100
AcDbBlockTableRecord
  2
Rｺﾝ､L
  0
BLOCK_RECORD
  5
165
100
AcDbSymbolTableRecord
100
AcDbBlockTableRecord
  2
A$C7AD0034B
  0
BLOCK_RECORD
  5
166
100
AcDbSymbolTableRecord
100
AcDbBlockTableRecord
  2
A$C34DF46FA
  0
BLOCK_RECORD
  5
167
100
AcDbSymbolTableRecord
100
AcDbBlockTableRecord
  2
A$C2D3D7F29
  0
BLOCK_RECORD
  5
168
100
AcDbSymbolTableRecord
100
AcDbBlockTableRecord
  2
A$C3F5A6B5D
  0
BLOCK_RECORD
  5
169
100
AcDbSymbolTableRecord
100
AcDbBlockTableRecord
  2
A$C10D82111
  0
BLOCK_RECORD
  5
16A
100
AcDbSymbolTableRecord
100
AcDbBlockTableRecord
  2
A$C12011E55
  0
BLOCK_RECORD
  5
16B
100
AcDbSymbolTableRecord
100
AcDbBlockTableRecord
  2
A$C51B807F4
  0
BLOCK_RECORD
  5
16C
100
AcDbSymbolTableRecord
100
AcDbBlockTableRecord
  2
A$C2D9E4FCD
  0
BLOCK_RECORD
  5
16D
100
AcDbSymbolTableRecord
100
AcDbBlockTableRecord
  2
A$C0BBC48C4
  0
BLOCK_RECORD
  5
16E
100
AcDbSymbolTableRecord
100
AcDbBlockTableRecord
  2
A$C14A60303
  0
BLOCK_RECORD
  5
16F
100
AcDbSymbolTableRecord
100
AcDbBlockTableRecord
  2
A$C71152DD0
  0
BLOCK_RECORD
  5
170
100
AcDbSymbolTableRecord
100
AcDbBlockTableRecord
  2
A$C0B777CE8
  0
BLOCK_RECORD
  5
171
100
AcDbSymbolTableRecord
100
AcDbBlockTableRecord
  2
A$C0D036401
  0
BLOCK_RECORD
  5
172
100
AcDbSymbolTableRecord
100
AcDbBlockTableRecord
  2
A$C7F6C03C9
  0
BLOCK_RECORD
  5
173
100
AcDbSymbolTableRecord
100
AcDbBlockTableRecord
  2
A$C37F6580F
  0
BLOCK_RECORD
  5
174
100
AcDbSymbolTableRecord
100
AcDbBlockTableRecord
  2
A$C6F3E0DB2
  0
BLOCK_RECORD
  5
175
100
AcDbSymbolTableRecord
100
AcDbBlockTableRecord
  2
A$C4BE9463D
  0
BLOCK_RECORD
  5
176
100
AcDbSymbolTableRecord
100
AcDbBlockTableRecord
  2
A$C06CC3F2E
  0
BLOCK_RECORD
  5
177
100
AcDbSymbolTableRecord
100
AcDbBlockTableRecord
  2
A$C77676829
  0
ENDTAB
  0
ENDSEC
  0
SECTION
  2
BLOCKS
  0
BLOCK
  5
179
100
AcDbEntity
  8
0
100
AcDbBlockBegin
2
*MODEL_SPACE
 70
     0
 10
0.0
 20
0.0
 30
0.0
  3
*MODEL_SPACE
  1

  0
ENDBLK
  5
17A
100
AcDbEntity
  8
0
100
AcDbBlockEnd
  0
BLOCK
  5
17B
100
AcDbEntity
 67
     1
  8
0
100
AcDbBlockBegin
  2
*PAPER_SPACE
 70
     0
 10
0.0
 20
0.0
 30
0.0
  3
*PAPER_SPACE
  1

  0
ENDBLK
  5
17C
100
AcDbEntity
 67
     1
  8
0
100
AcDbBlockEnd
  0
BLOCK
  5
17D
100
AcDbEntity
  8
0
100
AcDbBlockBegin
  2
0
 70
    0
 10
0
 20
0
 30
0.0
  3
0
  1

  0
LINE
  5
17E
100
AcDbEntity
  8
0
100
AcDbLine
  6
BYLAYER
 10
1
 20
1
 11
97.85
 21
1
  0
LINE
  5
17F
100
AcDbEntity
  8
0
100
AcDbLine
  6
BYLAYER
 10
1
 20
201
 11
1
 21
1
  0
LINE
  5
180
100
AcDbEntity
  8
0
100
AcDbLine
  6
BYLAYER
 10
1
 20
1
 11
1
 21
35
  0
LINE
  5
181
100
AcDbEntity
  8
0
100
AcDbLine
  6
BYLAYER
 10
1
 20
7
 11
290
 21
7
  0
LINE
  5
182
100
AcDbEntity
  8
0
100
AcDbLine
  6
BYLAYER
 10
1
 20
13
 11
290
 21
13
  0
LINE
  5
183
100
AcDbEntity
  8
0
100
AcDbLine
  6
BYLAYER
 10
97.85
 20
19
 11
290
 21
19
  0
LINE
  5
184
100
AcDbEntity
  8
0
100
AcDbLine
  6
BYLAYER
 10
98
 20
25
 11
290
 21
25
  0
LINE
  5
185
100
AcDbEntity
  8
0
100
AcDbLine
  6
BYLAYER
 10
98
 20
31
 11
290
 21
31
  0
LINE
  5
186
100
AcDbEntity
  8
0
100
AcDbLine
  6
BYLAYER
 10
214
 20
37
 11
214
 21
1
  0
LINE
  5
187
100
AcDbEntity
  8
0
100
AcDbLine
  6
BYLAYER
 10
233
 20
37
 11
233
 21
1
  0
LINE
  5
188
100
AcDbEntity
  8
0
100
AcDbLine
  6
BYLAYER
 10
196.025
 20
31
 11
196.025
 21
1
  0
LINE
  5
189
100
AcDbEntity
  8
0
100
AcDbLine
  6
BYLAYER
 10
196.025
 20
31
 11
290
 21
31
  0
LINE
  5
18A
100
AcDbEntity
  8
0
100
AcDbLine
  6
BYLAYER
 10
196.025
 20
1
 11
290
 21
1
  0
LINE
  5
18B
100
AcDbEntity
  8
0
100
AcDbLine
  6
BYLAYER
 10
196.15
 20
37
 11
196.15
 21
1
  0
LINE
  5
18C
100
AcDbEntity
  8
0
100
AcDbLine
  6
BYLAYER
 10
195.85
 20
37
 11
195.85
 21
1
  0
LINE
  5
18D
100
AcDbEntity
  8
0
100
AcDbLine
  6
BYLAYER
 10
98.15
 20
37
 11
98.15
 21
1
  0
LINE
  5
18E
100
AcDbEntity
  8
0
100
AcDbLine
  6
BYLAYER
 10
98.15
 20
31
 11
195.85
 21
31
  0
LINE
  5
18F
100
AcDbEntity
  8
0
100
AcDbLine
  6
BYLAYER
 10
98.15
 20
1
 11
195.85
 21
1
  0
LINE
  5
190
100
AcDbEntity
  8
0
100
AcDbLine
  6
BYLAYER
 10
97.85
 20
37
 11
97.85
 21
1
  0
LINE
  5
191
100
AcDbEntity
  8
0
100
AcDbLine
  6
BYLAYER
 10
145
 20
37
 11
145
 21
1
  0
LINE
  5
192
100
AcDbEntity
  8
0
100
AcDbLine
  6
BYLAYER
 10
115
 20
37
 11
115
 21
1
  0
LINE
  5
193
100
AcDbEntity
  8
0
100
AcDbLine
  6
BYLAYER
 10
164
 20
37
 11
164
 21
1
  0
LINE
  5
194
100
AcDbEntity
  8
0
100
AcDbLine
  6
BYLAYER
 10
49
 20
13
 11
49
 21
1
  0
LINE
  5
195
100
AcDbEntity
  8
0
100
AcDbLine
  6
BYLAYER
 10
14
 20
13
 11
14
 21
1
  0
LINE
  5
196
100
AcDbEntity
  8
0
100
AcDbLine
  6
BYLAYER
 10
63
 20
13
 11
63
 21
1
  0
TEXT
  5
197
100
AcDbEntity
  8
0
100
AcDbText
  6
BYLAYER
 10
3
 20
7.72940914028269
 40
3
  1
TEL
  7
Font_0
100
AcDbText
  0
TEXT
  5
198
100
AcDbEntity
  8
0
100
AcDbText
  6
BYLAYER
 10
51
 20
7.91176142535337
 40
3
  1
FAX
  7
Font_0
100
AcDbText
  0
TEXT
  5
199
100
AcDbEntity
  8
0
100
AcDbText
  6
BYLAYER
 10
16.5400336288223
 20
8.09411371042404
 40
3
  1
(04)3322627
  7
Font_0
100
AcDbText
  0
TEXT
  5
19A
100
AcDbEntity
  8
0
100
AcDbText
  6
BYLAYER
 10
67
 20
8.09411371042404
 40
3
  1
(04)3322629
  7
Font_0
100
AcDbText
  0
LINE
  5
19B
100
AcDbEntity
  8
0
100
AcDbLine
  6
BYLAYER
 10
1
 20
37
 11
290
 21
37
  0
TEXT
  5
19C
100
AcDbEntity
  8
0
100
AcDbText
  6
BYLAYER
 10
40.6536662502908
 20
8.06055328395253
 40
3
  1
~8
  7
Font_0
100
AcDbText
  0
TEXT
  5
19D
100
AcDbEntity
  8
0
100
AcDbText
  6
BYLAYER
 10
99.7036913346956
 20
32.2639399057443
 40
4
  1
･D ｺﾞ
  7
Font_0
100
AcDbText
  0
TEXT
  5
19E
100
AcDbEntity
  8
0
100
AcDbText
  6
BYLAYER
 10
99.7036913346956
 20
25.6992573518645
 40
4
  1
ｮﾖ ｹ�
  7
Font_0
100
AcDbText
  0
TEXT
  5
19F
100
AcDbEntity
  8
0
100
AcDbText
  6
BYLAYER
 10
99.8861871848885
 20
19.8639838602288
 40
4
  1
ﾃｸ ｹﾏ
  7
Font_0
100
AcDbText
  0
TEXT
  5
1A0
100
AcDbEntity
  8
0
100
AcDbText
  6
BYLAYER
 10
99.8861871848885
 20
13.8463581030321
 40
4
  1
ｾ� ｺﾘ
  7
Font_0
100
AcDbText
  0
TEXT
  5
1A1
100
AcDbEntity
  8
0
100
AcDbText
  6
BYLAYER
 10
100.068683035081
 20
7.82873284267693
 40
4
  1
ｫ~ ｦW
  7
Font_0
100
AcDbText
  0
TEXT
  5
1A2
100
AcDbEntity
  8
0
100
AcDbText
  6
BYLAYER
 10
100.068683035081
 20
1.99345935104124
 40
4
  1
ｹﾏ ｸｹ
  7
Font_0
100
AcDbText
  0
TEXT
  5
1A3
100
AcDbEntity
  8
0
100
AcDbText
  6
BYLAYER
 10
146.605123404095
 20
31.8992353746223
 40
4
  1
ｧ� ｽ�
  7
Font_0
100
AcDbText
  0
TEXT
  5
1A4
100
AcDbEntity
  8
0
100
AcDbText
  6
BYLAYER
 10
146.605123404095
 20
25.8816096174256
 40
4
  1
､� ｨﾒ
  7
Font_0
100
AcDbText
  0
TEXT
  5
1A5
100
AcDbEntity
  8
0
100
AcDbText
  6
BYLAYER
 10
146.787619254287
 20
20.0463361257899
 40
4
  1
ｼﾆ ｶq
  7
Font_0
100
AcDbText
  0
TEXT
  5
1A6
100
AcDbEntity
  8
0
100
AcDbText
  6
BYLAYER
 10
146.97011510448
 20
14.0287103685931
 40
4
  1
ｳ� ｦ�
  7
Font_0
100
AcDbText
  0
TEXT
  5
1A7
100
AcDbEntity
  8
0
100
AcDbText
  6
BYLAYER
 10
146.422627553902
 20
8.01108510823795
 40
4
  1
ｪ揵ｱｳBｲz
  7
Font_0
100
AcDbText
  0
TEXT
  5
1A8
100
AcDbEntity
  8
0
100
AcDbText
  6
BYLAYER
 10
146.605123404095
 20
2.17581161660226
 40
4
  1
ｻsｹﾏ､魘ﾁ
  7
Font_0
100
AcDbText
  0
TEXT
  5
1A9
100
AcDbEntity
  8
0
100
AcDbText
  6
BYLAYER
 10
197.77841370095
 20
32.2399819360484
 40
4
  1
､� ｴﾁ
  7
Font_0
100
AcDbText
  0
TEXT
  5
1AA
100
AcDbEntity
  8
0
100
AcDbText
  6
BYLAYER
 10
215.423238216157
 20
32.0275605512105
 40
4
  1
ｭt
  7
Font_0
100
AcDbText
  0
TEXT
  5
1AB
100
AcDbEntity
  8
0
100
AcDbText
  6
BYLAYER
 10
221.375709026727
 20
31.815139655317
 40
4
  1
ｳd
  7
Font_0
100
AcDbText
  0
TEXT
  5
1AC
100
AcDbEntity
  8
0
100
AcDbText
  6
BYLAYER
 10
227.328179837297
 20
31.815139655317
 40
4
  1
､H
  7
Font_0
100
AcDbText
  0
TEXT
  5
1AD
100
AcDbEntity
  8
0
100
AcDbText
  6
BYLAYER
 10
239.020533541933
 20
32.0275605512105
 40
4
  1
ｧ�
  7
Font_0
100
AcDbText
  0
TEXT
  5
1AE
100
AcDbEntity
  8
0
100
AcDbText
  6
BYLAYER
 10
251.98841615305
 20
32.0275605512105
 40
4
  1
ｧ�
  7
Font_0
100
AcDbText
  0
TEXT
  5
1AF
100
AcDbEntity
  8
0
100
AcDbText
  6
BYLAYER
 10
264.531122227431
 20
32.0275605512105
 40
4
  1
､ｺ
  7
Font_0
100
AcDbText
  0
TEXT
  5
1B0
100
AcDbEntity
  8
0
100
AcDbText
  6
BYLAYER
 10
276.436064552298
 20
31.815139655317
 40
4
  1
ｮe
  7
Font_0
100
AcDbText
  0
TEXT
  5
1B1
100
AcDbEntity
  8
0
100
AcDbText
  6
BYLAYER
 10
23.0468952754036
 20
24.3731292136772
 40
7
  1
ｫﾘｷﾔ､uｷ~ｪﾑ･ｳｭｭ､ｽ･q
  7
Font_0
100
AcDbText
  0
TEXT
  5
1B2
100
AcDbEntity
  8
0
100
AcDbText
  6
BYLAYER
 10
22.2780828500217
 20
15.9228468305838
 40
3
  1
CHIEN YU INDUSTRIAL CO.,LTD.
  7
Font_0
100
AcDbText
  0
CIRCLE
  5
1B3
100
AcDbEntity
  8
0
100
AcDbCircle
  6
BYLAYER
 10
11.1054905349494
 20
25.350263158651
 40
9.36463111331499
  0
CIRCLE
  5
1B4
100
AcDbEntity
  8
0
100
AcDbCircle
  6
BYLAYER
 10
11.1054905349494
 20
25.350263158651
 40
7.62237416200057
  0
ARC
  5
1B5
100
AcDbEntity
  8
0
100
AcDbCircle
  6
BYLAYER
 10
11.1054905349494
 20
25.350263158651
 40
4.41008790801462
100
AcDbArc
 50
90
 51
0
  0
LINE
  5
1B6
100
AcDbEntity
  8
0
100
AcDbLine
  6
BYLAYER
 10
11.1054905349494
 20
29.7603510666656
 11
16.2233703294355
 21
29.7603510666656
  0
LINE
  5
1B7
100
AcDbEntity
  8
0
100
AcDbLine
  6
BYLAYER
 10
15.515578442964
 20
25.350263158651
 11
16.4411524483498
 21
25.350263158651
  0
TEXT
  5
1B8
100
AcDbEntity
  8
0
100
AcDbText
  6
BYLAYER
 10
8.49210581170386
 20
22.8477388856442
 40
5
  1
Y
  7
Font_0
100
AcDbText
  0
ARC
  5
1B9
100
AcDbEntity
  8
0
100
AcDbCircle
  6
BYLAYER
 10
11.5745216067836
 20
33.8983997393573
 40
0.704372460813671
100
AcDbArc
 50
83.8529806316668
 51
239.250071636948
  0
ARC
  5
1BA
100
AcDbEntity
  8
0
100
AcDbCircle
  6
BYLAYER
 10
7.23761506796891
 20
32.9876821284788
 40
0.704372460813671
100
AcDbArc
 50
113.852980631667
 51
269.250071636948
  0
ARC
  5
1BB
100
AcDbEntity
  8
0
100
AcDbCircle
  6
BYLAYER
 10
3.93710263695578
 20
30.0305242723769
 40
0.704372460813671
100
AcDbArc
 50
143.852980631667
 51
299.250071636948
  0
ARC
  5
1BC
100
AcDbEntity
  8
0
100
AcDbCircle
  6
BYLAYER
 10
2.55735395424305
 20
25.8192942304852
 40
0.704372460813671
100
AcDbArc
 50
173.852980631667
 51
329.250071636948
  0
ARC
  5
1BD
100
AcDbEntity
  8
0
100
AcDbCircle
  6
BYLAYER
 10
3.46807156512152
 20
21.4823876916705
 40
0.704372460813671
100
AcDbArc
 50
203.852980631667
 51
359.250071636948
  0
ARC
  5
1BE
100
AcDbEntity
  8
0
100
AcDbCircle
  6
BYLAYER
 10
6.42522942122351
 20
18.1818752606574
 40
0.704372460813671
100
AcDbArc
 50
233.852980631667
 51
29.2500716369476
  0
ARC
  5
1BF
100
AcDbEntity
  8
0
100
AcDbCircle
  6
BYLAYER
 10
10.6364594631151
 20
16.8021265779447
 40
0.704372460813671
100
AcDbArc
 50
263.852980631667
 51
59.2500716369476
  0
ARC
  5
1C0
100
AcDbEntity
  8
0
100
AcDbCircle
  6
BYLAYER
 10
14.9733660019298
 20
17.7128441888231
 40
0.704372460813671
100
AcDbArc
 50
293.852980631667
 51
89.2500716369476
  0
ARC
  5
1C1
100
AcDbEntity
  8
0
100
AcDbCircle
  6
BYLAYER
 10
18.273878432943
 20
20.6700020449251
 40
0.704372460813671
100
AcDbArc
 50
323.852980631667
 51
119.250071636948
  0
ARC
  5
1C2
100
AcDbEntity
  8
0
100
AcDbCircle
  6
BYLAYER
 10
19.6536271156557
 20
24.8812320868167
 40
0.704372460813671
100
AcDbArc
 50
353.852980631667
 51
149.250071636948
  0
ARC
  5
1C3
100
AcDbEntity
  8
0
100
AcDbCircle
  6
BYLAYER
 10
18.7429095047772
 20
29.2181386256314
 40
0.704372460813671
100
AcDbArc
 50
23.8529806316668
 51
179.250071636948
  0
ARC
  5
1C4
100
AcDbEntity
  8
0
100
AcDbCircle
  6
BYLAYER
 10
15.7857516486752
 20
32.5186510566446
 40
0.704372460813671
100
AcDbArc
 50
53.8529806316668
 51
209.250071636948
  0
LINE
  5
1C5
100
AcDbEntity
  8
0
100
AcDbLine
  6
BYLAYER
 10
1
 20
201
 11
290
 21
201
  0
LINE
  5
1C6
100
AcDbEntity
  8
0
100
AcDbLine
  6
BYLAYER
 10
290
 20
201
 11
290
 21
1
  0
ENDBLK
  5
1C7
100
AcDbEntity
  8
0
 67
     1
100
AcDbBlockEnd
  0
BLOCK
  5
1C8
100
AcDbEntity
  8
0
100
AcDbBlockBegin
  2
A4
 70
    0
 10
0
 20
0
 30
0.0
  3
A4
  1

  0
TEXT
  5
1C9
100
AcDbEntity
  8
0
100
AcDbText
  6
BYLAYER
 10
121.243373757434
 20
22.64898098486
 40
4.8
  1
ｿ� ｪ｢ ｵo
  7
Font_0
100
AcDbText
  0
TEXT
  5
1CA
100
AcDbEntity
  8
0
100
AcDbText
  6
BYLAYER
 10
175.643149157513
 20
16.5268633951276
 40
4.8
  1
M/M
  7
Font_0
100
AcDbText
  0
INSERT
  5
1CB
100
AcDbEntity
  8
0
100
AcDbBlockReference
  6
CONTINUOUS
  2
0
 10
2.77414193339833
 20
3.05830958210858
 30
0.0
  0
ENDBLK
  5
1CC
100
AcDbEntity
  8
0
 67
     1
100
AcDbBlockEnd
  0
BLOCK
  5
1CD
100
AcDbEntity
  8
0
100
AcDbBlockBegin
  2
NOTE
 70
    0
 10
0
 20
0
 30
0.0
  3
NOTE
  1

  0
LINE
  5
1CE
100
AcDbEntity
  8
0
100
AcDbLine
  6
BYLAYER
 10
0
 20
48
 11
244.5
 21
48
  0
LINE
  5
1CF
100
AcDbEntity
  8
0
100
AcDbLine
  6
BYLAYER
 10
0
 20
42
 11
244.5
 21
42
  0
LINE
  5
1D0
100
AcDbEntity
  8
0
100
AcDbLine
  6
BYLAYER
 10
0
 20
36
 11
244.5
 21
36
  0
LINE
  5
1D1
100
AcDbEntity
  8
0
100
AcDbLine
  6
BYLAYER
 10
0
 20
30
 11
244.5
 21
30
  0
LINE
  5
1D2
100
AcDbEntity
  8
0
100
AcDbLine
  6
BYLAYER
 10
0
 20
24
 11
244.5
 21
24
  0
LINE
  5
1D3
100
AcDbEntity
  8
0
100
AcDbLine
  6
BYLAYER
 10
0
 20
18
 11
244.5
 21
18
  0
LINE
  5
1D4
100
AcDbEntity
  8
0
100
AcDbLine
  6
BYLAYER
 10
0
 20
12
 11
244.5
 21
12
  0
LINE
  5
1D5
100
AcDbEntity
  8
0
100
AcDbLine
  6
BYLAYER
 10
0
 20
6
 11
244.5
 21
6
  0
LINE
  5
1D6
100
AcDbEntity
  8
0
100
AcDbLine
  6
BYLAYER
 62
3
 10
196.307106781187
 20
0.707106781186553
 11
211.192893218814
 21
0.707106781186553
  0
LINE
  5
1D7
100
AcDbEntity
  8
0
100
AcDbLine
  6
BYLAYER
 62
3
 10
196.307106781187
 20
6.70710678118655
 11
211.192893218814
 21
6.70710678118655
  0
LINE
  5
1D8
100
AcDbEntity
  8
0
100
AcDbLine
  6
BYLAYER
 62
3
 10
196.307106781187
 20
12.7071067811866
 11
211.192893218814
 21
12.7071067811866
  0
LINE
  5
1D9
100
AcDbEntity
  8
0
100
AcDbLine
  6
BYLAYER
 62
3
 10
196.307106781187
 20
18.7071067811866
 11
211.192893218814
 21
18.7071067811866
  0
LINE
  5
1DA
100
AcDbEntity
  8
0
100
AcDbLine
  6
BYLAYER
 62
3
 10
196.307106781187
 20
24.7071067811866
 11
211.192893218814
 21
24.7071067811866
  0
LINE
  5
1DB
100
AcDbEntity
  8
0
100
AcDbLine
  6
BYLAYER
 62
3
 10
196.307106781187
 20
30.7071067811865
 11
211.192893218814
 21
30.7071067811865
  0
LINE
  5
1DC
100
AcDbEntity
  8
0
100
AcDbLine
  6
BYLAYER
 62
3
 10
196.307106781187
 20
36.7071067811866
 11
211.192893218814
 21
36.7071067811866
  0
LINE
  5
1DD
100
AcDbEntity
  8
0
100
AcDbLine
  6
BYLAYER
 62
3
 10
65.9071067811866
 20
0.707106781186553
 11
80.7928932188135
 21
0.707106781186553
  0
LINE
  5
1DE
100
AcDbEntity
  8
0
100
AcDbLine
  6
BYLAYER
 62
3
 10
65.9071067811866
 20
6.70710678118655
 11
80.7928932188135
 21
6.70710678118655
  0
LINE
  5
1DF
100
AcDbEntity
  8
0
100
AcDbLine
  6
BYLAYER
 62
3
 10
65.9071067811866
 20
12.7071067811866
 11
80.7928932188135
 21
12.7071067811866
  0
LINE
  5
1E0
100
AcDbEntity
  8
0
100
AcDbLine
  6
BYLAYER
 62
3
 10
65.9071067811866
 20
18.7071067811866
 11
80.7928932188135
 21
18.7071067811866
  0
LINE
  5
1E1
100
AcDbEntity
  8
0
100
AcDbLine
  6
BYLAYER
 62
3
 10
65.9071067811866
 20
24.7071067811866
 11
80.7928932188135
 21
24.7071067811866
  0
LINE
  5
1E2
100
AcDbEntity
  8
0
100
AcDbLine
  6
BYLAYER
 62
3
 10
65.9071067811866
 20
30.7071067811865
 11
80.7928932188135
 21
30.7071067811865
  0
LINE
  5
1E3
100
AcDbEntity
  8
0
100
AcDbLine
  6
BYLAYER
 62
3
 10
65.9071067811866
 20
36.7071067811866
 11
80.7928932188135
 21
36.7071067811866
  0
LINE
  5
1E4
100
AcDbEntity
  8
0
100
AcDbLine
  6
BYLAYER
 10
65.2
 20
48
 11
65.2
 21
0
  0
LINE
  5
1E5
100
AcDbEntity
  8
0
100
AcDbLine
  6
BYLAYER
 10
32.6
 20
48
 11
32.6
 21
0
  0
LINE
  5
1E6
100
AcDbEntity
  8
0
100
AcDbLine
  6
BYLAYER
 10
16.3
 20
48
 11
16.3
 21
0
  0
LINE
  5
1E7
100
AcDbEntity
  8
0
100
AcDbLine
  6
BYLAYER
 10
48.9
 20
48
 11
48.9
 21
0
  0
LINE
  5
1E8
100
AcDbEntity
  8
0
100
AcDbLine
  6
BYLAYER
 62
3
 10
0.707106781186548
 20
0.707106781186553
 11
15.5928932188134
 21
0.707106781186553
  0
LINE
  5
1E9
100
AcDbEntity
  8
0
100
AcDbLine
  6
BYLAYER
 62
3
 10
0.707106781186548
 20
6.70710678118655
 11
15.5928932188134
 21
6.70710678118655
  0
LINE
  5
1EA
100
AcDbEntity
  8
0
100
AcDbLine
  6
BYLAYER
 62
3
 10
0.707106781186548
 20
12.7071067811866
 11
15.5928932188134
 21
12.7071067811866
  0
LINE
  5
1EB
100
AcDbEntity
  8
0
100
AcDbLine
  6
BYLAYER
 62
3
 10
0.707106781186548
 20
18.7071067811866
 11
15.5928932188134
 21
18.7071067811866
  0
LINE
  5
1EC
100
AcDbEntity
  8
0
100
AcDbLine
  6
BYLAYER
 62
3
 10
33.3071067811865
 20
0.707106781186553
 11
48.1928932188135
 21
0.707106781186553
  0
LINE
  5
1ED
100
AcDbEntity
  8
0
100
AcDbLine
  6
BYLAYER
 62
3
 10
33.3071067811865
 20
6.70710678118655
 11
48.1928932188135
 21
6.70710678118655
  0
LINE
  5
1EE
100
AcDbEntity
  8
0
100
AcDbLine
  6
BYLAYER
 62
3
 10
33.3071067811865
 20
12.7071067811866
 11
48.1928932188135
 21
12.7071067811866
  0
LINE
  5
1EF
100
AcDbEntity
  8
0
100
AcDbLine
  6
BYLAYER
 62
3
 10
33.3071067811865
 20
18.7071067811866
 11
48.1928932188135
 21
18.7071067811866
  0
LINE
  5
1F0
100
AcDbEntity
  8
0
100
AcDbLine
  6
BYLAYER
 62
3
 10
17.0071067811865
 20
0.707106781186553
 11
31.8928932188135
 21
0.707106781186553
  0
LINE
  5
1F1
100
AcDbEntity
  8
0
100
AcDbLine
  6
BYLAYER
 62
3
 10
17.0071067811865
 20
6.70710678118655
 11
31.8928932188135
 21
6.70710678118655
  0
LINE
  5
1F2
100
AcDbEntity
  8
0
100
AcDbLine
  6
BYLAYER
 62
3
 10
17.0071067811865
 20
12.7071067811866
 11
31.8928932188135
 21
12.7071067811866
  0
LINE
  5
1F3
100
AcDbEntity
  8
0
100
AcDbLine
  6
BYLAYER
 62
3
 10
17.0071067811865
 20
18.7071067811866
 11
31.8928932188135
 21
18.7071067811866
  0
LINE
  5
1F4
100
AcDbEntity
  8
0
100
AcDbLine
  6
BYLAYER
 62
3
 10
49.6071067811866
 20
0.707106781186553
 11
64.4928932188135
 21
0.707106781186553
  0
LINE
  5
1F5
100
AcDbEntity
  8
0
100
AcDbLine
  6
BYLAYER
 62
3
 10
49.6071067811866
 20
6.70710678118655
 11
64.4928932188135
 21
6.70710678118655
  0
LINE
  5
1F6
100
AcDbEntity
  8
0
100
AcDbLine
  6
BYLAYER
 62
3
 10
49.6071067811866
 20
12.7071067811866
 11
64.4928932188135
 21
12.7071067811866
  0
LINE
  5
1F7
100
AcDbEntity
  8
0
100
AcDbLine
  6
BYLAYER
 62
3
 10
49.6071067811866
 20
18.7071067811866
 11
64.4928932188135
 21
18.7071067811866
  0
LINE
  5
1F8
100
AcDbEntity
  8
0
100
AcDbLine
  6
BYLAYER
 62
3
 10
0.707106781186548
 20
24.7071067811866
 11
15.5928932188134
 21
24.7071067811866
  0
LINE
  5
1F9
100
AcDbEntity
  8
0
100
AcDbLine
  6
BYLAYER
 62
3
 10
0.707106781186548
 20
30.7071067811865
 11
15.5928932188134
 21
30.7071067811865
  0
LINE
  5
1FA
100
AcDbEntity
  8
0
100
AcDbLine
  6
BYLAYER
 62
3
 10
0.707106781186548
 20
36.7071067811866
 11
15.5928932188134
 21
36.7071067811866
  0
TEXT
  5
1FB
100
AcDbEntity
  8
0
100
AcDbText
  6
BYLAYER
 10
5.67126064773777
 20
43.5
 40
3
  1
､u･O
  7
Font_0
100
AcDbText
  0
LINE
  5
1FC
100
AcDbEntity
  8
0
100
AcDbLine
  6
BYLAYER
 62
3
 10
33.3071067811865
 20
24.7071067811866
 11
48.1928932188135
 21
24.7071067811866
  0
LINE
  5
1FD
100
AcDbEntity
  8
0
100
AcDbLine
  6
BYLAYER
 62
3
 10
33.3071067811865
 20
30.7071067811865
 11
48.1928932188135
 21
30.7071067811865
  0
LINE
  5
1FE
100
AcDbEntity
  8
0
100
AcDbLine
  6
BYLAYER
 62
3
 10
33.3071067811865
 20
36.7071067811866
 11
48.1928932188135
 21
36.7071067811866
  0
LINE
  5
1FF
100
AcDbEntity
  8
0
100
AcDbLine
  6
BYLAYER
 62
3
 10
17.0071067811865
 20
24.7071067811866
 11
31.8928932188135
 21
24.7071067811866
  0
LINE
  5
200
100
AcDbEntity
  8
0
100
AcDbLine
  6
BYLAYER
 62
3
 10
17.0071067811865
 20
30.7071067811865
 11
31.8928932188135
 21
30.7071067811865
  0
LINE
  5
201
100
AcDbEntity
  8
0
100
AcDbLine
  6
BYLAYER
 62
3
 10
17.0071067811865
 20
36.7071067811866
 11
31.8928932188135
 21
36.7071067811866
  0
TEXT
  5
202
100
AcDbEntity
  8
0
100
AcDbText
  6
BYLAYER
 10
21.3781148184937
 20
43.5
 40
3
  1
ｽsｸｹ
  7
Font_0
100
AcDbText
  0
TEXT
  5
203
100
AcDbEntity
  8
0
100
AcDbText
  6
BYLAYER
 10
39.5
 20
43.5
 40
3
  1
A
  7
Font_0
100
AcDbText
  0
LINE
  5
204
100
AcDbEntity
  8
0
100
AcDbLine
  6
BYLAYER
 62
3
 10
49.6071067811866
 20
24.7071067811866
 11
64.4928932188135
 21
24.7071067811866
  0
LINE
  5
205
100
AcDbEntity
  8
0
100
AcDbLine
  6
BYLAYER
 62
3
 10
49.6071067811866
 20
30.7071067811865
 11
64.4928932188135
 21
30.7071067811865
  0
LINE
  5
206
100
AcDbEntity
  8
0
100
AcDbLine
  6
BYLAYER
 62
3
 10
49.6071067811866
 20
36.7071067811866
 11
64.4928932188135
 21
36.7071067811866
  0
TEXT
  5
207
100
AcDbEntity
  8
0
100
AcDbText
  6
BYLAYER
 10
56
 20
43.5
 40
3
  1
B
  7
Font_0
100
AcDbText
  0
TEXT
  5
208
100
AcDbEntity
  8
0
100
AcDbText
  6
BYLAYER
 10
72.5
 20
43.5
 40
3
  1
C
  7
Font_0
100
AcDbText
  0
LINE
  5
209
100
AcDbEntity
  8
0
100
AcDbLine
  6
BYLAYER
 10
163
 20
48
 11
163
 21
0
  0
LINE
  5
20A
100
AcDbEntity
  8
0
100
AcDbLine
  6
BYLAYER
 10
146.7
 20
48
 11
146.7
 21
0
  0
LINE
  5
20B
100
AcDbEntity
  8
0
100
AcDbLine
  6
BYLAYER
 10
179.3
 20
48
 11
179.3
 21
0
  0
LINE
  5
20C
100
AcDbEntity
  8
0
100
AcDbLine
  6
BYLAYER
 10
195.6
 20
48
 11
195.6
 21
0
  0
LINE
  5
20D
100
AcDbEntity
  8
0
100
AcDbLine
  6
BYLAYER
 10
81.5
 20
48
 11
81.5
 21
0
  0
LINE
  5
20E
100
AcDbEntity
  8
0
100
AcDbLine
  6
BYLAYER
 10
114.1
 20
48
 11
114.1
 21
0
  0
LINE
  5
20F
100
AcDbEntity
  8
0
100
AcDbLine
  6
BYLAYER
 10
97.8
 20
48
 11
97.8
 21
0
  0
LINE
  5
210
100
AcDbEntity
  8
0
100
AcDbLine
  6
BYLAYER
 10
130.4
 20
48
 11
130.4
 21
0
  0
LINE
  5
211
100
AcDbEntity
  8
0
100
AcDbLine
  6
BYLAYER
 62
3
 10
131.107106781186
 20
0.707106781186553
 11
145.992893218813
 21
0.707106781186553
  0
LINE
  5
212
100
AcDbEntity
  8
0
100
AcDbLine
  6
BYLAYER
 62
3
 10
131.107106781186
 20
6.70710678118655
 11
145.992893218813
 21
6.70710678118655
  0
LINE
  5
213
100
AcDbEntity
  8
0
100
AcDbLine
  6
BYLAYER
 62
3
 10
131.107106781186
 20
12.7071067811866
 11
145.992893218813
 21
12.7071067811866
  0
LINE
  5
214
100
AcDbEntity
  8
0
100
AcDbLine
  6
BYLAYER
 62
3
 10
131.107106781186
 20
18.7071067811866
 11
145.992893218813
 21
18.7071067811866
  0
LINE
  5
215
100
AcDbEntity
  8
0
100
AcDbLine
  6
BYLAYER
 62
3
 10
98.5071067811866
 20
0.707106781186553
 11
113.392893218813
 21
0.707106781186553
  0
LINE
  5
216
100
AcDbEntity
  8
0
100
AcDbLine
  6
BYLAYER
 62
3
 10
98.5071067811866
 20
6.70710678118655
 11
113.392893218813
 21
6.70710678118655
  0
LINE
  5
217
100
AcDbEntity
  8
0
100
AcDbLine
  6
BYLAYER
 62
3
 10
98.5071067811866
 20
12.7071067811866
 11
113.392893218813
 21
12.7071067811866
  0
LINE
  5
218
100
AcDbEntity
  8
0
100
AcDbLine
  6
BYLAYER
 62
3
 10
98.5071067811866
 20
18.7071067811866
 11
113.392893218813
 21
18.7071067811866
  0
LINE
  5
219
100
AcDbEntity
  8
0
100
AcDbLine
  6
BYLAYER
 62
3
 10
82.2071067811865
 20
0.707106781186553
 11
97.0928932188135
 21
0.707106781186553
  0
LINE
  5
21A
100
AcDbEntity
  8
0
100
AcDbLine
  6
BYLAYER
 62
3
 10
82.2071067811865
 20
6.70710678118655
 11
97.0928932188135
 21
6.70710678118655
  0
LINE
  5
21B
100
AcDbEntity
  8
0
100
AcDbLine
  6
BYLAYER
 62
3
 10
82.2071067811865
 20
12.7071067811866
 11
97.0928932188135
 21
12.7071067811866
  0
LINE
  5
21C
100
AcDbEntity
  8
0
100
AcDbLine
  6
BYLAYER
 62
3
 10
82.2071067811865
 20
18.7071067811866
 11
97.0928932188135
 21
18.7071067811866
  0
LINE
  5
21D
100
AcDbEntity
  8
0
100
AcDbLine
  6
BYLAYER
 62
3
 10
114.807106781187
 20
0.707106781186553
 11
129.692893218813
 21
0.707106781186553
  0
LINE
  5
21E
100
AcDbEntity
  8
0
100
AcDbLine
  6
BYLAYER
 62
3
 10
114.807106781187
 20
6.70710678118655
 11
129.692893218813
 21
6.70710678118655
  0
LINE
  5
21F
100
AcDbEntity
  8
0
100
AcDbLine
  6
BYLAYER
 62
3
 10
114.807106781187
 20
12.7071067811866
 11
129.692893218813
 21
12.7071067811866
  0
LINE
  5
220
100
AcDbEntity
  8
0
100
AcDbLine
  6
BYLAYER
 62
3
 10
114.807106781187
 20
18.7071067811866
 11
129.692893218813
 21
18.7071067811866
  0
LINE
  5
221
100
AcDbEntity
  8
0
100
AcDbLine
  6
BYLAYER
 62
3
 10
163.707106781186
 20
0.707106781186553
 11
178.592893218813
 21
0.707106781186553
  0
LINE
  5
222
100
AcDbEntity
  8
0
100
AcDbLine
  6
BYLAYER
 62
3
 10
163.707106781186
 20
6.70710678118655
 11
178.592893218813
 21
6.70710678118655
  0
LINE
  5
223
100
AcDbEntity
  8
0
100
AcDbLine
  6
BYLAYER
 62
3
 10
163.707106781186
 20
12.7071067811866
 11
178.592893218813
 21
12.7071067811866
  0
LINE
  5
224
100
AcDbEntity
  8
0
100
AcDbLine
  6
BYLAYER
 62
3
 10
163.707106781186
 20
18.7071067811866
 11
178.592893218813
 21
18.7071067811866
  0
LINE
  5
225
100
AcDbEntity
  8
0
100
AcDbLine
  6
BYLAYER
 62
3
 10
147.407106781187
 20
0.707106781186553
 11
162.292893218814
 21
0.707106781186553
  0
LINE
  5
226
100
AcDbEntity
  8
0
100
AcDbLine
  6
BYLAYER
 62
3
 10
147.407106781187
 20
6.70710678118655
 11
162.292893218814
 21
6.70710678118655
  0
LINE
  5
227
100
AcDbEntity
  8
0
100
AcDbLine
  6
BYLAYER
 62
3
 10
147.407106781187
 20
12.7071067811866
 11
162.292893218814
 21
12.7071067811866
  0
LINE
  5
228
100
AcDbEntity
  8
0
100
AcDbLine
  6
BYLAYER
 62
3
 10
147.407106781187
 20
18.7071067811866
 11
162.292893218814
 21
18.7071067811866
  0
LINE
  5
229
100
AcDbEntity
  8
0
100
AcDbLine
  6
BYLAYER
 62
3
 10
180.007106781186
 20
0.707106781186553
 11
194.892893218813
 21
0.707106781186553
  0
LINE
  5
22A
100
AcDbEntity
  8
0
100
AcDbLine
  6
BYLAYER
 62
3
 10
180.007106781186
 20
6.70710678118655
 11
194.892893218813
 21
6.70710678118655
  0
LINE
  5
22B
100
AcDbEntity
  8
0
100
AcDbLine
  6
BYLAYER
 62
3
 10
180.007106781186
 20
12.7071067811866
 11
194.892893218813
 21
12.7071067811866
  0
LINE
  5
22C
100
AcDbEntity
  8
0
100
AcDbLine
  6
BYLAYER
 62
3
 10
180.007106781186
 20
18.7071067811866
 11
194.892893218813
 21
18.7071067811866
  0
LINE
  5
22D
100
AcDbEntity
  8
0
100
AcDbLine
  6
BYLAYER
 62
3
 10
131.107106781186
 20
24.7071067811866
 11
145.992893218813
 21
24.7071067811866
  0
LINE
  5
22E
100
AcDbEntity
  8
0
100
AcDbLine
  6
BYLAYER
 62
3
 10
131.107106781186
 20
30.7071067811865
 11
145.992893218813
 21
30.7071067811865
  0
LINE
  5
22F
100
AcDbEntity
  8
0
100
AcDbLine
  6
BYLAYER
 62
3
 10
131.107106781186
 20
36.7071067811866
 11
145.992893218813
 21
36.7071067811866
  0
LINE
  5
230
100
AcDbEntity
  8
0
100
AcDbLine
  6
BYLAYER
 62
3
 10
98.5071067811866
 20
24.7071067811866
 11
113.392893218813
 21
24.7071067811866
  0
LINE
  5
231
100
AcDbEntity
  8
0
100
AcDbLine
  6
BYLAYER
 62
3
 10
98.5071067811866
 20
30.7071067811865
 11
113.392893218813
 21
30.7071067811865
  0
LINE
  5
232
100
AcDbEntity
  8
0
100
AcDbLine
  6
BYLAYER
 62
3
 10
98.5071067811866
 20
36.7071067811866
 11
113.392893218813
 21
36.7071067811866
  0
LINE
  5
233
100
AcDbEntity
  8
0
100
AcDbLine
  6
BYLAYER
 62
3
 10
82.2071067811865
 20
24.7071067811866
 11
97.0928932188135
 21
24.7071067811866
  0
LINE
  5
234
100
AcDbEntity
  8
0
100
AcDbLine
  6
BYLAYER
 62
3
 10
82.2071067811865
 20
30.7071067811865
 11
97.0928932188135
 21
30.7071067811865
  0
LINE
  5
235
100
AcDbEntity
  8
0
100
AcDbLine
  6
BYLAYER
 62
3
 10
82.2071067811865
 20
36.7071067811866
 11
97.0928932188135
 21
36.7071067811866
  0
TEXT
  5
236
100
AcDbEntity
  8
0
100
AcDbText
  6
BYLAYER
 10
89
 20
43.5
 40
3
  1
D
  7
Font_0
100
AcDbText
  0
TEXT
  5
237
100
AcDbEntity
  8
0
100
AcDbText
  6
BYLAYER
 10
105.3
 20
43.5
 40
3
  1
E
  7
Font_0
100
AcDbText
  0
LINE
  5
238
100
AcDbEntity
  8
0
100
AcDbLine
  6
BYLAYER
 62
3
 10
114.807106781187
 20
24.7071067811866
 11
129.692893218813
 21
24.7071067811866
  0
LINE
  5
239
100
AcDbEntity
  8
0
100
AcDbLine
  6
BYLAYER
 62
3
 10
114.807106781187
 20
30.7071067811865
 11
129.692893218813
 21
30.7071067811865
  0
LINE
  5
23A
100
AcDbEntity
  8
0
100
AcDbLine
  6
BYLAYER
 62
3
 10
114.807106781187
 20
36.7071067811866
 11
129.692893218813
 21
36.7071067811866
  0
TEXT
  5
23B
100
AcDbEntity
  8
0
100
AcDbText
  6
BYLAYER
 10
121.8
 20
43.5
 40
3
  1
F
  7
Font_0
100
AcDbText
  0
TEXT
  5
23C
100
AcDbEntity
  8
0
100
AcDbText
  6
BYLAYER
 10
137.8
 20
43.5
 40
3
  1
G
  7
Font_0
100
AcDbText
  0
LINE
  5
23D
100
AcDbEntity
  8
0
100
AcDbLine
  6
BYLAYER
 62
3
 10
163.707106781186
 20
24.7071067811866
 11
178.592893218813
 21
24.7071067811866
  0
LINE
  5
23E
100
AcDbEntity
  8
0
100
AcDbLine
  6
BYLAYER
 62
3
 10
163.707106781186
 20
30.7071067811865
 11
178.592893218813
 21
30.7071067811865
  0
LINE
  5
23F
100
AcDbEntity
  8
0
100
AcDbLine
  6
BYLAYER
 62
3
 10
163.707106781186
 20
36.7071067811866
 11
178.592893218813
 21
36.7071067811866
  0
LINE
  5
240
100
AcDbEntity
  8
0
100
AcDbLine
  6
BYLAYER
 62
3
 10
147.407106781187
 20
24.7071067811866
 11
162.292893218814
 21
24.7071067811866
  0
LINE
  5
241
100
AcDbEntity
  8
0
100
AcDbLine
  6
BYLAYER
 62
3
 10
147.407106781187
 20
30.7071067811865
 11
162.292893218814
 21
30.7071067811865
  0
LINE
  5
242
100
AcDbEntity
  8
0
100
AcDbLine
  6
BYLAYER
 62
3
 10
147.407106781187
 20
36.7071067811866
 11
162.292893218814
 21
36.7071067811866
  0
TEXT
  5
243
100
AcDbEntity
  8
0
100
AcDbText
  6
BYLAYER
 10
153.5
 20
43.5
 40
3
  1
H
  7
Font_0
100
AcDbText
  0
TEXT
  5
244
100
AcDbEntity
  8
0
100
AcDbText
  6
BYLAYER
 10
171.5
 20
43.5
 40
3
  1
I
  7
Font_0
100
AcDbText
  0
LINE
  5
245
100
AcDbEntity
  8
0
100
AcDbLine
  6
BYLAYER
 62
3
 10
180.007106781186
 20
24.7071067811866
 11
194.892893218813
 21
24.7071067811866
  0
LINE
  5
246
100
AcDbEntity
  8
0
100
AcDbLine
  6
BYLAYER
 62
3
 10
180.007106781186
 20
30.7071067811865
 11
194.892893218813
 21
30.7071067811865
  0
LINE
  5
247
100
AcDbEntity
  8
0
100
AcDbLine
  6
BYLAYER
 62
3
 10
180.007106781186
 20
36.7071067811866
 11
194.892893218813
 21
36.7071067811866
  0
TEXT
  5
248
100
AcDbEntity
  8
0
100
AcDbText
  6
BYLAYER
 10
186.6
 20
43.5
 40
3
  1
J
  7
Font_0
100
AcDbText
  0
TEXT
  5
249
100
AcDbEntity
  8
0
100
AcDbText
  6
BYLAYER
 10
202.5
 20
43.5
 40
3
  1
K
  7
Font_0
100
AcDbText
  0
LINE
  5
24A
100
AcDbEntity
  8
0
100
AcDbLine
  6
BYLAYER
 10
244.5
 20
48
 11
244.5
 21
0
  0
LINE
  5
24B
100
AcDbEntity
  8
0
100
AcDbLine
  6
BYLAYER
 10
211.9
 20
48
 11
211.9
 21
0
  0
LINE
  5
24C
100
AcDbEntity
  8
0
100
AcDbLine
  6
BYLAYER
 10
228.2
 20
48
 11
228.2
 21
0
  0
LINE
  5
24D
100
AcDbEntity
  8
0
100
AcDbLine
  6
BYLAYER
 62
3
 10
228.907106781187
 20
0.707106781186553
 11
243.792893218814
 21
0.707106781186553
  0
LINE
  5
24E
100
AcDbEntity
  8
0
100
AcDbLine
  6
BYLAYER
 62
3
 10
228.907106781187
 20
6.70710678118655
 11
243.792893218814
 21
6.70710678118655
  0
LINE
  5
24F
100
AcDbEntity
  8
0
100
AcDbLine
  6
BYLAYER
 62
3
 10
228.907106781187
 20
12.7071067811866
 11
243.792893218814
 21
12.7071067811866
  0
LINE
  5
250
100
AcDbEntity
  8
0
100
AcDbLine
  6
BYLAYER
 62
3
 10
228.907106781187
 20
18.7071067811866
 11
243.792893218814
 21
18.7071067811866
  0
LINE
  5
251
100
AcDbEntity
  8
0
100
AcDbLine
  6
BYLAYER
 62
3
 10
212.607106781186
 20
0.707106781186553
 11
227.492893218814
 21
0.707106781186553
  0
LINE
  5
252
100
AcDbEntity
  8
0
100
AcDbLine
  6
BYLAYER
 62
3
 10
212.607106781186
 20
6.70710678118655
 11
227.492893218814
 21
6.70710678118655
  0
LINE
  5
253
100
AcDbEntity
  8
0
100
AcDbLine
  6
BYLAYER
 62
3
 10
212.607106781186
 20
12.7071067811866
 11
227.492893218814
 21
12.7071067811866
  0
LINE
  5
254
100
AcDbEntity
  8
0
100
AcDbLine
  6
BYLAYER
 62
3
 10
212.607106781186
 20
18.7071067811866
 11
227.492893218814
 21
18.7071067811866
  0
LINE
  5
255
100
AcDbEntity
  8
0
100
AcDbLine
  6
BYLAYER
 62
3
 10
228.907106781187
 20
24.7071067811866
 11
243.792893218814
 21
24.7071067811866
  0
LINE
  5
256
100
AcDbEntity
  8
0
100
AcDbLine
  6
BYLAYER
 62
3
 10
228.907106781187
 20
30.7071067811865
 11
243.792893218814
 21
30.7071067811865
  0
LINE
  5
257
100
AcDbEntity
  8
0
100
AcDbLine
  6
BYLAYER
 62
3
 10
228.907106781187
 20
36.7071067811866
 11
243.792893218814
 21
36.7071067811866
  0
LINE
  5
258
100
AcDbEntity
  8
0
100
AcDbLine
  6
BYLAYER
 62
3
 10
212.607106781186
 20
24.7071067811866
 11
227.492893218814
 21
24.7071067811866
  0
LINE
  5
259
100
AcDbEntity
  8
0
100
AcDbLine
  6
BYLAYER
 62
3
 10
212.607106781186
 20
30.7071067811865
 11
227.492893218814
 21
30.7071067811865
  0
LINE
  5
25A
100
AcDbEntity
  8
0
100
AcDbLine
  6
BYLAYER
 62
3
 10
212.607106781186
 20
36.7071067811866
 11
227.492893218814
 21
36.7071067811866
  0
TEXT
  5
25B
100
AcDbEntity
  8
0
100
AcDbText
  6
BYLAYER
 10
219
 20
43.5
 40
3
  1
L
  7
Font_0
100
AcDbText
  0
TEXT
  5
25C
100
AcDbEntity
  8
0
100
AcDbText
  6
BYLAYER
 10
233.270544856686
 20
43.5
 40
3
  1
ｫﾈ､�
  7
Font_0
100
AcDbText
  0
ENDBLK
  5
25D
100
AcDbEntity
  8
0
 67
     1
100
AcDbBlockEnd
  0
BLOCK
  5
25E
100
AcDbEntity
  8
0
100
AcDbBlockBegin
  2
BASE
 70
    0
 10
0
 20
0
 30
0.0
  3
BASE
  1

  0
LINE
  5
25F
100
AcDbEntity
  8
0
100
AcDbLine
  6
BYLAYER
 10
0
 20
36
 11
278.4
 21
36
  0
LINE
  5
260
100
AcDbEntity
  8
0
100
AcDbLine
  6
BYLAYER
 10
0
 20
12
 11
278.4
 21
12
  0
LINE
  5
261
100
AcDbEntity
  8
0
100
AcDbLine
  6
BYLAYER
 10
0
 20
6
 11
278.4
 21
6
  0
LINE
  5
262
100
AcDbEntity
  8
0
100
AcDbLine
  6
BYLAYER
 10
0
 20
0
 11
278.4
 21
0
  0
LINE
  5
263
100
AcDbEntity
  8
0
100
AcDbLine
  6
BYLAYER
 10
278.4
 20
186
 11
0
 21
186
  0
LINE
  5
264
100
AcDbEntity
  8
0
100
AcDbLine
  6
BYLAYER
 10
96.85
 20
30
 11
278.4
 21
30
  0
LINE
  5
265
100
AcDbEntity
  8
0
100
AcDbLine
  6
BYLAYER
 10
96.85
 20
24
 11
278.4
 21
24
  0
LINE
  5
266
100
AcDbEntity
  8
0
100
AcDbLine
  6
BYLAYER
 10
96.85
 20
18
 11
278.4
 21
18
  0
LINE
  5
267
100
AcDbEntity
  8
0
100
AcDbLine
  6
BYLAYER
 10
0
 20
0
 11
0
 21
186
  0
TEXT
  5
268
100
AcDbEntity
  8
0
100
AcDbText
  6
BYLAYER
 10
22.1680110084321
 20
15.7553550725962
 40
2.8
  1
CAM YORK INDUSTRIAL CO.,LTD.
  7
Font_0
100
AcDbText
  0
TEXT
  5
269
100
AcDbEntity
  8
0
100
AcDbText
  6
BYLAYER
 10
22.0468952754036
 20
26
 40
7
  1
ｫﾘｷﾔ､uｷ~ｪﾑ･ｳｭｭ､ｽ･q
  7
Font_0
100
AcDbText
  0
TEXT
  5
26A
100
AcDbEntity
  8
0
100
AcDbText
  6
BYLAYER
 10
63.8643398403977
 20
7.09411371042404
 40
2.8
  1
(04)3322629
  7
Font_0
100
AcDbText
  0
LINE
  5
26B
100
AcDbEntity
  8
0
100
AcDbLine
  6
BYLAYER
 10
10.1054905349494
 20
28.7603510666656
 11
15.2233703294355
 21
28.7603510666656
  0
CIRCLE
  5
26C
100
AcDbEntity
  8
0
100
AcDbCircle
  6
BYLAYER
 10
10.1054905349494
 20
24.350263158651
 40
9.36463111331499
  0
CIRCLE
  5
26D
100
AcDbEntity
  8
0
100
AcDbCircle
  6
BYLAYER
 10
10.1054905349494
 20
24.350263158651
 40
7.62237416200057
  0
ARC
  5
26E
100
AcDbEntity
  8
0
100
AcDbCircle
  6
BYLAYER
 10
10.1054905349494
 20
24.350263158651
 40
4.41008790801462
100
AcDbArc
 50
90
 51
0
  0
LINE
  5
26F
100
AcDbEntity
  8
0
100
AcDbLine
  6
BYLAYER
 10
13
 20
12
 11
13
 21
0
  0
TEXT
  5
270
100
AcDbEntity
  8
0
100
AcDbText
  6
BYLAYER
 10
2.6
 20
7.3
 40
3
  1
TEL
  7
Font_0
100
AcDbText
  0
TEXT
  5
271
100
AcDbEntity
  8
0
100
AcDbText
  6
BYLAYER
 10
3.5
 20
1.5
 40
3
  1
ｳﾆｵ�
  7
Font_0
 72
1
 11
6.5
 21
3
100
AcDbText
 73
2
  0
ARC
  5
272
100
AcDbEntity
  8
0
100
AcDbCircle
  6
BYLAYER
 10
10.5745216067836
 20
32.8983997393573
 40
0.704372460813671
100
AcDbArc
 50
83.8529806316668
 51
239.250071636948
  0
ARC
  5
273
100
AcDbEntity
  8
0
100
AcDbCircle
  6
BYLAYER
 10
6.23761506796892
 20
31.9876821284788
 40
0.704372460813671
100
AcDbArc
 50
113.852980631667
 51
269.250071636948
  0
ARC
  5
274
100
AcDbEntity
  8
0
100
AcDbCircle
  6
BYLAYER
 10
2.46807156512152
 20
20.4823876916705
 40
0.704372460813671
100
AcDbArc
 50
203.852980631667
 51
359.250071636948
  0
ARC
  5
275
100
AcDbEntity
  8
0
100
AcDbCircle
  6
BYLAYER
 10
9.63645946311512
 20
15.8021265779447
 40
0.704372460813671
100
AcDbArc
 50
263.852980631667
 51
59.2500716369476
  0
ARC
  5
276
100
AcDbEntity
  8
0
100
AcDbCircle
  6
BYLAYER
 10
5.4252294212235
 20
17.1818752606574
 40
0.704372460813671
100
AcDbArc
 50
233.852980631667
 51
29.2500716369476
  0
ARC
  5
277
100
AcDbEntity
  8
0
100
AcDbCircle
  6
BYLAYER
 10
1.55735395424306
 20
24.8192942304852
 40
0.704372460813671
100
AcDbArc
 50
173.852980631667
 51
329.250071636948
  0
ARC
  5
278
100
AcDbEntity
  8
0
100
AcDbCircle
  6
BYLAYER
 10
2.93710263695578
 20
29.0305242723768
 40
0.704372460813671
100
AcDbArc
 50
143.852980631667
 51
299.250071636948
  0
TEXT
  5
279
100
AcDbEntity
  8
0
100
AcDbText
  6
BYLAYER
 10
7.49210581170385
 20
21.8477388856442
 40
5
  1
Y
  7
Font_0
100
AcDbText
  0
TEXT
  5
27A
100
AcDbEntity
  8
0
100
AcDbText
  6
BYLAYER
 10
42.3478047909238
 20
7.2
 40
2.8
  1
~8
  7
Font_0
100
AcDbText
  0
TEXT
  5
27B
100
AcDbEntity
  8
0
100
AcDbText
  6
BYLAYER
 10
13.8764304985659
 20
7.2
 40
2.8
  1
(04)3322627
  7
Font_0
100
AcDbText
  0
TEXT
  5
27C
100
AcDbEntity
  8
0
100
AcDbText
  6
BYLAYER
 10
51
 20
7.2
 40
3
  1
FAX
  7
Font_0
100
AcDbText
  0
LINE
  5
27D
100
AcDbEntity
  8
0
100
AcDbLine
  6
BYLAYER
 10
48
 20
12
 11
48
 21
6
  0
LINE
  5
27E
100
AcDbEntity
  8
0
100
AcDbLine
  6
BYLAYER
 10
62
 20
12
 11
62
 21
6
  0
ARC
  5
27F
100
AcDbEntity
  8
0
100
AcDbCircle
  6
BYLAYER
 10
14.7857516486752
 20
31.5186510566446
 40
0.704372460813671
100
AcDbArc
 50
53.8529806316668
 51
209.250071636948
  0
ARC
  5
280
100
AcDbEntity
  8
0
100
AcDbCircle
  6
BYLAYER
 10
17.273878432943
 20
19.6700020449251
 40
0.704372460813671
100
AcDbArc
 50
323.852980631667
 51
119.250071636948
  0
ARC
  5
281
100
AcDbEntity
  8
0
100
AcDbCircle
  6
BYLAYER
 10
13.9733660019298
 20
16.7128441888231
 40
0.704372460813671
100
AcDbArc
 50
293.852980631667
 51
89.2500716369476
  0
LINE
  5
282
100
AcDbEntity
  8
0
100
AcDbLine
  6
BYLAYER
 10
14.515578442964
 20
24.350263158651
 11
15.4411524483498
 21
24.350263158651
  0
ARC
  5
283
100
AcDbEntity
  8
0
100
AcDbCircle
  6
BYLAYER
 10
18.6536271156557
 20
23.8812320868167
 40
0.704372460813671
100
AcDbArc
 50
353.852980631667
 51
149.250071636948
  0
ARC
  5
284
100
AcDbEntity
  8
0
100
AcDbCircle
  6
BYLAYER
 10
17.7429095047772
 20
28.2181386256314
 40
0.704372460813671
100
AcDbArc
 50
23.8529806316668
 51
179.250071636948
  0
TEXT
  5
285
100
AcDbEntity
  8
0
100
AcDbText
  6
BYLAYER
 10
100.4
 20
7.4
 40
3
  1
ｫ~ ｦW
  7
Font_0
100
AcDbText
  0
LINE
  5
286
100
AcDbEntity
  8
0
100
AcDbLine
  6
BYLAYER
 10
144
 20
36
 11
144
 21
0
  0
LINE
  5
287
100
AcDbEntity
  8
0
100
AcDbLine
  6
BYLAYER
 10
114
 20
36
 11
114
 21
0
  0
LINE
  5
288
100
AcDbEntity
  8
0
100
AcDbLine
  6
BYLAYER
 10
97.15
 20
36
 11
97.15
 21
0
  0
LINE
  5
289
100
AcDbEntity
  8
0
100
AcDbLine
  6
BYLAYER
 10
96.85
 20
36
 11
96.85
 21
0
  0
TEXT
  5
28A
100
AcDbEntity
  8
0
100
AcDbText
  6
BYLAYER
 10
100.4
 20
1.6
 40
3
  1
ｹﾏ ｸｹ
  7
Font_0
100
AcDbText
  0
TEXT
  5
28B
100
AcDbEntity
  8
0
100
AcDbText
  6
BYLAYER
 10
100.4
 20
31.6
 40
3
  1
･D ｺﾞ
  7
Font_0
100
AcDbText
  0
TEXT
  5
28C
100
AcDbEntity
  8
0
100
AcDbText
  6
BYLAYER
 10
100.4
 20
19.6
 40
3
  1
ﾃｸ ｹﾏ
  7
Font_0
100
AcDbText
  0
TEXT
  5
28D
100
AcDbEntity
  8
0
100
AcDbText
  6
BYLAYER
 10
100.4
 20
13.8
 40
3
  1
ｾ� ｺﾘ
  7
Font_0
100
AcDbText
  0
TEXT
  5
28E
100
AcDbEntity
  8
0
100
AcDbText
  6
BYLAYER
 10
100.4
 20
25.4
 40
3
  1
ｮﾖ ｹ�
  7
Font_0
100
AcDbText
  0
LINE
  5
28F
100
AcDbEntity
  8
0
100
AcDbLine
  6
BYLAYER
 10
195.15
 20
36
 11
195.15
 21
0
  0
LINE
  5
290
100
AcDbEntity
  8
0
100
AcDbLine
  6
BYLAYER
 10
194.85
 20
36
 11
194.85
 21
0
  0
LINE
  5
291
100
AcDbEntity
  8
0
100
AcDbLine
  6
BYLAYER
 10
195.025
 20
36
 11
195.025
 21
0
  0
LINE
  5
292
100
AcDbEntity
  8
0
100
AcDbLine
  6
BYLAYER
 10
163
 20
36
 11
163
 21
0
  0
TEXT
  5
293
100
AcDbEntity
  8
0
100
AcDbText
  6
BYLAYER
 10
146.967830348543
 20
7.5
 40
3
  1
ｪ揵ｱｳBｲz
  7
Font_0
100
AcDbText
  0
TEXT
  5
294
100
AcDbEntity
  8
0
100
AcDbText
  6
BYLAYER
 10
146.967830348543
 20
1.5
 40
3
  1
ｻsｹﾏ､魘ﾁ
  7
Font_0
100
AcDbText
  0
TEXT
  5
295
100
AcDbEntity
  8
0
100
AcDbText
  6
BYLAYER
 10
148.5
 20
31.5
 40
3
  1
ｧ� ｽ�
  7
Font_0
100
AcDbText
  0
TEXT
  5
296
100
AcDbEntity
  8
0
100
AcDbText
  6
BYLAYER
 10
148.5
 20
19.5
 40
3
  1
ｼﾆ ｶq
  7
Font_0
100
AcDbText
  0
TEXT
  5
297
100
AcDbEntity
  8
0
100
AcDbText
  6
BYLAYER
 10
148.5
 20
13.5
 40
3
  1
ｳ� ｦ�
  7
Font_0
100
AcDbText
  0
TEXT
  5
298
100
AcDbEntity
  8
0
100
AcDbText
  6
BYLAYER
 10
148.5
 20
25.5
 40
3
  1
､� ｨﾒ
  7
Font_0
100
AcDbText
  0
TEXT
  5
299
100
AcDbEntity
  8
0
100
AcDbText
  6
BYLAYER
 10
200.830454348633
 20
31.5
 40
3
  1
､魘ﾁ
  7
Font_0
100
AcDbText
  0
LINE
  5
29A
100
AcDbEntity
  8
0
100
AcDbLine
  6
BYLAYER
 10
278.4
 20
186
 11
278.4
 21
0
  0
LINE
  5
29B
100
AcDbEntity
  8
0
100
AcDbLine
  6
BYLAYER
 10
269.7178125
 20
135.285
 11
269.7178125
 21
151.27125
  0
LINE
  5
29C
100
AcDbEntity
  8
0
100
AcDbLine
  6
BYLAYER
 10
261.035625
 20
135.285
 11
261.035625
 21
151.27125
  0
LINE
  5
29D
100
AcDbEntity
  8
0
100
AcDbLine
  6
BYLAYER
 10
252.3534375
 20
135.285
 11
252.3534375
 21
151.27125
  0
LINE
  5
29E
100
AcDbEntity
  8
0
100
AcDbLine
  6
BYLAYER
 10
243.67125
 20
135.285
 11
243.67125
 21
180.4875
  0
LINE
  5
29F
100
AcDbEntity
  8
0
100
AcDbLine
  6
BYLAYER
 10
221.07
 20
135.285
 11
221.07
 21
180.4875
  0
LINE
  5
2A0
100
AcDbEntity
  8
0
100
AcDbLine
  6
BYLAYER
 10
216.66
 20
135.285
 11
216.66
 21
186
  0
LINE
  5
2A1
100
AcDbEntity
  8
0
100
AcDbLine
  6
BYLAYER
 10
213
 20
36
 11
213
 21
0
  0
LINE
  5
2A2
100
AcDbEntity
  8
0
100
AcDbLine
  6
BYLAYER
 10
232
 20
36
 11
232
 21
0
  0
TEXT
  5
2A3
100
AcDbEntity
  8
0
100
AcDbText
  6
BYLAYER
 10
235
 20
31.5
 40
3
  1
ｧ�   ｧ�   ､ｺ   ｮe
  7
Font_0
100
AcDbText
  0
TEXT
  5
2A4
100
AcDbEntity
  8
0
100
AcDbText
  6
BYLAYER
 10
218.659856969007
 20
31.5
 40
3
  1
ｭtｳd､H
  7
Font_0
100
AcDbText
  0
LINE
  5
2A5
100
AcDbEntity
  8
0
100
AcDbLine
  6
BYLAYER
 10
278.4
 20
139.695
 11
221.07
 21
139.695
  0
LINE
  5
2A6
100
AcDbEntity
  8
0
100
AcDbLine
  6
BYLAYER
 10
278.4
 20
135.285
 11
216.66
 21
135.285
  0
TEXT
  5
2A7
100
AcDbEntity
  8
0
100
AcDbText
  6
BYLAYER
 10
246.15416478566
 20
128.207003496756
 40
2
  1
projection ｲﾄ､Tｨ､ｧ�ｼv
  7
Font_0
100
AcDbText
  0
LINE
  5
2A8
100
AcDbEntity
  8
0
100
AcDbLine
  6
BYLAYER
 10
278.4
 20
113.78625
 11
243.67125
 21
113.78625
  0
TEXT
  5
2A9
100
AcDbEntity
  8
0
100
AcDbText
  6
BYLAYER
 10
271.4339125
 20
144.733125
 40
1.5
  1
100･H､W
  7
Font_0
 72
1
 11
274.0589125
 21
145.483125
100
AcDbText
 73
2
  0
TEXT
  5
2AA
100
AcDbEntity
  8
0
100
AcDbText
  6
BYLAYER
 10
272.1839125
 20
136.74
 40
1.5
  1
±10'
  7
Font_0
 72
1
 11
274.0589125
 21
137.49
100
AcDbText
 73
2
  0
MTEXT
  5
2AB
100
AcDbEntity
  8
0
100
AcDbMText
 10
232.37065
 20
145.483125
 40
2
 41
  0.0
  1
､ｽｺﾙ､ﾘ､o (ｪﾗ)\Pｧｨｦｨｨ､､ｧｵuﾃ荀@､�
 71
5
  7
Font_0
  0
TEXT
  5
2AC
100
AcDbEntity
  8
0
100
AcDbText
  6
BYLAYER
 10
217.365
 20
147.778125
 40
3
  1
ｪｽｨ､ｫﾗ
  7
Font_1
 50
270
 11
218.865
 21
147.778125
100
AcDbText
 73
2
  0
TEXT
  5
2AD
100
AcDbEntity
  8
0
100
AcDbText
  6
BYLAYER
 10
227.87065
 20
135.99
 40
3
  1
ｨ､ｫﾗｮt
  7
Font_0
 72
1
 11
232.37065
 21
137.49
100
AcDbText
 73
2
  0
LINE
  5
2AE
100
AcDbEntity
  8
0
100
AcDbLine
  6
BYLAYER
 10
254.802068029839
 20
115.173423624616
 11
254.802068029839
 21
126.198423624616
  0
LINE
  5
2AF
100
AcDbEntity
  8
0
100
AcDbLine
  6
BYLAYER
 10
243.67125
 20
113.78625
 11
243.67125
 21
135.285
  0
CIRCLE
  5
2B0
100
AcDbEntity
  8
0
100
AcDbCircle
  6
BYLAYER
 10
254.802068029839
 20
120.685923624616
 40
4.41
  0
LINE
  5
2B1
100
AcDbEntity
  8
0
100
AcDbLine
  6
BYLAYER
 10
249.289568029839
 20
120.685923624616
 11
260.314568029839
 21
120.685923624616
  0
CIRCLE
  5
2B2
100
AcDbEntity
  8
0
100
AcDbCircle
  6
BYLAYER
 10
254.802068029839
 20
120.685923624616
 40
2.205
  0
LINE
  5
2B3
100
AcDbEntity
  8
0
100
AcDbLine
  6
BYLAYER
 10
263.194180551461
 20
120.685923624616
 11
274.770430551461
 21
120.685923624616
  0
LWPOLYLINE
  5
2B4
100
AcDbEntity
  8
0
100
AcDbPolyline
  6
BYLAYER
370
0
 90
     4
 70
     1
 10
264.296680551461
  20
118.480923624616
 10
273.667930551461
  20
116.275923624616
 10
273.667930551461
  20
125.095923624616
 10
264.296680551461
  20
122.890923624616
  0
TEXT
  5
2B5
100
AcDbEntity
  8
0
100
AcDbText
  6
BYLAYER
 10
245.828721587618
 20
131.605971951227
 40
2
  1
Third angle
  7
Font_0
100
AcDbText
  0
MTEXT
  5
2B6
100
AcDbEntity
  8
0
100
AcDbMText
 10
256.6945375
 20
145.483125
 40
1.5
 41
  0.0
  1
10･H､W\P50･H､U
 71
5
  7
Font_0
  0
TEXT
  5
2B7
100
AcDbEntity
  8
0
100
AcDbText
  6
BYLAYER
 10
246.13735
 20
136.74
 40
1.5
  1
±1°
  7
Font_0
 72
1
 11
248.01235
 21
137.49
100
AcDbText
 73
2
  0
TEXT
  5
2B8
100
AcDbEntity
  8
0
100
AcDbText
  6
BYLAYER
 10
254.8195375
 20
136.74
 40
1.5
  1
±30'
  7
Font_0
 72
1
 11
256.6945375
 21
137.49
100
AcDbText
 73
2
  0
TEXT
  5
2B9
100
AcDbEntity
  8
0
100
AcDbText
  6
BYLAYER
 10
245.76235
 20
144.733125
 40
1.5
  1
10･H､U
  7
Font_0
 72
1
 11
248.01235
 21
145.483125
100
AcDbText
 73
2
  0
TEXT
  5
2BA
100
AcDbEntity
  8
0
100
AcDbText
  6
BYLAYER
 10
263.501725
 20
136.74
 40
1.5
  1
±20'
  7
Font_0
 72
1
 11
265.376725
 21
137.49
100
AcDbText
 73
2
  0
MTEXT
  5
2BB
100
AcDbEntity
  8
0
100
AcDbMText
 10
265.376725
 20
145.483125
 40
1.5
 41
  0.0
  1
50･H､W\P100･H､U
 71
5
  7
Font_0
  0
LINE
  5
2BC
100
AcDbEntity
  8
0
100
AcDbLine
  6
BYLAYER
 10
221.07
 20
155.68125
 11
278.4
 21
155.68125
  0
LINE
  5
2BD
100
AcDbEntity
  8
0
100
AcDbLine
  6
BYLAYER
 10
221.07
 20
160.09125
 11
278.4
 21
160.09125
  0
LINE
  5
2BE
100
AcDbEntity
  8
0
100
AcDbLine
  6
BYLAYER
 10
221.07
 20
164.50125
 11
278.4
 21
164.50125
  0
LINE
  5
2BF
100
AcDbEntity
  8
0
100
AcDbLine
  6
BYLAYER
 10
221.07
 20
168.91125
 11
278.4
 21
168.91125
  0
LINE
  5
2C0
100
AcDbEntity
  8
0
100
AcDbLine
  6
BYLAYER
 10
221.07
 20
173.32125
 11
278.4
 21
173.32125
  0
LINE
  5
2C1
100
AcDbEntity
  8
0
100
AcDbLine
  6
BYLAYER
 10
216.66
 20
151.27125
 11
278.4
 21
151.27125
  0
LINE
  5
2C2
100
AcDbEntity
  8
0
100
AcDbLine
  6
BYLAYER
 10
216.66
 20
180.4875
 11
278.4
 21
180.4875
  0
TEXT
  5
2C3
100
AcDbEntity
  8
0
100
AcDbText
  6
BYLAYER
 10
269.1119
 20
175.154375
 40
3.5
  1
ｲﾊｯﾅ
  7
Font_0
 72
1
 11
272.6119
 21
176.904375
100
AcDbText
 73
2
  0
LINE
  5
2C4
100
AcDbEntity
  8
0
100
AcDbLine
  6
BYLAYER
 10
243.67125
 20
173.32125
 11
232.06971689676
 21
180.4875
  0
TEXT
  5
2C5
100
AcDbEntity
  8
0
100
AcDbText
  6
BYLAYER
 10
230.03
 20
181.49375
 40
3.5
  1
ｦｨ ｫ~ ､ｧ ｴｶ ｳq ､ｽ ｮt
  7
Font_0
 72
1
 11
247.53
 21
183.24375
100
AcDbText
 73
2
  0
TEXT
  5
2C6
100
AcDbEntity
  8
0
100
AcDbText
  6
BYLAYER
 10
228.24565
 20
170.36625
 40
1.5
  1
1･H､W~4･H､U
  7
Font_0
 72
1
 11
232.37065
 21
171.11625
100
AcDbText
 73
2
  0
TEXT
  5
2C7
100
AcDbEntity
  8
0
100
AcDbText
  6
BYLAYER
 10
227.49565
 20
161.54625
 40
1.5
  1
16･H､W~63･H､U
  7
Font_0
 72
1
 11
232.37065
 21
162.29625
100
AcDbText
 73
2
  0
TEXT
  5
2C8
100
AcDbEntity
  8
0
100
AcDbText
  6
BYLAYER
 10
227.12065
 20
157.13625
 40
1.5
  1
63･H､W~250･H､U
  7
Font_0
 72
1
 11
232.37065
 21
157.88625
100
AcDbText
 73
2
  0
TEXT
  5
2C9
100
AcDbEntity
  8
0
100
AcDbText
  6
BYLAYER
 10
226.37065
 20
152.72625
 40
1.5
  1
250･H､W~1000･H､U
  7
Font_0
 72
1
 11
232.37065
 21
153.47625
100
AcDbText
 73
2
  0
MTEXT
  5
2CA
100
AcDbEntity
  8
0
100
AcDbMText
 10
218.865
 20
168.879375
 40
3
 41
  0.0
  1
ｪﾗ
 71
4
  7
Font_1
 11
-1.83690953073357E-16
 21
-1
  0
TEXT
  5
2CB
100
AcDbEntity
  8
0
100
AcDbText
  6
BYLAYER
 10
227.87065
 20
165.95625
 40
1.5
  1
4･H､W~16･H､U
  7
Font_0
 72
1
 11
232.37065
 21
166.70625
100
AcDbText
 73
2
  0
TEXT
  5
2CC
100
AcDbEntity
  8
0
100
AcDbText
  6
BYLAYER
 10
221.354797302298
 20
174.015263609177
 40
1.7
  1
､ｽｺﾙ､ﾘ､oｹｺ､ﾀm/m
  7
Font_0
100
AcDbText
  0
TEXT
  5
2CD
100
AcDbEntity
  8
0
100
AcDbText
  6
BYLAYER
 10
237.865638127741
 20
177.454836298923
 40
1.7
  1
ｵ･ｯﾅ
  7
Font_0
100
AcDbText
  0
LINE
  5
2CE
100
AcDbEntity
  8
0
100
AcDbLine
  6
BYLAYER
 10
266.82375
 20
151.27125
 11
266.82375
 21
180.4875
  0
LINE
  5
2CF
100
AcDbEntity
  8
0
100
AcDbLine
  6
BYLAYER
 10
255.2475
 20
151.27125
 11
255.2475
 21
180.4875
  0
TEXT
  5
2D0
100
AcDbEntity
  8
0
100
AcDbText
  6
BYLAYER
 10
247.2094
 20
170.36625
 40
1.5
  1
±0.05
  7
Font_0
 72
1
 11
249.4594
 21
171.11625
100
AcDbText
 73
2
  0
TEXT
  5
2D1
100
AcDbEntity
  8
0
100
AcDbText
  6
BYLAYER
 10
258.78565
 20
170.36625
 40
1.5
  1
±0.10
  7
Font_0
 72
1
 11
261.03565
 21
171.11625
100
AcDbText
 73
2
  0
TEXT
  5
2D2
100
AcDbEntity
  8
0
100
AcDbText
  6
BYLAYER
 10
270.3619
 20
170.36625
 40
1.5
  1
±0.30
  7
Font_0
 72
1
 11
272.6119
 21
171.11625
100
AcDbText
 73
2
  0
TEXT
  5
2D3
100
AcDbEntity
  8
0
100
AcDbText
  6
BYLAYER
 10
258.78565
 20
165.95625
 40
1.5
  1
±0.20
  7
Font_0
 72
1
 11
261.03565
 21
166.70625
100
AcDbText
 73
2
  0
TEXT
  5
2D4
100
AcDbEntity
  8
0
100
AcDbText
  6
BYLAYER
 10
258.78565
 20
161.54625
 40
1.5
  1
±0.30
  7
Font_0
 72
1
 11
261.03565
 21
162.29625
100
AcDbText
 73
2
  0
TEXT
  5
2D5
100
AcDbEntity
  8
0
100
AcDbText
  6
BYLAYER
 10
258.78565
 20
157.13625
 40
1.5
  1
±0.50
  7
Font_0
 72
1
 11
261.03565
 21
157.88625
100
AcDbText
 73
2
  0
TEXT
  5
2D6
100
AcDbEntity
  8
0
100
AcDbText
  6
BYLAYER
 10
258.78565
 20
152.72625
 40
1.5
  1
±0.80
  7
Font_0
 72
1
 11
261.03565
 21
153.47625
100
AcDbText
 73
2
  0
TEXT
  5
2D7
100
AcDbEntity
  8
0
100
AcDbText
  6
BYLAYER
 10
247.2094
 20
157.13625
 40
1.5
  1
±0.20
  7
Font_0
 72
1
 11
249.4594
 21
157.88625
100
AcDbText
 73
2
  0
TEXT
  5
2D8
100
AcDbEntity
  8
0
100
AcDbText
  6
BYLAYER
 10
247.2094
 20
152.72625
 40
1.5
  1
±0.30
  7
Font_0
 72
1
 11
249.4594
 21
153.47625
100
AcDbText
 73
2
  0
TEXT
  5
2D9
100
AcDbEntity
  8
0
100
AcDbText
  6
BYLAYER
 10
247.2094
 20
165.95625
 40
1.5
  1
±0.07
  7
Font_0
 72
1
 11
249.4594
 21
166.70625
100
AcDbText
 73
2
  0
TEXT
  5
2DA
100
AcDbEntity
  8
0
100
AcDbText
  6
BYLAYER
 10
247.2094
 20
161.54625
 40
1.5
  1
±0.10
  7
Font_0
 72
1
 11
249.4594
 21
162.29625
100
AcDbText
 73
2
  0
TEXT
  5
2DB
100
AcDbEntity
  8
0
100
AcDbText
  6
BYLAYER
 10
270.3619
 20
152.72625
 40
1.5
  1
±2.00
  7
Font_0
 72
1
 11
272.6119
 21
153.47625
100
AcDbText
 73
2
  0
TEXT
  5
2DC
100
AcDbEntity
  8
0
100
AcDbText
  6
BYLAYER
 10
270.3619
 20
157.13625
 40
1.5
  1
±1.20
  7
Font_0
 72
1
 11
272.6119
 21
157.88625
100
AcDbText
 73
2
  0
TEXT
  5
2DD
100
AcDbEntity
  8
0
100
AcDbText
  6
BYLAYER
 10
270.3619
 20
161.54625
 40
1.5
  1
±0.70
  7
Font_0
 72
1
 11
272.6119
 21
162.29625
100
AcDbText
 73
2
  0
TEXT
  5
2DE
100
AcDbEntity
  8
0
100
AcDbText
  6
BYLAYER
 10
270.3619
 20
165.95625
 40
1.5
  1
±0.50
  7
Font_0
 72
1
 11
272.6119
 21
166.70625
100
AcDbText
 73
2
  0
TEXT
  5
2DF
100
AcDbEntity
  8
0
100
AcDbText
  6
BYLAYER
 10
257.5356
 20
175.154375
 40
3.5
  1
､､ｯﾅ
  7
Font_0
 72
1
 11
261.0356
 21
176.904375
100
AcDbText
 73
2
  0
TEXT
  5
2E0
100
AcDbEntity
  8
0
100
AcDbText
  6
BYLAYER
 10
245.9594
 20
175.154375
 40
3.5
  1
ｲﾓｯﾅ
  7
Font_0
 72
1
 11
249.4594
 21
176.904375
100
AcDbText
 73
2
  0
ENDBLK
  5
2E1
100
AcDbEntity
  8
0
 67
     1
100
AcDbBlockEnd
  0
BLOCK
  5
2E2
100
AcDbEntity
  8
0
100
AcDbBlockBegin
  2
LIST
 70
    0
 10
0
 20
0
 30
0.0
  3
LIST
  1

  0
LINE
  5
2E3
100
AcDbEntity
  8
TEXT
100
AcDbLine
  6
BYLAYER
 10
-2.84E-14
 20
48
 11
83.2499999999999
 21
48
  0
LINE
  5
2E4
100
AcDbEntity
  8
TEXT
100
AcDbLine
  6
BYLAYER
 10
-2.84E-14
 20
42
 11
83.2499999999999
 21
42
  0
LINE
  5
2E5
100
AcDbEntity
  8
TEXT
100
AcDbLine
  6
BYLAYER
 10
-2.84E-14
 20
36
 11
83.2499999999999
 21
36
  0
LINE
  5
2E6
100
AcDbEntity
  8
TEXT
100
AcDbLine
  6
BYLAYER
 10
-2.84E-14
 20
30
 11
83.2499999999999
 21
30
  0
LINE
  5
2E7
100
AcDbEntity
  8
TEXT
100
AcDbLine
  6
BYLAYER
 10
-2.84E-14
 20
24
 11
83.2499999999999
 21
24
  0
LINE
  5
2E8
100
AcDbEntity
  8
TEXT
100
AcDbLine
  6
BYLAYER
 10
-2.84E-14
 20
18
 11
83.2499999999999
 21
18
  0
LINE
  5
2E9
100
AcDbEntity
  8
TEXT
100
AcDbLine
  6
BYLAYER
 10
-2.84E-14
 20
12
 11
83.2499999999999
 21
12
  0
LINE
  5
2EA
100
AcDbEntity
  8
TEXT
100
AcDbLine
  6
BYLAYER
 10
-2.84E-14
 20
5.99999999999997
 11
83.2499999999999
 21
6
  0
TEXT
  5
2EB
100
AcDbEntity
  8
TEXT
100
AcDbText
  6
BYLAYER
 10
8.82499999999999
 20
18.7071067811865
 40
3.5
  1
C
  7
Font_0
 72
1
 11
9.69999999999999
 21
18.7071067811865
100
AcDbText
  0
LINE
  5
2EC
100
AcDbEntity
  8
TEXT
100
AcDbLine
  6
BYLAYER
 10
0
 20
48
 11
0
 21
0
  0
TEXT
  5
2ED
100
AcDbEntity
  8
TEXT
100
AcDbText
  6
BYLAYER
 10
8.82499999999999
 20
6.70710678118655
 40
3.5
  1
A
  7
Font_0
 72
1
 11
9.69999999999999
 21
6.70710678118655
100
AcDbText
  0
TEXT
  5
2EE
100
AcDbEntity
  8
TEXT
100
AcDbText
  6
BYLAYER
 10
6.49999999999997
 20
0.707106781186553
 40
3.5
  1
ｶｵｦｸ
  7
Font_0
 72
1
 11
9.99999999999997
 21
0.707106781186553
100
AcDbText
  0
TEXT
  5
2EF
100
AcDbEntity
  8
TEXT
100
AcDbText
  6
BYLAYER
 10
8.82499999999999
 20
12.7071067811866
 40
3.5
  1
B
  7
Font_0
 72
1
 11
9.69999999999999
 21
12.7071067811866
100
AcDbText
  0
TEXT
  5
2F0
100
AcDbEntity
  8
TEXT
100
AcDbText
  6
BYLAYER
 10
8.82499999999999
 20
42.7071067811866
 40
3.5
  1
G
  7
Font_0
 72
1
 11
9.69999999999999
 21
42.7071067811866
100
AcDbText
  0
TEXT
  5
2F1
100
AcDbEntity
  8
TEXT
100
AcDbText
  6
BYLAYER
 10
8.82499999999999
 20
30.7071067811865
 40
3.5
  1
E
  7
Font_0
 72
1
 11
9.69999999999999
 21
30.7071067811865
100
AcDbText
  0
TEXT
  5
2F2
100
AcDbEntity
  8
TEXT
100
AcDbText
  6
BYLAYER
 10
8.82499999999999
 20
24.7071067811866
 40
3.5
  1
D
  7
Font_0
 72
1
 11
9.69999999999999
 21
24.7071067811866
100
AcDbText
  0
TEXT
  5
2F3
100
AcDbEntity
  8
TEXT
100
AcDbText
  6
BYLAYER
 10
8.82499999999999
 20
36.7071067811866
 40
3.5
  1
F
  7
Font_0
 72
1
 11
9.69999999999999
 21
36.7071067811866
100
AcDbText
  0
TEXT
  5
2F4
100
AcDbEntity
  8
TEXT
100
AcDbText
  6
BYLAYER
 10
77.3935238436447
 20
18.7071067811866
 40
3.5
  1
1
  7
Font_0
 72
1
 11
78.2685238436447
 21
18.7071067811866
100
AcDbText
  0
TEXT
  5
2F5
100
AcDbEntity
  8
TEXT
100
AcDbText
  6
BYLAYER
 10
20.7
 20
18.7071067811866
 40
3.5
  1
A
  7
Font_0
100
AcDbText
  0
LINE
  5
2F6
100
AcDbEntity
  8
TEXT
100
AcDbLine
  6
BYLAYER
 10
73.8870476872896
 20
48
 11
73.8870476872896
 21
-1.42E-14
  0
LINE
  5
2F7
100
AcDbEntity
  8
TEXT
100
AcDbLine
  6
BYLAYER
 10
20
 20
48
 11
20
 21
0
  0
TEXT
  5
2F8
100
AcDbEntity
  8
TEXT
100
AcDbText
  6
BYLAYER
 10
75.0685238436447
 20
0.707106781186553
 40
3.5
  1
ｼﾆｶq
  7
Font_0
 72
1
 11
78.5685238436447
 21
0.707106781186553
100
AcDbText
  0
TEXT
  5
2F9
100
AcDbEntity
  8
TEXT
100
AcDbText
  6
BYLAYER
 10
37.4837220734968
 20
0.707106781186553
 40
3.5
  1
ｹﾏ       ｸｹ
  7
Font_0
 72
1
 11
47.1087220734968
 21
0.707106781186553
100
AcDbText
  0
TEXT
  5
2FA
100
AcDbEntity
  8
TEXT
100
AcDbText
  6
BYLAYER
 10
20.7
 20
6.70710678118656
 40
3.5
  1
A
  7
Font_0
100
AcDbText
  0
TEXT
  5
2FB
100
AcDbEntity
  8
TEXT
100
AcDbText
  6
BYLAYER
 10
20.7
 20
12.7071067811866
 40
3.5
  1
A
  7
Font_0
100
AcDbText
  0
TEXT
  5
2FC
100
AcDbEntity
  8
TEXT
100
AcDbText
  6
BYLAYER
 10
77.3935238436447
 20
6.70710678118656
 40
3.5
  1
1
  7
Font_0
 72
1
 11
78.2685238436447
 21
6.70710678118656
100
AcDbText
  0
TEXT
  5
2FD
100
AcDbEntity
  8
TEXT
100
AcDbText
  6
BYLAYER
 10
77.3935238436447
 20
12.7071067811866
 40
3.5
  1
1
  7
Font_0
 72
1
 11
78.2685238436447
 21
12.7071067811866
100
AcDbText
  0
TEXT
  5
2FE
100
AcDbEntity
  8
TEXT
100
AcDbText
  6
BYLAYER
 10
20.7
 20
42.7071067811866
 40
3.5
  1
A
  7
Font_0
100
AcDbText
  0
TEXT
  5
2FF
100
AcDbEntity
  8
TEXT
100
AcDbText
  6
BYLAYER
 10
20.7
 20
30.7071067811865
 40
3.5
  1
A
  7
Font_0
100
AcDbText
  0
TEXT
  5
300
100
AcDbEntity
  8
TEXT
100
AcDbText
  6
BYLAYER
 10
20.7
 20
24.7071067811866
 40
3.5
  1
A
  7
Font_0
100
AcDbText
  0
TEXT
  5
301
100
AcDbEntity
  8
TEXT
100
AcDbText
  6
BYLAYER
 10
20.7
 20
36.7071067811866
 40
3.5
  1
A
  7
Font_0
100
AcDbText
  0
TEXT
  5
302
100
AcDbEntity
  8
TEXT
100
AcDbText
  6
BYLAYER
 10
77.3935238436447
 20
42.7071067811866
 40
3.5
  1
1
  7
Font_0
 72
1
 11
78.2685238436447
 21
42.7071067811866
100
AcDbText
  0
TEXT
  5
303
100
AcDbEntity
  8
TEXT
100
AcDbText
  6
BYLAYER
 10
77.3935238436447
 20
30.7071067811865
 40
3.5
  1
1
  7
Font_0
 72
1
 11
78.2685238436447
 21
30.7071067811865
100
AcDbText
  0
TEXT
  5
304
100
AcDbEntity
  8
TEXT
100
AcDbText
  6
BYLAYER
 10
77.3935238436447
 20
24.7071067811866
 40
3.5
  1
1
  7
Font_0
 72
1
 11
78.2685238436447
 21
24.7071067811866
100
AcDbText
  0
TEXT
  5
305
100
AcDbEntity
  8
TEXT
100
AcDbText
  6
BYLAYER
 10
77.3935238436447
 20
36.7071067811866
 40
3.5
  1
1
  7
Font_0
 72
1
 11
78.2685238436447
 21
36.7071067811866
100
AcDbText
  0
ENDBLK
  5
306
100
AcDbEntity
  8
0
 67
     1
100
AcDbBlockEnd
  0
BLOCK
  5
307
100
AcDbEntity
  8
0
100
AcDbBlockBegin
  2
A4ｹﾏｮﾘ
 70
    0
 10
0
 20
0
 30
0.0
  3
A4ｹﾏｮﾘ
  1

  0
POINT
  5
308
100
AcDbEntity
  8
7475A
100
AcDbPoint
 10
289
 20
0
  0
LINE
  5
309
100
AcDbEntity
  8
0
100
AcDbLine
  6
BYLAYER
 10
0
 20
12
 11
278.4
 21
12
  0
LINE
  5
30A
100
AcDbEntity
  8
0
100
AcDbLine
  6
BYLAYER
 10
0
 20
6
 11
278.4
 21
6
  0
LINE
  5
30B
100
AcDbEntity
  8
0
100
AcDbLine
  6
BYLAYER
 10
96.85
 20
30
 11
278.4
 21
30
  0
LINE
  5
30C
100
AcDbEntity
  8
0
100
AcDbLine
  6
BYLAYER
 10
96.85
 20
24
 11
278.4
 21
24
  0
LINE
  5
30D
100
AcDbEntity
  8
0
100
AcDbLine
  6
BYLAYER
 10
96.85
 20
18
 11
278.4
 21
18
  0
TEXT
  5
30E
100
AcDbEntity
  8
0
100
AcDbText
  6
BYLAYER
 10
22.1680110084321
 20
15.7553550725962
 40
2.8
  1
CAM YORK INDUSTRIAL CO.,LTD.
  7
Font_0
100
AcDbText
  0
TEXT
  5
30F
100
AcDbEntity
  8
0
100
AcDbText
  6
BYLAYER
 10
22.0468952754036
 20
26
 40
7
  1
ｫﾘｷﾔ､uｷ~ｪﾑ･ｳｭｭ､ｽ･q
  7
Font_0
100
AcDbText
  0
TEXT
  5
310
100
AcDbEntity
  8
0
100
AcDbText
  6
BYLAYER
 10
63.8643398403977
 20
7.09411371042404
 40
2.8
  1
(04)3322629
  7
Font_0
100
AcDbText
  0
LINE
  5
311
100
AcDbEntity
  8
0
100
AcDbLine
  6
BYLAYER
 10
10.1054905349494
 20
28.7603510666656
 11
15.2233703294355
 21
28.7603510666656
  0
CIRCLE
  5
312
100
AcDbEntity
  8
0
100
AcDbCircle
  6
BYLAYER
 10
10.1054905349494
 20
24.350263158651
 40
9.36463111331499
  0
CIRCLE
  5
313
100
AcDbEntity
  8
0
100
AcDbCircle
  6
BYLAYER
 10
10.1054905349494
 20
24.350263158651
 40
7.62237416200057
  0
ARC
  5
314
100
AcDbEntity
  8
0
100
AcDbCircle
  6
BYLAYER
 10
10.1054905349494
 20
24.350263158651
 40
4.41008790801462
100
AcDbArc
 50
90
 51
0
  0
LINE
  5
315
100
AcDbEntity
  8
0
100
AcDbLine
  6
BYLAYER
 10
13
 20
12
 11
13
 21
0
  0
TEXT
  5
316
100
AcDbEntity
  8
0
100
AcDbText
  6
BYLAYER
 10
2.6
 20
7.3
 40
3
  1
TEL
  7
Font_0
100
AcDbText
  0
TEXT
  5
317
100
AcDbEntity
  8
0
100
AcDbText
  6
BYLAYER
 10
3.5
 20
1.5
 40
3
  1
ｳﾆｵ�
  7
Font_0
 72
1
 11
6.5
 21
3
100
AcDbText
 73
2
  0
ARC
  5
318
100
AcDbEntity
  8
0
100
AcDbCircle
  6
BYLAYER
 10
10.5745216067836
 20
32.8983997393573
 40
0.704372460813671
100
AcDbArc
 50
83.8529806316668
 51
239.250071636948
  0
ARC
  5
319
100
AcDbEntity
  8
0
100
AcDbCircle
  6
BYLAYER
 10
6.23761506796892
 20
31.9876821284788
 40
0.704372460813671
100
AcDbArc
 50
113.852980631667
 51
269.250071636948
  0
ARC
  5
31A
100
AcDbEntity
  8
0
100
AcDbCircle
  6
BYLAYER
 10
2.46807156512152
 20
20.4823876916705
 40
0.704372460813671
100
AcDbArc
 50
203.852980631667
 51
359.250071636948
  0
ARC
  5
31B
100
AcDbEntity
  8
0
100
AcDbCircle
  6
BYLAYER
 10
9.63645946311512
 20
15.8021265779447
 40
0.704372460813671
100
AcDbArc
 50
263.852980631667
 51
59.2500716369476
  0
ARC
  5
31C
100
AcDbEntity
  8
0
100
AcDbCircle
  6
BYLAYER
 10
5.4252294212235
 20
17.1818752606574
 40
0.704372460813671
100
AcDbArc
 50
233.852980631667
 51
29.2500716369476
  0
ARC
  5
31D
100
AcDbEntity
  8
0
100
AcDbCircle
  6
BYLAYER
 10
1.55735395424306
 20
24.8192942304852
 40
0.704372460813671
100
AcDbArc
 50
173.852980631667
 51
329.250071636948
  0
ARC
  5
31E
100
AcDbEntity
  8
0
100
AcDbCircle
  6
BYLAYER
 10
2.93710263695578
 20
29.0305242723768
 40
0.704372460813671
100
AcDbArc
 50
143.852980631667
 51
299.250071636948
  0
TEXT
  5
31F
100
AcDbEntity
  8
0
100
AcDbText
  6
BYLAYER
 10
7.49210581170385
 20
21.8477388856442
 40
5
  1
Y
  7
Font_0
100
AcDbText
  0
TEXT
  5
320
100
AcDbEntity
  8
0
100
AcDbText
  6
BYLAYER
 10
42.3478047909238
 20
7.2
 40
2.8
  1
~8
  7
Font_0
100
AcDbText
  0
TEXT
  5
321
100
AcDbEntity
  8
0
100
AcDbText
  6
BYLAYER
 10
13.8764304985659
 20
7.2
 40
2.8
  1
(04)3322627
  7
Font_0
100
AcDbText
  0
TEXT
  5
322
100
AcDbEntity
  8
0
100
AcDbText
  6
BYLAYER
 10
51
 20
7.2
 40
3
  1
FAX
  7
Font_0
100
AcDbText
  0
LINE
  5
323
100
AcDbEntity
  8
0
100
AcDbLine
  6
BYLAYER
 10
48
 20
12
 11
48
 21
6
  0
LINE
  5
324
100
AcDbEntity
  8
0
100
AcDbLine
  6
BYLAYER
 10
62
 20
12
 11
62
 21
6
  0
ARC
  5
325
100
AcDbEntity
  8
0
100
AcDbCircle
  6
BYLAYER
 10
14.7857516486752
 20
31.5186510566446
 40
0.704372460813671
100
AcDbArc
 50
53.8529806316668
 51
209.250071636948
  0
ARC
  5
326
100
AcDbEntity
  8
0
100
AcDbCircle
  6
BYLAYER
 10
17.273878432943
 20
19.6700020449251
 40
0.704372460813671
100
AcDbArc
 50
323.852980631667
 51
119.250071636948
  0
ARC
  5
327
100
AcDbEntity
  8
0
100
AcDbCircle
  6
BYLAYER
 10
13.9733660019298
 20
16.7128441888231
 40
0.704372460813671
100
AcDbArc
 50
293.852980631667
 51
89.2500716369476
  0
LINE
  5
328
100
AcDbEntity
  8
0
100
AcDbLine
  6
BYLAYER
 10
14.515578442964
 20
24.350263158651
 11
15.4411524483498
 21
24.350263158651
  0
ARC
  5
329
100
AcDbEntity
  8
0
100
AcDbCircle
  6
BYLAYER
 10
18.6536271156557
 20
23.8812320868167
 40
0.704372460813671
100
AcDbArc
 50
353.852980631667
 51
149.250071636948
  0
ARC
  5
32A
100
AcDbEntity
  8
0
100
AcDbCircle
  6
BYLAYER
 10
17.7429095047772
 20
28.2181386256314
 40
0.704372460813671
100
AcDbArc
 50
23.8529806316668
 51
179.250071636948
  0
TEXT
  5
32B
100
AcDbEntity
  8
0
100
AcDbText
  6
BYLAYER
 10
100.4
 20
7.4
 40
3
  1
ｫ~ ｦW
  7
Font_0
100
AcDbText
  0
LINE
  5
32C
100
AcDbEntity
  8
0
100
AcDbLine
  6
BYLAYER
 10
144
 20
36
 11
144
 21
0
  0
LINE
  5
32D
100
AcDbEntity
  8
0
100
AcDbLine
  6
BYLAYER
 10
114
 20
36
 11
114
 21
0
  0
TEXT
  5
32E
100
AcDbEntity
  8
0
100
AcDbText
  6
BYLAYER
 10
100.4
 20
1.6
 40
3
  1
ｹﾏ ｸｹ
  7
Font_0
100
AcDbText
  0
TEXT
  5
32F
100
AcDbEntity
  8
0
100
AcDbText
  6
BYLAYER
 10
100.4
 20
31.6
 40
3
  1
･D ｺﾞ
  7
Font_0
100
AcDbText
  0
TEXT
  5
330
100
AcDbEntity
  8
0
100
AcDbText
  6
BYLAYER
 10
100.4
 20
19.6
 40
3
  1
ﾃｸ ｹﾏ
  7
Font_0
100
AcDbText
  0
TEXT
  5
331
100
AcDbEntity
  8
0
100
AcDbText
  6
BYLAYER
 10
100.4
 20
13.8
 40
3
  1
ｾ� ｺﾘ
  7
Font_0
100
AcDbText
  0
TEXT
  5
332
100
AcDbEntity
  8
0
100
AcDbText
  6
BYLAYER
 10
100.4
 20
25.4
 40
3
  1
ｮﾖ ｹ�
  7
Font_0
100
AcDbText
  0
LINE
  5
333
100
AcDbEntity
  8
0
100
AcDbLine
  6
BYLAYER
 10
163
 20
36
 11
163
 21
0
  0
TEXT
  5
334
100
AcDbEntity
  8
0
100
AcDbText
  6
BYLAYER
 10
146.967830348543
 20
7.5
 40
3
  1
ｪ揵ｱｳBｲz
  7
Font_0
100
AcDbText
  0
TEXT
  5
335
100
AcDbEntity
  8
0
100
AcDbText
  6
BYLAYER
 10
146.967830348543
 20
1.5
 40
3
  1
ｻsｹﾏ､魘ﾁ
  7
Font_0
100
AcDbText
  0
TEXT
  5
336
100
AcDbEntity
  8
0
100
AcDbText
  6
BYLAYER
 10
148.5
 20
31.5
 40
3
  1
ｧ� ｽ�
  7
Font_0
100
AcDbText
  0
TEXT
  5
337
100
AcDbEntity
  8
0
100
AcDbText
  6
BYLAYER
 10
148.5
 20
19.5
 40
3
  1
ｼﾆ ｶq
  7
Font_0
100
AcDbText
  0
TEXT
  5
338
100
AcDbEntity
  8
0
100
AcDbText
  6
BYLAYER
 10
148.5
 20
13.5
 40
3
  1
ｳ� ｦ�
  7
Font_0
100
AcDbText
  0
TEXT
  5
339
100
AcDbEntity
  8
0
100
AcDbText
  6
BYLAYER
 10
148.5
 20
25.5
 40
3
  1
､� ｨﾒ
  7
Font_0
100
AcDbText
  0
TEXT
  5
33A
100
AcDbEntity
  8
0
100
AcDbText
  6
BYLAYER
 10
200.830454348633
 20
31.5
 40
3
  1
､魘ﾁ
  7
Font_0
100
AcDbText
  0
LINE
  5
33B
100
AcDbEntity
  8
0
100
AcDbLine
  6
BYLAYER
 10
269.7178125
 20
135.285
 11
269.7178125
 21
151.27125
  0
LINE
  5
33C
100
AcDbEntity
  8
0
100
AcDbLine
  6
BYLAYER
 10
261.035625
 20
135.285
 11
261.035625
 21
151.27125
  0
LINE
  5
33D
100
AcDbEntity
  8
0
100
AcDbLine
  6
BYLAYER
 10
252.3534375
 20
135.285
 11
252.3534375
 21
151.27125
  0
LINE
  5
33E
100
AcDbEntity
  8
0
100
AcDbLine
  6
BYLAYER
 10
243.67125
 20
135.285
 11
243.67125
 21
180.4875
  0
LINE
  5
33F
100
AcDbEntity
  8
0
100
AcDbLine
  6
BYLAYER
 10
221.07
 20
135.285
 11
221.07
 21
180.4875
  0
LINE
  5
340
100
AcDbEntity
  8
0
100
AcDbLine
  6
BYLAYER
 10
216.66
 20
135.285
 11
216.66
 21
186
  0
LINE
  5
341
100
AcDbEntity
  8
0
100
AcDbLine
  6
BYLAYER
 10
213
 20
36
 11
213
 21
0
  0
LINE
  5
342
100
AcDbEntity
  8
0
100
AcDbLine
  6
BYLAYER
 10
232
 20
36
 11
232
 21
0
  0
TEXT
  5
343
100
AcDbEntity
  8
0
100
AcDbText
  6
BYLAYER
 10
235
 20
31.5
 40
3
  1
ｧ�   ｧ�   ､ｺ   ｮe
  7
Font_0
100
AcDbText
  0
TEXT
  5
344
100
AcDbEntity
  8
0
100
AcDbText
  6
BYLAYER
 10
218.659856969007
 20
31.5
 40
3
  1
ｭtｳd､H
  7
Font_0
100
AcDbText
  0
LINE
  5
345
100
AcDbEntity
  8
0
100
AcDbLine
  6
BYLAYER
 10
278.4
 20
139.695
 11
221.07
 21
139.695
  0
LINE
  5
346
100
AcDbEntity
  8
0
100
AcDbLine
  6
BYLAYER
 10
278.4
 20
135.285
 11
216.66
 21
135.285
  0
TEXT
  5
347
100
AcDbEntity
  8
0
100
AcDbText
  6
BYLAYER
 10
246.15416478566
 20
128.207003496756
 40
2
  1
projection ｲﾄ､Tｨ､ｧ�ｼv
  7
Font_0
100
AcDbText
  0
LINE
  5
348
100
AcDbEntity
  8
0
100
AcDbLine
  6
BYLAYER
 10
278.4
 20
113.78625
 11
243.67125
 21
113.78625
  0
TEXT
  5
349
100
AcDbEntity
  8
0
100
AcDbText
  6
BYLAYER
 10
271.4339125
 20
144.733125
 40
1.5
  1
100･H､W
  7
Font_0
 72
1
 11
274.0589125
 21
145.483125
100
AcDbText
 73
2
  0
TEXT
  5
34A
100
AcDbEntity
  8
0
100
AcDbText
  6
BYLAYER
 10
272.1839125
 20
136.74
 40
1.5
  1
±10'
  7
Font_0
 72
1
 11
274.0589125
 21
137.49
100
AcDbText
 73
2
  0
MTEXT
  5
34B
100
AcDbEntity
  8
0
100
AcDbMText
 10
232.37065
 20
145.483125
 40
2
 41
  0.0
  1
､ｽｺﾙ､ﾘ､o (ｪﾗ)\Pｧｨｦｨｨ､､ｧｵuﾃ荀@､�
 71
5
  7
Font_0
  0
TEXT
  5
34C
100
AcDbEntity
  8
0
100
AcDbText
  6
BYLAYER
 10
217.365
 20
147.778125
 40
3
  1
ｪｽｨ､ｫﾗ
  7
Font_1
 50
270
 11
218.865
 21
147.778125
100
AcDbText
 73
2
  0
TEXT
  5
34D
100
AcDbEntity
  8
0
100
AcDbText
  6
BYLAYER
 10
227.87065
 20
135.99
 40
3
  1
ｨ､ｫﾗｮt
  7
Font_0
 72
1
 11
232.37065
 21
137.49
100
AcDbText
 73
2
  0
LINE
  5
34E
100
AcDbEntity
  8
0
100
AcDbLine
  6
BYLAYER
 10
254.802068029839
 20
115.173423624616
 11
254.802068029839
 21
126.198423624616
  0
LINE
  5
34F
100
AcDbEntity
  8
0
100
AcDbLine
  6
BYLAYER
 10
243.67125
 20
113.78625
 11
243.67125
 21
135.285
  0
CIRCLE
  5
350
100
AcDbEntity
  8
0
100
AcDbCircle
  6
BYLAYER
 10
254.802068029839
 20
120.685923624616
 40
4.41
  0
LINE
  5
351
100
AcDbEntity
  8
0
100
AcDbLine
  6
BYLAYER
 10
249.289568029839
 20
120.685923624616
 11
260.314568029839
 21
120.685923624616
  0
CIRCLE
  5
352
100
AcDbEntity
  8
0
100
AcDbCircle
  6
BYLAYER
 10
254.802068029839
 20
120.685923624616
 40
2.205
  0
LINE
  5
353
100
AcDbEntity
  8
0
100
AcDbLine
  6
BYLAYER
 10
263.194180551461
 20
120.685923624616
 11
274.770430551461
 21
120.685923624616
  0
LWPOLYLINE
  5
354
100
AcDbEntity
  8
0
100
AcDbPolyline
  6
BYLAYER
370
0
 90
     4
 70
     1
 10
264.296680551461
  20
118.480923624616
 10
273.667930551461
  20
116.275923624616
 10
273.667930551461
  20
125.095923624616
 10
264.296680551461
  20
122.890923624616
  0
TEXT
  5
355
100
AcDbEntity
  8
0
100
AcDbText
  6
BYLAYER
 10
245.828721587618
 20
131.605971951227
 40
2
  1
Third angle
  7
Font_0
100
AcDbText
  0
MTEXT
  5
356
100
AcDbEntity
  8
0
100
AcDbMText
 10
256.6945375
 20
145.483125
 40
1.5
 41
  0.0
  1
10･H､W\P50･H､U
 71
5
  7
Font_0
  0
TEXT
  5
357
100
AcDbEntity
  8
0
100
AcDbText
  6
BYLAYER
 10
246.13735
 20
136.74
 40
1.5
  1
±1°
  7
Font_0
 72
1
 11
248.01235
 21
137.49
100
AcDbText
 73
2
  0
TEXT
  5
358
100
AcDbEntity
  8
0
100
AcDbText
  6
BYLAYER
 10
254.8195375
 20
136.74
 40
1.5
  1
±30'
  7
Font_0
 72
1
 11
256.6945375
 21
137.49
100
AcDbText
 73
2
  0
TEXT
  5
359
100
AcDbEntity
  8
0
100
AcDbText
  6
BYLAYER
 10
245.76235
 20
144.733125
 40
1.5
  1
10･H､U
  7
Font_0
 72
1
 11
248.01235
 21
145.483125
100
AcDbText
 73
2
  0
TEXT
  5
35A
100
AcDbEntity
  8
0
100
AcDbText
  6
BYLAYER
 10
263.501725
 20
136.74
 40
1.5
  1
±20'
  7
Font_0
 72
1
 11
265.376725
 21
137.49
100
AcDbText
 73
2
  0
MTEXT
  5
35B
100
AcDbEntity
  8
0
100
AcDbMText
 10
265.376725
 20
145.483125
 40
1.5
 41
  0.0
  1
50･H､W\P100･H､U
 71
5
  7
Font_0
  0
LINE
  5
35C
100
AcDbEntity
  8
0
100
AcDbLine
  6
BYLAYER
 10
221.07
 20
155.68125
 11
278.4
 21
155.68125
  0
LINE
  5
35D
100
AcDbEntity
  8
0
100
AcDbLine
  6
BYLAYER
 10
221.07
 20
160.09125
 11
278.4
 21
160.09125
  0
LINE
  5
35E
100
AcDbEntity
  8
0
100
AcDbLine
  6
BYLAYER
 10
221.07
 20
164.50125
 11
278.4
 21
164.50125
  0
LINE
  5
35F
100
AcDbEntity
  8
0
100
AcDbLine
  6
BYLAYER
 10
221.07
 20
168.91125
 11
278.4
 21
168.91125
  0
LINE
  5
360
100
AcDbEntity
  8
0
100
AcDbLine
  6
BYLAYER
 10
221.07
 20
173.32125
 11
278.4
 21
173.32125
  0
LINE
  5
361
100
AcDbEntity
  8
0
100
AcDbLine
  6
BYLAYER
 10
216.66
 20
151.27125
 11
278.4
 21
151.27125
  0
LINE
  5
362
100
AcDbEntity
  8
0
100
AcDbLine
  6
BYLAYER
 10
216.66
 20
180.4875
 11
278.4
 21
180.4875
  0
TEXT
  5
363
100
AcDbEntity
  8
0
100
AcDbText
  6
BYLAYER
 10
269.1119
 20
175.154375
 40
3.5
  1
ｲﾊｯﾅ
  7
Font_0
 72
1
 11
272.6119
 21
176.904375
100
AcDbText
 73
2
  0
LINE
  5
364
100
AcDbEntity
  8
0
100
AcDbLine
  6
BYLAYER
 10
243.67125
 20
173.32125
 11
232.06971689676
 21
180.4875
  0
TEXT
  5
365
100
AcDbEntity
  8
0
100
AcDbText
  6
BYLAYER
 10
230.03
 20
181.49375
 40
3.5
  1
ｦｨ ｫ~ ､ｧ ｴｶ ｳq ､ｽ ｮt
  7
Font_0
 72
1
 11
247.53
 21
183.24375
100
AcDbText
 73
2
  0
TEXT
  5
366
100
AcDbEntity
  8
0
100
AcDbText
  6
BYLAYER
 10
228.24565
 20
170.36625
 40
1.5
  1
1･H､W~4･H､U
  7
Font_0
 72
1
 11
232.37065
 21
171.11625
100
AcDbText
 73
2
  0
TEXT
  5
367
100
AcDbEntity
  8
0
100
AcDbText
  6
BYLAYER
 10
227.49565
 20
161.54625
 40
1.5
  1
16･H､W~63･H､U
  7
Font_0
 72
1
 11
232.37065
 21
162.29625
100
AcDbText
 73
2
  0
TEXT
  5
368
100
AcDbEntity
  8
0
100
AcDbText
  6
BYLAYER
 10
227.12065
 20
157.13625
 40
1.5
  1
63･H､W~250･H､U
  7
Font_0
 72
1
 11
232.37065
 21
157.88625
100
AcDbText
 73
2
  0
TEXT
  5
369
100
AcDbEntity
  8
0
100
AcDbText
  6
BYLAYER
 10
226.37065
 20
152.72625
 40
1.5
  1
250･H､W~1000･H､U
  7
Font_0
 72
1
 11
232.37065
 21
153.47625
100
AcDbText
 73
2
  0
MTEXT
  5
36A
100
AcDbEntity
  8
0
100
AcDbMText
 10
218.865
 20
168.879375
 40
3
 41
  0.0
  1
ｪﾗ
 71
4
  7
Font_1
 11
-1.83690953073357E-16
 21
-1
  0
TEXT
  5
36B
100
AcDbEntity
  8
0
100
AcDbText
  6
BYLAYER
 10
227.87065
 20
165.95625
 40
1.5
  1
4･H､W~16･H､U
  7
Font_0
 72
1
 11
232.37065
 21
166.70625
100
AcDbText
 73
2
  0
TEXT
  5
36C
100
AcDbEntity
  8
0
100
AcDbText
  6
BYLAYER
 10
221.354797302298
 20
174.015263609177
 40
1.7
  1
､ｽｺﾙ､ﾘ､oｹｺ､ﾀm/m
  7
Font_0
100
AcDbText
  0
TEXT
  5
36D
100
AcDbEntity
  8
0
100
AcDbText
  6
BYLAYER
 10
237.865638127741
 20
177.454836298923
 40
1.7
  1
ｵ･ｯﾅ
  7
Font_0
100
AcDbText
  0
LINE
  5
36E
100
AcDbEntity
  8
0
100
AcDbLine
  6
BYLAYER
 10
266.82375
 20
151.27125
 11
266.82375
 21
180.4875
  0
LINE
  5
36F
100
AcDbEntity
  8
0
100
AcDbLine
  6
BYLAYER
 10
255.2475
 20
151.27125
 11
255.2475
 21
180.4875
  0
TEXT
  5
370
100
AcDbEntity
  8
0
100
AcDbText
  6
BYLAYER
 10
247.2094
 20
170.36625
 40
1.5
  1
±0.05
  7
Font_0
 72
1
 11
249.4594
 21
171.11625
100
AcDbText
 73
2
  0
TEXT
  5
371
100
AcDbEntity
  8
0
100
AcDbText
  6
BYLAYER
 10
258.78565
 20
170.36625
 40
1.5
  1
±0.10
  7
Font_0
 72
1
 11
261.03565
 21
171.11625
100
AcDbText
 73
2
  0
TEXT
  5
372
100
AcDbEntity
  8
0
100
AcDbText
  6
BYLAYER
 10
270.3619
 20
170.36625
 40
1.5
  1
±0.30
  7
Font_0
 72
1
 11
272.6119
 21
171.11625
100
AcDbText
 73
2
  0
TEXT
  5
373
100
AcDbEntity
  8
0
100
AcDbText
  6
BYLAYER
 10
258.78565
 20
165.95625
 40
1.5
  1
±0.20
  7
Font_0
 72
1
 11
261.03565
 21
166.70625
100
AcDbText
 73
2
  0
TEXT
  5
374
100
AcDbEntity
  8
0
100
AcDbText
  6
BYLAYER
 10
258.78565
 20
161.54625
 40
1.5
  1
±0.30
  7
Font_0
 72
1
 11
261.03565
 21
162.29625
100
AcDbText
 73
2
  0
TEXT
  5
375
100
AcDbEntity
  8
0
100
AcDbText
  6
BYLAYER
 10
258.78565
 20
157.13625
 40
1.5
  1
±0.50
  7
Font_0
 72
1
 11
261.03565
 21
157.88625
100
AcDbText
 73
2
  0
TEXT
  5
376
100
AcDbEntity
  8
0
100
AcDbText
  6
BYLAYER
 10
258.78565
 20
152.72625
 40
1.5
  1
±0.80
  7
Font_0
 72
1
 11
261.03565
 21
153.47625
100
AcDbText
 73
2
  0
TEXT
  5
377
100
AcDbEntity
  8
0
100
AcDbText
  6
BYLAYER
 10
247.2094
 20
157.13625
 40
1.5
  1
±0.20
  7
Font_0
 72
1
 11
249.4594
 21
157.88625
100
AcDbText
 73
2
  0
TEXT
  5
378
100
AcDbEntity
  8
0
100
AcDbText
  6
BYLAYER
 10
247.2094
 20
152.72625
 40
1.5
  1
±0.30
  7
Font_0
 72
1
 11
249.4594
 21
153.47625
100
AcDbText
 73
2
  0
TEXT
  5
379
100
AcDbEntity
  8
0
100
AcDbText
  6
BYLAYER
 10
247.2094
 20
165.95625
 40
1.5
  1
±0.07
  7
Font_0
 72
1
 11
249.4594
 21
166.70625
100
AcDbText
 73
2
  0
TEXT
  5
37A
100
AcDbEntity
  8
0
100
AcDbText
  6
BYLAYER
 10
247.2094
 20
161.54625
 40
1.5
  1
±0.10
  7
Font_0
 72
1
 11
249.4594
 21
162.29625
100
AcDbText
 73
2
  0
TEXT
  5
37B
100
AcDbEntity
  8
0
100
AcDbText
  6
BYLAYER
 10
270.3619
 20
152.72625
 40
1.5
  1
±2.00
  7
Font_0
 72
1
 11
272.6119
 21
153.47625
100
AcDbText
 73
2
  0
TEXT
  5
37C
100
AcDbEntity
  8
0
100
AcDbText
  6
BYLAYER
 10
270.3619
 20
157.13625
 40
1.5
  1
±1.20
  7
Font_0
 72
1
 11
272.6119
 21
157.88625
100
AcDbText
 73
2
  0
TEXT
  5
37D
100
AcDbEntity
  8
0
100
AcDbText
  6
BYLAYER
 10
270.3619
 20
161.54625
 40
1.5
  1
±0.70
  7
Font_0
 72
1
 11
272.6119
 21
162.29625
100
AcDbText
 73
2
  0
TEXT
  5
37E
100
AcDbEntity
  8
0
100
AcDbText
  6
BYLAYER
 10
270.3619
 20
165.95625
 40
1.5
  1
±0.50
  7
Font_0
 72
1
 11
272.6119
 21
166.70625
100
AcDbText
 73
2
  0
TEXT
  5
37F
100
AcDbEntity
  8
0
100
AcDbText
  6
BYLAYER
 10
257.5356
 20
175.154375
 40
3.5
  1
､､ｯﾅ
  7
Font_0
 72
1
 11
261.0356
 21
176.904375
100
AcDbText
 73
2
  0
TEXT
  5
380
100
AcDbEntity
  8
0
100
AcDbText
  6
BYLAYER
 10
245.9594
 20
175.154375
 40
3.5
  1
ｲﾓｯﾅ
  7
Font_0
 72
1
 11
249.4594
 21
176.904375
100
AcDbText
 73
2
  0
LWPOLYLINE
  5
381
100
AcDbEntity
  8
0
100
AcDbPolyline
  6
BYLAYER
370
20
 90
     4
 70
     1
 10
0
  20
0
 10
0
  20
186
 10
278.4
  20
186
 10
278.4
  20
0
  0
LWPOLYLINE
  5
382
100
AcDbEntity
  8
0
100
AcDbPolyline
  6
BYLAYER
370
20
 90
     2
 10
0
  20
36
 10
278.4
  20
36
  0
LWPOLYLINE
  5
383
100
AcDbEntity
  8
0
100
AcDbPolyline
  6
BYLAYER
370
20
 90
     2
 10
195.15
  20
36
 10
195.15
  20
0
  0
LWPOLYLINE
  5
384
100
AcDbEntity
  8
0
100
AcDbPolyline
  6
BYLAYER
370
20
 90
     2
 10
96.85
  20
36
 10
96.85
  20
0
  0
ENDBLK
  5
385
100
AcDbEntity
  8
0
 67
     1
100
AcDbBlockEnd
  0
BLOCK
  5
386
100
AcDbEntity
  8
0
100
AcDbBlockBegin
  2
JAME
 70
    0
 10
0
 20
0
 30
0.0
  3
JAME
  1

  0
TEXT
  5
387
100
AcDbEntity
  8
0
100
AcDbText
  6
BYLAYER
 10
200.830454348633
 20
31.5
 40
3
  1
､魘ﾁ
  7
Font_0
100
AcDbText
  0
LINE
  5
388
100
AcDbEntity
  8
0
100
AcDbLine
  6
BYLAYER
 10
0
 20
12
 11
278.4
 21
12
  0
LINE
  5
389
100
AcDbEntity
  8
0
100
AcDbLine
  6
BYLAYER
 10
0
 20
6
 11
278.4
 21
6
  0
LINE
  5
38A
100
AcDbEntity
  8
0
100
AcDbLine
  6
BYLAYER
 10
0
 20
0
 11
278.4
 21
0
  0
LINE
  5
38B
100
AcDbEntity
  8
0
100
AcDbLine
  6
BYLAYER
 10
96.85
 20
30
 11
278.4
 21
30
  0
LINE
  5
38C
100
AcDbEntity
  8
0
100
AcDbLine
  6
BYLAYER
 10
96.85
 20
24
 11
278.4
 21
24
  0
LINE
  5
38D
100
AcDbEntity
  8
0
100
AcDbLine
  6
BYLAYER
 10
96.85
 20
18
 11
278.4
 21
18
  0
LWPOLYLINE
  5
38E
100
AcDbEntity
  8
0
100
AcDbPolyline
  6
BYLAYER
370
0
 90
     2
 70
     1
 10
0
  20
36
 10
278.4
  20
36
  0
LWPOLYLINE
  5
38F
100
AcDbEntity
  8
0
100
AcDbPolyline
  6
BYLAYER
 90
     2
 70
     1
 10
278.4
  20
186
 10
0
  20
186
  0
LINE
  5
390
100
AcDbEntity
  8
0
100
AcDbLine
  6
BYLAYER
 10
0
 20
0
 11
0
 21
186
  0
TEXT
  5
391
100
AcDbEntity
  8
0
100
AcDbText
  6
BYLAYER
 10
63.8643398403977
 20
7.09411371042404
 40
2.8
  1
(04)23322629
  7
Font_0
100
AcDbText
  0
TEXT
  5
392
100
AcDbEntity
  8
0
100
AcDbText
  6
BYLAYER
 10
22.1680110084321
 20
15.7553550725962
 40
2.8
  1
CAM YORK INDUSTRIAL CO.,LTD.
  7
Font_0
100
AcDbText
  0
TEXT
  5
393
100
AcDbEntity
  8
0
100
AcDbText
  6
BYLAYER
 10
22.0468952754036
 20
26
 40
7
  1
ｫﾘｷﾔ､uｷ~ｪﾑ･ｳｭｭ､ｽ･q
  7
Font_0
100
AcDbText
  0
ARC
  5
394
100
AcDbEntity
  8
0
100
AcDbCircle
  6
BYLAYER
 10
5.4252294212235
 20
17.1818752606574
 40
0.704372460813671
100
AcDbArc
 50
233.852980631667
 51
29.2500716369477
  0
TEXT
  5
395
100
AcDbEntity
  8
0
100
AcDbText
  6
BYLAYER
 10
3.5
 20
1.5
 40
3
  1
ｳﾆｵ�
  7
Font_0
 72
1
 11
6.5
 21
3
100
AcDbText
 73
2
  0
TEXT
  5
396
100
AcDbEntity
  8
0
100
AcDbText
  6
BYLAYER
 10
2.6
 20
7.3
 40
3
  1
TEL
  7
Font_0
100
AcDbText
  0
ARC
  5
397
100
AcDbEntity
  8
0
100
AcDbCircle
  6
BYLAYER
 10
10.1054905349494
 20
24.350263158651
 40
4.41008790801462
100
AcDbArc
 50
90
 51
0
  0
CIRCLE
  5
398
100
AcDbEntity
  8
0
100
AcDbCircle
  6
BYLAYER
 10
10.1054905349494
 20
24.350263158651
 40
7.62237416200057
  0
CIRCLE
  5
399
100
AcDbEntity
  8
0
100
AcDbCircle
  6
BYLAYER
 10
10.1054905349494
 20
24.350263158651
 40
9.36463111331499
  0
ARC
  5
39A
100
AcDbEntity
  8
0
100
AcDbCircle
  6
BYLAYER
 10
6.23761506796892
 20
31.9876821284788
 40
0.704372460813671
100
AcDbArc
 50
113.852980631667
 51
269.250071636948
  0
ARC
  5
39B
100
AcDbEntity
  8
0
100
AcDbCircle
  6
BYLAYER
 10
2.46807156512152
 20
20.4823876916705
 40
0.704372460813671
100
AcDbArc
 50
203.852980631667
 51
359.250071636948
  0
ARC
  5
39C
100
AcDbEntity
  8
0
100
AcDbCircle
  6
BYLAYER
 10
1.55735395424306
 20
24.8192942304852
 40
0.704372460813671
100
AcDbArc
 50
173.852980631667
 51
329.250071636948
  0
ARC
  5
39D
100
AcDbEntity
  8
0
100
AcDbCircle
  6
BYLAYER
 10
2.93710263695578
 20
29.0305242723768
 40
0.704372460813671
100
AcDbArc
 50
143.852980631667
 51
299.250071636948
  0
LINE
  5
39E
100
AcDbEntity
  8
0
100
AcDbLine
  6
BYLAYER
 10
62
 20
12
 11
62
 21
6
  0
TEXT
  5
39F
100
AcDbEntity
  8
0
100
AcDbText
  6
BYLAYER
 10
51.8
 20
7.2
 40
3
  1
FAX
  7
Font_0
100
AcDbText
  0
LINE
  5
3A0
100
AcDbEntity
  8
0
100
AcDbLine
  6
BYLAYER
 10
49.4
 20
12
 11
49.4
 21
6
  0
TEXT
  5
3A1
100
AcDbEntity
  8
0
100
AcDbText
  6
BYLAYER
 10
43.3478047909238
 20
7.2
 40
2.8
  1
~8
  7
Font_0
100
AcDbText
  0
LINE
  5
3A2
100
AcDbEntity
  8
0
100
AcDbLine
  6
BYLAYER
 10
11.8
 20
12
 11
11.8
 21
0
  0
TEXT
  5
3A3
100
AcDbEntity
  8
0
100
AcDbText
  6
BYLAYER
 10
12.8764304985659
 20
7.2
 40
2.8
  1
(04)23322627
  7
Font_0
100
AcDbText
  0
ARC
  5
3A4
100
AcDbEntity
  8
0
100
AcDbCircle
  6
BYLAYER
 10
14.7857516486752
 20
31.5186510566446
 40
0.704372460813671
100
AcDbArc
 50
53.8529806316668
 51
209.250071636948
  0
ARC
  5
3A5
100
AcDbEntity
  8
0
100
AcDbCircle
  6
BYLAYER
 10
10.5745216067836
 20
32.8983997393573
 40
0.704372460813671
100
AcDbArc
 50
83.8529806316668
 51
239.250071636948
  0
ARC
  5
3A6
100
AcDbEntity
  8
0
100
AcDbCircle
  6
BYLAYER
 10
13.9733660019298
 20
16.7128441888231
 40
0.704372460813671
100
AcDbArc
 50
293.852980631667
 51
89.2500716369476
  0
ARC
  5
3A7
100
AcDbEntity
  8
0
100
AcDbCircle
  6
BYLAYER
 10
9.63645946311512
 20
15.8021265779447
 40
0.704372460813671
100
AcDbArc
 50
263.852980631667
 51
59.2500716369476
  0
ARC
  5
3A8
100
AcDbEntity
  8
0
100
AcDbCircle
  6
BYLAYER
 10
17.273878432943
 20
19.6700020449251
 40
0.704372460813671
100
AcDbArc
 50
323.852980631667
 51
119.250071636948
  0
LINE
  5
3A9
100
AcDbEntity
  8
0
100
AcDbLine
  6
BYLAYER
 10
14.515578442964
 20
24.350263158651
 11
15.4411524483498
 21
24.350263158651
  0
LINE
  5
3AA
100
AcDbEntity
  8
0
100
AcDbLine
  6
BYLAYER
 10
10.1054905349494
 20
28.7603510666656
 11
15.2233703294355
 21
28.7603510666656
  0
TEXT
  5
3AB
100
AcDbEntity
  8
0
100
AcDbText
  6
BYLAYER
 10
7.49210581170385
 20
21.8477388856442
 40
5
  1
Y
  7
Font_0
100
AcDbText
  0
ARC
  5
3AC
100
AcDbEntity
  8
0
100
AcDbCircle
  6
BYLAYER
 10
18.6536271156557
 20
23.8812320868167
 40
0.704372460813671
100
AcDbArc
 50
353.852980631667
 51
149.250071636947
  0
ARC
  5
3AD
100
AcDbEntity
  8
0
100
AcDbCircle
  6
BYLAYER
 10
17.7429095047772
 20
28.2181386256314
 40
0.704372460813671
100
AcDbArc
 50
23.8529806316668
 51
179.250071636948
  0
LINE
  5
3AE
100
AcDbEntity
  8
0
100
AcDbLine
  6
BYLAYER
 10
114
 20
36
 11
114
 21
0
  0
TEXT
  5
3AF
100
AcDbEntity
  8
0
100
AcDbText
  6
BYLAYER
 10
100.4
 20
7.4
 40
3
  1
ｫ~ ｦW
  7
Font_0
100
AcDbText
  0
LINE
  5
3B0
100
AcDbEntity
  8
0
100
AcDbLine
  6
BYLAYER
 10
97.15
 20
36
 11
97.15
 21
0
  0
LINE
  5
3B1
100
AcDbEntity
  8
0
100
AcDbLine
  6
BYLAYER
 10
96.85
 20
36
 11
96.85
 21
0
  0
LWPOLYLINE
  5
3B2
100
AcDbEntity
  8
0
100
AcDbPolyline
  6
BYLAYER
370
0
 90
     4
 10
96.85
  20
36
 10
96.85
  20
0
 10
97.15
  20
0
 10
97.15
  20
36
  0
TEXT
  5
3B3
100
AcDbEntity
  8
0
100
AcDbText
  6
BYLAYER
 10
100.4
 20
1.6
 40
3
  1
ｹﾏ ｸｹ
  7
Font_0
100
AcDbText
  0
TEXT
  5
3B4
100
AcDbEntity
  8
0
100
AcDbText
  6
BYLAYER
 10
100.4
 20
31.6
 40
3
  1
･D ｺﾞ
  7
Font_0
100
AcDbText
  0
TEXT
  5
3B5
100
AcDbEntity
  8
0
100
AcDbText
  6
BYLAYER
 10
100.4
 20
19.6
 40
3
  1
ﾃｸ ｹﾏ
  7
Font_0
100
AcDbText
  0
TEXT
  5
3B6
100
AcDbEntity
  8
0
100
AcDbText
  6
BYLAYER
 10
100.4
 20
25.4
 40
3
  1
ｮﾖ ｹ�
  7
Font_0
100
AcDbText
  0
TEXT
  5
3B7
100
AcDbEntity
  8
0
100
AcDbText
  6
BYLAYER
 10
100.316862435203
 20
13.8
 40
3
  1
ｾ� ｺﾘ
  7
Font_0
100
AcDbText
  0
LINE
  5
3B8
100
AcDbEntity
  8
0
100
AcDbLine
  6
BYLAYER
 10
195.15
 20
36
 11
195.15
 21
0
  0
LINE
  5
3B9
100
AcDbEntity
  8
0
100
AcDbLine
  6
BYLAYER
 10
194.85
 20
36
 11
194.85
 21
0
  0
LINE
  5
3BA
100
AcDbEntity
  8
0
100
AcDbLine
  6
BYLAYER
 10
195.025
 20
36
 11
195.025
 21
0
  0
TEXT
  5
3BB
100
AcDbEntity
  8
0
100
AcDbText
  6
BYLAYER
 10
146.967830348543
 20
7.5
 40
3
  1
ｻsｹﾏ､魘ﾁ
  7
Font_0
100
AcDbText
  0
LINE
  5
3BC
100
AcDbEntity
  8
0
100
AcDbLine
  6
BYLAYER
 10
163
 20
36
 11
163
 21
0
  0
LINE
  5
3BD
100
AcDbEntity
  8
0
100
AcDbLine
  6
BYLAYER
 10
144
 20
36
 11
144
 21
0
  0
TEXT
  5
3BE
100
AcDbEntity
  8
0
100
AcDbText
  6
BYLAYER
 10
147.076922819997
 20
1.5
 40
3
  1
ｹqｸ｣ｽsｸｹ
  7
Font_0
100
AcDbText
  0
TEXT
  5
3BF
100
AcDbEntity
  8
0
100
AcDbText
  6
BYLAYER
 10
148.5
 20
31.5
 40
3
  1
ｧ� ｽ�
  7
Font_0
100
AcDbText
  0
TEXT
  5
3C0
100
AcDbEntity
  8
0
100
AcDbText
  6
BYLAYER
 10
148.5
 20
25.5
 40
3
  1
ｼﾆ ｶq
  7
Font_0
100
AcDbText
  0
TEXT
  5
3C1
100
AcDbEntity
  8
0
100
AcDbText
  6
BYLAYER
 10
148.5
 20
19.5
 40
3
  1
ｳ� ｦ�
  7
Font_0
100
AcDbText
  0
TEXT
  5
3C2
100
AcDbEntity
  8
0
100
AcDbText
  6
BYLAYER
 10
146.967830348543
 20
13.5
 40
3
  1
ｪ揵ｱｳBｲz
  7
Font_0
100
AcDbText
  0
LINE
  5
3C3
100
AcDbEntity
  8
0
100
AcDbLine
  6
BYLAYER
 10
278.4
 20
186
 11
278.4
 21
0
  0
TEXT
  5
3C4
100
AcDbEntity
  8
0
100
AcDbText
  6
BYLAYER
 10
235
 20
31.5
 40
3
  1
ｧ�   ｧ�   ､ｺ   ｮe
  7
Font_0
100
AcDbText
  0
LINE
  5
3C5
100
AcDbEntity
  8
0
100
AcDbLine
  6
BYLAYER
 10
232
 20
36
 11
232
 21
0
  0
LINE
  5
3C6
100
AcDbEntity
  8
0
100
AcDbLine
  6
BYLAYER
 10
213
 20
36
 11
213
 21
0
  0
TEXT
  5
3C7
100
AcDbEntity
  8
0
100
AcDbText
  6
BYLAYER
 10
218.659856969007
 20
31.5
 40
3
  1
ｭtｳd､H
  7
Font_0
100
AcDbText
  0
ENDBLK
  5
3C8
100
AcDbEntity
  8
0
 67
     1
100
AcDbBlockEnd
  0
BLOCK
  5
3C9
100
AcDbEntity
  8
0
100
AcDbBlockBegin
  2
GENAXEH
 70
    0
 10
0
 20
0
 30
0.0
  3
GENAXEH
  1

  0
LINE
  5
3CA
100
AcDbEntity
  8
0
100
AcDbLine
  6
BYLAYER
 10
-1
 20
0
 11
1
 21
0
  0
ENDBLK
  5
3CB
100
AcDbEntity
  8
0
 67
     1
100
AcDbBlockEnd
  0
BLOCK
  5
3CC
100
AcDbEntity
  8
0
100
AcDbBlockBegin
  2
A$C36D836D4
 70
    0
 10
0
 20
0
 30
0.0
  3
A$C36D836D4
  1

  0
LINE
  5
3CD
100
AcDbEntity
  8
BASE
100
AcDbLine
  6
BYLAYER
 10
-156.592114756201
 20
-85.2890618578437
 11
-73.3421147562014
 21
-85.2890618578437
  0
LINE
  5
3CE
100
AcDbEntity
  8
BASE
100
AcDbLine
  6
BYLAYER
 10
-156.592114756201
 20
-91.2890618578437
 11
-73.3421147562014
 21
-91.2890618578437
  0
LINE
  5
3CF
100
AcDbEntity
  8
BASE
100
AcDbLine
  6
BYLAYER
 10
-156.592114756201
 20
-97.2890618578437
 11
-73.3421147562014
 21
-97.2890618578437
  0
LINE
  5
3D0
100
AcDbEntity
  8
BASE
100
AcDbLine
  6
BYLAYER
 10
-156.592114756201
 20
-103.289061857844
 11
-73.3421147562014
 21
-103.289061857844
  0
LINE
  5
3D1
100
AcDbEntity
  8
BASE
100
AcDbLine
  6
BYLAYER
 10
-156.592114756201
 20
-109.289061857844
 11
-73.3421147562014
 21
-109.289061857844
  0
LINE
  5
3D2
100
AcDbEntity
  8
BASE
100
AcDbLine
  6
BYLAYER
 10
-156.592114756201
 20
-115.289061857844
 11
-73.3421147562014
 21
-115.289061857844
  0
LINE
  5
3D3
100
AcDbEntity
  8
BASE
100
AcDbLine
  6
BYLAYER
 10
-156.592114756201
 20
-121.289061857844
 11
-73.3421147562014
 21
-121.289061857844
  0
LINE
  5
3D4
100
AcDbEntity
  8
BASE
100
AcDbLine
  6
BYLAYER
 10
-156.592114756201
 20
-127.289061857844
 11
-73.3421147562014
 21
-127.289061857844
  0
LINE
  5
3D5
100
AcDbEntity
  8
BASE
100
AcDbLine
  6
BYLAYER
 10
-146.592114756201
 20
-85.2890618578437
 11
-146.592114756201
 21
-133.289061857844
  0
LINE
  5
3D6
100
AcDbEntity
  8
BASE
100
AcDbLine
  6
BYLAYER
 10
-156.592114756201
 20
-85.2890618578437
 11
-156.592114756201
 21
-133.289061857844
  0
LINE
  5
3D7
100
AcDbEntity
  8
BASE
100
AcDbLine
  6
BYLAYER
 10
-136.592114756201
 20
-85.2890618578437
 11
-136.592114756201
 21
-133.289061857844
  0
TEXT
  5
3D8
100
AcDbEntity
  8
BASE
100
AcDbText
  6
BYLAYER
 10
-152.287315422519
 20
-120.581955076657
 40
3.5
  1
B
  7
Font_0
 72
1
 11
-151.412315422519
 21
-120.581955076657
100
AcDbText
  0
TEXT
  5
3D9
100
AcDbEntity
  8
BASE
100
AcDbText
  6
BYLAYER
 10
-154.338363967876
 20
-132.581955076657
 40
3.5
  1
ｶｵｦｸ
  7
Font_0
 72
1
 11
-150.838363967876
 21
-132.581955076657
100
AcDbText
  0
TEXT
  5
3DA
100
AcDbEntity
  8
BASE
100
AcDbText
  6
BYLAYER
 10
-151.961433062886
 20
-126.581955076657
 40
3.5
  1
A
  7
Font_0
 72
1
 11
-151.086433062886
 21
-126.581955076657
100
AcDbText
  0
TEXT
  5
3DB
100
AcDbEntity
  8
0
100
AcDbText
  6
BYLAYER
 10
-125.857609278239
 20
-132.019757538773
 40
3.5
  1
ｹﾏ
  7
Font_0
 11
-125.857609278239
 21
-128.519757538773
100
AcDbText
 73
3
  0
TEXT
  5
3DC
100
AcDbEntity
  8
0
100
AcDbText
  6
BYLAYER
 10
-112.160031551964
 20
-132.156603581708
 40
3.5
  1
ｸｹ
  7
Font_0
 11
-112.160031551964
 21
-128.656603581708
100
AcDbText
 73
3
  0
TEXT
  5
3DD
100
AcDbEntity
  8
BASE
100
AcDbText
  6
BYLAYER
 10
-152.150339695197
 20
-114.581955076657
 40
3.5
  1
C
  7
Font_0
 72
1
 11
-151.275339695197
 21
-114.581955076657
100
AcDbText
  0
LINE
  5
3DE
100
AcDbEntity
  8
BASE
100
AcDbLine
  6
BYLAYER
 10
-92.7050670689118
 20
-85.2890618578437
 11
-92.7050670689118
 21
-133.289061857844
  0
LINE
  5
3DF
100
AcDbEntity
  8
BASE
100
AcDbLine
  6
BYLAYER
 10
-82.7050670689118
 20
-85.2890618578437
 11
-82.7050670689118
 21
-133.289061857844
  0
TEXT
  5
3E0
100
AcDbEntity
  8
0
100
AcDbText
  6
BYLAYER
 10
-91.2050670689118
 20
-132.72329119719
 40
3.5
  1
ｪｩ･ｻ
  7
Font_0
 72
1
 11
-87.7050670689118
 21
-130.97329119719
100
AcDbText
 73
2
  0
TEXT
  5
3E1
100
AcDbEntity
  8
BASE
100
AcDbText
  6
BYLAYER
 10
-81.5235909125566
 20
-132.581955076657
 40
3.5
  1
ｼﾆｶq
  7
Font_0
 72
1
 11
-78.0235909125566
 21
-132.581955076657
100
AcDbText
  0
TEXT
  5
3E2
100
AcDbEntity
  8
BASE
100
AcDbText
  6
BYLAYER
 10
-79.1985909125566
 20
-126.581955076657
 40
3.5
  1
1
  7
Font_0
 72
1
 11
-78.3235909125566
 21
-126.581955076657
100
AcDbText
  0
TEXT
  5
3E3
100
AcDbEntity
  8
BASE
100
AcDbText
  6
BYLAYER
 10
-79.1985909125566
 20
-120.581955076657
 40
3.5
  1
1
  7
Font_0
 72
1
 11
-78.3235909125566
 21
-120.581955076657
100
AcDbText
  0
TEXT
  5
3E4
100
AcDbEntity
  8
BASE
100
AcDbText
  6
BYLAYER
 10
-79.1985909125566
 20
-114.581955076657
 40
3.5
  1
1
  7
Font_0
 72
1
 11
-78.3235909125566
 21
-114.581955076657
100
AcDbText
  0
ENDBLK
  5
3E5
100
AcDbEntity
  8
0
 67
     1
100
AcDbBlockEnd
  0
BLOCK
  5
3E6
100
AcDbEntity
  8
0
100
AcDbBlockBegin
  2
A$C520435C5
 70
    0
 10
0
 20
0
 30
0.0
  3
A$C520435C5
  1

  0
LINE
  5
3E7
100
AcDbEntity
  8
CEN
100
AcDbLine
  6
BYLAYER
 10
42.4999999576461
 20
37.5000000875314
 11
42.4999999576461
 21
8.75313617E-8
  0
CIRCLE
  5
3E8
100
AcDbEntity
  8
BASE
100
AcDbCircle
  6
BYLAYER
 10
42.4999999576461
 20
42.5000000875313
 40
31.25
  0
CIRCLE
  5
3E9
100
AcDbEntity
  8
BASE
100
AcDbCircle
  6
BYLAYER
 10
42.4999999576461
 20
42.5000000875313
 40
8
  0
CIRCLE
  5
3EA
100
AcDbEntity
  8
BASE
100
AcDbCircle
  6
BYLAYER
 10
42.4999999576461
 20
42.5000000875313
 40
25.5
  0
CIRCLE
  5
3EB
100
AcDbEntity
  8
BASE
100
AcDbCircle
  6
BYLAYER
 10
42.4999999576461
 20
42.5000000875313
 40
28.5
  0
CIRCLE
  5
3EC
100
AcDbEntity
  8
BASE
100
AcDbCircle
  6
BYLAYER
 10
42.4999999576461
 20
42.5000000875313
 40
16.25
  0
CIRCLE
  5
3ED
100
AcDbEntity
  8
BASE
100
AcDbCircle
  6
BYLAYER
 10
42.4999999576461
 20
42.5000000875313
 40
14
  0
LINE
  5
3EE
100
AcDbEntity
  8
CEN
100
AcDbLine
  6
BYLAYER
 10
47.4999999576461
 20
42.5000000875313
 11
84.9999999576461
 21
42.5000000875313
  0
LINE
  5
3EF
100
AcDbEntity
  8
CEN
100
AcDbLine
  6
BYLAYER
 10
42.4999999576461
 20
47.5000000875313
 11
42.4999999576461
 21
85.0000000875314
  0
LINE
  5
3F0
100
AcDbEntity
  8
CEN
100
AcDbLine
  6
BYLAYER
 10
37.4999999576461
 20
42.5000000875313
 11
-4.23538893E-8
 21
42.5000000875313
  0
LINE
  5
3F1
100
AcDbEntity
  8
HIDDEN
100
AcDbLine
  6
BYLAYER
 10
40.4999999576461
 20
50.2459667799462
 11
40.4999999576461
 21
44.7360680650312
  0
LINE
  5
3F2
100
AcDbEntity
  8
HIDDEN
100
AcDbLine
  6
BYLAYER
 10
44.4999999576461
 20
50.2459667799462
 11
44.4999999576461
 21
44.7360680650312
  0
LINE
  5
3F3
100
AcDbEntity
  8
HIDDEN
100
AcDbLine
  6
BYLAYER
 10
41.2999999576461
 20
50.4094880608454
 11
41.2999999576461
 21
45.2495455045049
  0
LINE
  5
3F4
100
AcDbEntity
  8
HIDDEN
100
AcDbLine
  6
BYLAYER
 10
43.6999999576461
 20
50.4094880608454
 11
43.6999999576461
 21
45.2495455045049
  0
LINE
  5
3F5
100
AcDbEntity
  8
CEN
100
AcDbLine
  6
BYLAYER
 10
42.4999999576461
 20
40.0000000875313
 11
42.4999999576461
 21
45.0000000875313
  0
CIRCLE
  5
3F6
100
AcDbEntity
  8
BASE
100
AcDbCircle
  6
BYLAYER
 10
42.4999999576461
 20
42.5000000875313
 40
3
  0
LINE
  5
3F7
100
AcDbEntity
  8
CEN
100
AcDbLine
  6
BYLAYER
 10
39.9999999576461
 20
42.5000000875313
 11
44.9999999576461
 21
42.5000000875313
  0
ENDBLK
  5
3F8
100
AcDbEntity
  8
0
 67
     1
100
AcDbBlockEnd
  0
BLOCK
  5
3F9
100
AcDbEntity
  8
0
100
AcDbBlockBegin
  2
A$C60F9129D
 70
    0
 10
0
 20
0
 30
0.0
  3
A$C60F9129D
  1

  0
LINE
  5
3FA
100
AcDbEntity
  8
BASE
100
AcDbLine
  6
BYLAYER
 10
56.8497610654588
 20
24.5009881171584
 11
72.8497610654588
 21
24.5009881171584
  0
LINE
  5
3FB
100
AcDbEntity
  8
BASE
100
AcDbLine
  6
BYLAYER
 10
56.8497610654588
 20
31.5009881171584
 11
72.8497610654588
 21
31.5009881171584
  0
LINE
  5
3FC
100
AcDbEntity
  8
BASE
100
AcDbLine
  6
BYLAYER
 10
56.8497610654588
 20
6.50098811715838
 11
72.8497610654588
 21
6.50098811715838
  0
LINE
  5
3FD
100
AcDbEntity
  8
HIDDEN
100
AcDbLine
  6
BYLAYER
 10
56.8497610654588
 20
13.5009881171584
 11
72.8497610654588
 21
13.5009881171584
  0
LINE
  5
3FE
100
AcDbEntity
  8
DIM
100
AcDbLine
  6
BYLAYER
 62
0
370
  -2
 10
52.3497610654587
 20
10.5745178828921
 11
52.3497610654587
 21
4.15013925290424
  0
LINE
  5
3FF
100
AcDbEntity
  8
DIM
100
AcDbLine
  6
BYLAYER
 62
0
370
  -2
 10
56.3497610654587
 20
9.93848811715834
 11
56.3497610654587
 21
4.15013925290424
  0
LINE
  5
400
100
AcDbEntity
  8
DIM
100
AcDbLine
  6
BYLAYER
 62
0
370
  -2
 10
52.5297610654587
 20
4.33013925290423
 11
56.1697610654587
 21
4.33013925290423
  0
LINE
  5
401
100
AcDbEntity
  8
DIM
100
AcDbLine
  6
BYLAYER
 62
0
370
  -2
 10
56.3497610654587
 20
4.33013925290423
 11
88.2797610654587
 21
4.33013925290423
  0
SOLID
  5
402
100
AcDbEntity
  8
DIM
100
AcDbTrace
 10
52.3497610654587
 20
4.33013925290423
 30
0.0
 11
52.5297610654587
 21
4.30013925290423
 31
0.0
 12
52.5297610654587
 22
4.36013925290423
 32
0.0
 13
52.5297610654587
 23
4.36013925290423
 33
0.0
  0
SOLID
  5
403
100
AcDbEntity
  8
DIM
100
AcDbTrace
 10
56.1697610654587
 20
4.36013925290423
 30
0.0
 11
56.1697610654587
 21
4.30013925290423
 31
0.0
 12
56.3497610654587
 22
4.33013925290423
 32
0.0
 13
56.3497610654587
 23
4.33013925290423
 33
0.0
  0
TEXT
  5
404
100
AcDbEntity
  8
DIM
 62
0
100
AcDbText
  6
BYLAYER
 62
0
 10
88.8497610654587
 20
4.24013925290423
 40
0.18
  1
4.0000
  7
Font_0
 72
1
 11
89.1197610654587
 21
4.33013925290423
100
AcDbText
 73
2
  0
LINE
  5
405
100
AcDbEntity
  8
DIM
100
AcDbLine
  6
BYLAYER
 62
0
370
  -2
 10
52.3497610654587
 20
10.4384881171583
 11
52.3497610654587
 21
4.76934530979634E-7
  0
LINE
  5
406
100
AcDbEntity
  8
DIM
100
AcDbLine
  6
BYLAYER
 62
0
370
  -2
 10
73.3497610654587
 20
6.93848811715834
 11
73.3497610654587
 21
4.76934530979634E-7
  0
LINE
  5
407
100
AcDbEntity
  8
DIM
100
AcDbLine
  6
BYLAYER
 62
0
370
  -2
 10
52.5297610654587
 20
0.180000476934524
 11
62.3097610654587
 21
0.180000476934524
  0
LINE
  5
408
100
AcDbEntity
  8
DIM
100
AcDbLine
  6
BYLAYER
 62
0
370
  -2
 10
73.1697610654587
 20
0.180000476934524
 11
63.3897610654587
 21
0.180000476934524
  0
SOLID
  5
409
100
AcDbEntity
  8
DIM
100
AcDbTrace
 10
52.3497610654587
 20
0.180000476934524
 30
0.0
 11
52.5297610654587
 21
0.150000476934522
 31
0.0
 12
52.5297610654587
 22
0.210000476934525
 32
0.0
 13
52.5297610654587
 23
0.210000476934525
 33
0.0
  0
SOLID
  5
40A
100
AcDbEntity
  8
DIM
100
AcDbTrace
 10
73.1697610654587
 20
0.210000476934525
 30
0.0
 11
73.1697610654587
 21
0.150000476934522
 31
0.0
 12
73.3497610654587
 22
0.180000476934524
 32
0.0
 13
73.3497610654587
 23
0.180000476934524
 33
0.0
  0
TEXT
  5
40B
100
AcDbEntity
  8
DIM
 62
0
100
AcDbText
  6
BYLAYER
 62
0
 10
62.5347610654587
 20
0.0900004769345236
 40
0.18
  1
21.0000
  7
Font_0
 72
1
 11
62.8497610654587
 21
0.180000476934524
100
AcDbText
 73
2
  0
LINE
  5
40C
100
AcDbEntity
  8
DIM
100
AcDbLine
  6
BYLAYER
 62
0
370
  -2
 10
65.3497610654587
 20
31.5634881171583
 11
65.3497610654587
 21
35.4088867475892
  0
LINE
  5
40D
100
AcDbEntity
  8
DIM
100
AcDbLine
  6
BYLAYER
 62
0
370
  -2
 10
73.3497610654587
 20
31.0634881171583
 11
73.3497610654587
 21
35.4088867475892
  0
LINE
  5
40E
100
AcDbEntity
  8
DIM
100
AcDbLine
  6
BYLAYER
 62
0
370
  -2
 10
65.5297610654587
 20
35.2288867475892
 11
68.8697610654587
 21
35.2288867475892
  0
LINE
  5
40F
100
AcDbEntity
  8
DIM
100
AcDbLine
  6
BYLAYER
 62
0
370
  -2
 10
73.1697610654587
 20
35.2288867475892
 11
69.8297610654587
 21
35.2288867475892
  0
SOLID
  5
410
100
AcDbEntity
  8
DIM
100
AcDbTrace
 10
65.3497610654587
 20
35.2288867475892
 30
0.0
 11
65.5297610654587
 21
35.1988867475892
 31
0.0
 12
65.5297610654587
 22
35.2588867475892
 32
0.0
 13
65.5297610654587
 23
35.2588867475892
 33
0.0
  0
SOLID
  5
411
100
AcDbEntity
  8
DIM
100
AcDbTrace
 10
73.1697610654587
 20
35.2588867475892
 30
0.0
 11
73.1697610654587
 21
35.1988867475892
 31
0.0
 12
73.3497610654587
 22
35.2288867475892
 32
0.0
 13
73.3497610654587
 23
35.2288867475892
 33
0.0
  0
TEXT
  5
412
100
AcDbEntity
  8
DIM
 62
0
100
AcDbText
  6
BYLAYER
 62
0
 10
69.0797610654587
 20
35.1388867475892
 40
0.18
  1
8.0000
  7
Font_0
 72
1
 11
69.3497610654587
 21
35.2288867475892
100
AcDbText
 73
2
  0
LINE
  5
413
100
AcDbEntity
  8
BASE
100
AcDbLine
  6
BYLAYER
 10
52.3497610654588
 20
27.2289285856908
 11
52.3497610654588
 21
10.773047648626
  0
LINE
  5
414
100
AcDbEntity
  8
DIM
100
AcDbLine
  6
BYLAYER
 62
0
370
  -2
 10
54.2872610654587
 20
26.5009881171583
 11
48.3699477433158
 21
26.5009881171583
  0
LINE
  5
415
100
AcDbEntity
  8
DIM
100
AcDbLine
  6
BYLAYER
 62
0
370
  -2
 10
54.2872610654587
 20
11.5009881171583
 11
48.3699477433158
 21
11.5009881171583
  0
LINE
  5
416
100
AcDbEntity
  8
DIM
100
AcDbLine
  6
BYLAYER
 62
0
370
  -2
 10
48.5499477433158
 20
26.3209881171583
 11
48.5499477433158
 21
19.1809881171583
  0
LINE
  5
417
100
AcDbEntity
  8
DIM
100
AcDbLine
  6
BYLAYER
 62
0
370
  -2
 10
48.5499477433158
 20
11.6809881171583
 11
48.5499477433158
 21
18.8209881171583
  0
SOLID
  5
418
100
AcDbEntity
  8
DIM
100
AcDbTrace
 10
48.5199477433158
 20
26.3209881171583
 30
0.0
 11
48.5799477433158
 21
26.3209881171583
 31
0.0
 12
48.5499477433158
 22
26.5009881171583
 32
0.0
 13
48.5499477433158
 23
26.5009881171583
 33
0.0
  0
SOLID
  5
419
100
AcDbEntity
  8
DIM
100
AcDbTrace
 10
48.5499477433158
 20
11.5009881171583
 30
0.0
 11
48.5799477433158
 21
11.6809881171583
 31
0.0
 12
48.5199477433158
 22
11.6809881171583
 32
0.0
 13
48.5199477433158
 23
11.6809881171583
 33
0.0
  0
TEXT
  5
41A
100
AcDbEntity
  8
DIM
 62
0
100
AcDbText
  6
BYLAYER
 62
0
 10
48.3699477433157
 20
18.9109881171583
 40
0.18
  1
Φ15
  7
Font_0
 72
1
 11
48.5499477433157
 21
19.0009881171583
100
AcDbText
 73
2
  0
LINE
  5
41B
100
AcDbEntity
  8
CEN
100
AcDbLine
  6
BYLAYER
 10
14.9999989478504
 20
34.0009881171584
 11
14.9999989478504
 21
4.00098811715838
  0
LINE
  5
41C
100
AcDbEntity
  8
DIM
100
AcDbLine
  6
BYLAYER
 62
0
370
  -2
 10
52.7872610654587
 20
28.0009881171583
 11
44.3126344211728
 21
28.0009881171583
  0
LINE
  5
41D
100
AcDbEntity
  8
DIM
100
AcDbLine
  6
BYLAYER
 62
0
370
  -2
 10
52.7872610654587
 20
10.0009881171583
 11
44.3126344211728
 21
10.0009881171583
  0
LINE
  5
41E
100
AcDbEntity
  8
DIM
100
AcDbLine
  6
BYLAYER
 62
0
370
  -2
 10
44.4926344211728
 20
27.8209881171583
 11
44.4926344211728
 21
19.1809881171583
  0
LINE
  5
41F
100
AcDbEntity
  8
DIM
100
AcDbLine
  6
BYLAYER
 62
0
370
  -2
 10
44.4926344211728
 20
10.1809881171583
 11
44.4926344211728
 21
18.8209881171583
  0
SOLID
  5
420
100
AcDbEntity
  8
DIM
100
AcDbTrace
 10
44.4626344211728
 20
27.8209881171583
 30
0.0
 11
44.5226344211728
 21
27.8209881171583
 31
0.0
 12
44.4926344211728
 22
28.0009881171583
 32
0.0
 13
44.4926344211728
 23
28.0009881171583
 33
0.0
  0
SOLID
  5
421
100
AcDbEntity
  8
DIM
100
AcDbTrace
 10
44.4926344211728
 20
10.0009881171583
 30
0.0
 11
44.5226344211728
 21
10.1809881171583
 31
0.0
 12
44.4626344211728
 22
10.1809881171583
 32
0.0
 13
44.4626344211728
 23
10.1809881171583
 33
0.0
  0
TEXT
  5
422
100
AcDbEntity
  8
DIM
 62
0
100
AcDbText
  6
BYLAYER
 62
0
 10
44.3126344211728
 20
18.9109881171583
 40
0.18
  1
Φ18
  7
Font_0
 72
1
 11
44.4926344211728
 21
19.0009881171583
100
AcDbText
 73
2
  0
LINE
  5
423
100
AcDbEntity
  8
DIM
100
AcDbLine
  6
BYLAYER
 62
0
370
  -2
 10
18.304178717982
 20
14.0432567041127
 11
18.124178717982
 21
14.0432567041127
  0
LINE
  5
424
100
AcDbEntity
  8
DIM
100
AcDbLine
  6
BYLAYER
 62
0
370
  -2
 10
18.124178717982
 20
14.0432567041127
 11
18.028214151664
 21
14.1955419693598
  0
TEXT
  5
425
100
AcDbEntity
  8
DIM
 62
0
100
AcDbText
  6
BYLAYER
 62
0
 10
18.859178717982
 20
13.9532567041127
 40
0.18
  1
φ11.0000
  7
Font_0
 72
1
 11
19.264178717982
 21
14.0432567041127
100
AcDbText
 73
2
  0
SOLID
  5
426
100
AcDbEntity
  8
DIM
100
AcDbTrace
 10
17.9322495853459
 20
14.347827234607
 30
0.0
 11
18.0028332741228
 21
14.1795478749735
 31
0.0
 12
18.0535950292052
 22
14.2115360637462
 32
0.0
 13
18.0535950292052
 23
14.2115360637462
 33
0.0
  0
LINE
  5
427
100
AcDbEntity
  8
DIM
100
AcDbLine
  6
BYLAYER
 62
0
370
  -2
 10
14.9099989478502
 20
19.0009881171583
 11
15.0899989478502
 21
19.0009881171583
  0
LINE
  5
428
100
AcDbEntity
  8
DIM
100
AcDbLine
  6
BYLAYER
 62
0
370
  -2
 10
14.9999989478503
 20
18.9109881171583
 11
14.9999989478502
 21
19.0909881171583
  0
CIRCLE
  5
429
100
AcDbEntity
  8
BASE
100
AcDbCircle
  6
BYLAYER
 10
14.9999989478504
 20
19.0009881171584
 40
12.5
  0
CIRCLE
  5
42A
100
AcDbEntity
  8
BASE
100
AcDbCircle
  6
BYLAYER
 10
14.9999989478504
 20
19.0009881171584
 40
9
  0
CIRCLE
  5
42B
100
AcDbEntity
  8
BASE
100
AcDbCircle
  6
BYLAYER
 10
14.9999989478504
 20
19.0009881171584
 40
5.5
  0
CIRCLE
  5
42C
100
AcDbEntity
  8
BASE
100
AcDbCircle
  6
BYLAYER
 10
14.9999989478504
 20
19.0009881171584
 40
7.5
  0
LINE
  5
42D
100
AcDbEntity
  8
DIM
100
AcDbLine
  6
BYLAYER
 62
0
370
  -2
 10
9.605148122294
 20
30.756196786816
 11
9.78514812229399
 21
30.756196786816
  0
LINE
  5
42E
100
AcDbEntity
  8
DIM
100
AcDbLine
  6
BYLAYER
 62
0
370
  -2
 10
9.78514812229399
 20
30.756196786816
 11
9.85813981347599
 21
30.5916604290758
  0
TEXT
  5
42F
100
AcDbEntity
  8
DIM
 62
0
100
AcDbText
  6
BYLAYER
 62
0
 10
8.54014812229399
 20
30.6661967868159
 40
0.18
  1
φ25.0000
  7
Font_0
 72
1
 11
8.94514812229399
 21
30.7561967868159
100
AcDbText
 73
2
  0
SOLID
  5
430
100
AcDbEntity
  8
DIM
100
AcDbTrace
 10
9.885562539766
 20
30.6038257109395
 30
0.0
 11
9.83071708718599
 21
30.5794951472122
 31
0.0
 12
9.931131504658
 22
30.4271240713357
 32
0.0
 13
9.931131504658
 23
30.4271240713357
 33
0.0
  0
LINE
  5
431
100
AcDbEntity
  8
DIM
100
AcDbLine
  6
BYLAYER
 62
0
370
  -2
 10
14.9099989478503
 20
19.0009881171583
 11
15.0899989478503
 21
19.0009881171583
  0
LINE
  5
432
100
AcDbEntity
  8
DIM
100
AcDbLine
  6
BYLAYER
 62
0
370
  -2
 10
14.9999989478504
 20
18.9109881171583
 11
14.9999989478504
 21
19.0909881171583
  0
LINE
  5
433
100
AcDbEntity
  8
BASE
100
AcDbLine
  6
BYLAYER
 10
56.3497610654588
 20
7.00098811715838
 11
56.3497610654588
 21
10.0009881171584
  0
LINE
  5
434
100
AcDbEntity
  8
BASE
100
AcDbLine
  6
BYLAYER
 10
56.3497610654588
 20
7.00098811715838
 11
56.8497610654588
 21
6.50098811715838
  0
LINE
  5
435
100
AcDbEntity
  8
HIDDEN
100
AcDbLine
  6
BYLAYER
 10
56.3497610654588
 20
11.5009881171584
 11
56.3497610654588
 21
13.0009881171584
  0
LINE
  5
436
100
AcDbEntity
  8
HIDDEN
100
AcDbLine
  6
BYLAYER
 10
56.3497610654588
 20
13.0009881171584
 11
56.8497610654588
 21
13.5009881171584
  0
LINE
  5
437
100
AcDbEntity
  8
BASE
100
AcDbLine
  6
BYLAYER
 10
52.3497610654588
 20
10.5009881171584
 11
52.3497610654588
 21
10.773047648626
  0
LINE
  5
438
100
AcDbEntity
  8
BASE
100
AcDbLine
  6
BYLAYER
 10
52.8497610654588
 20
10.0009881171584
 11
52.3497610654588
 21
10.5009881171584
  0
LINE
  5
439
100
AcDbEntity
  8
HIDDEN
100
AcDbLine
  6
BYLAYER
 10
54.3497610654588
 20
11.5009881171584
 11
52.3497610654588
 21
10.773047648626
  0
LINE
  5
43A
100
AcDbEntity
  8
BASE
100
AcDbLine
  6
BYLAYER
 10
52.8497610654588
 20
10.0009881171584
 11
56.3497610654588
 21
10.0009881171584
  0
LINE
  5
43B
100
AcDbEntity
  8
HIDDEN
100
AcDbLine
  6
BYLAYER
 10
54.3497610654587
 20
11.5009881171584
 11
56.3497610654588
 21
11.5009881171584
  0
TEXT
  5
43C
100
AcDbEntity
  8
DIM
100
AcDbText
  6
BYLAYER
 10
39.4059876884986
 20
36.6122833856465
 40
2
  1
M6x1.0x10L､ｺ､ｻｨ､ﾁｳｵｷ
  7
Font_0
 72
2
 11
59.4059876884986
 21
36.6122833856465
100
AcDbText
  0
LINE
  5
43D
100
AcDbEntity
  8
CEN
100
AcDbLine
  6
BYLAYER
 10
-1.0521496279E-6
 20
19.0009881171584
 11
29.9999989478504
 21
19.0009881171584
  0
LINE
  5
43E
100
AcDbEntity
  8
HIDDEN
100
AcDbLine
  6
BYLAYER
 10
14.9999989478504
 20
24.5009881171584
 11
14.9999989478504
 21
31.5009881171584
  0
LINE
  5
43F
100
AcDbEntity
  8
HIDDEN
100
AcDbLine
  6
BYLAYER
 10
12.7999989478504
 20
24.0418213816098
 11
12.7999989478504
 21
31.3058651990313
  0
LINE
  5
440
100
AcDbEntity
  8
HIDDEN
100
AcDbLine
  6
BYLAYER
 10
11.9999989478504
 20
23.6107603458048
 11
11.9999989478504
 21
31.13564921667
  0
LINE
  5
441
100
AcDbEntity
  8
HIDDEN
100
AcDbLine
  6
BYLAYER
 10
17.1999989478504
 20
24.0418213816098
 11
17.1999989478504
 21
31.3058651990313
  0
LINE
  5
442
100
AcDbEntity
  8
HIDDEN
100
AcDbLine
  6
BYLAYER
 10
17.9999989478504
 20
23.6107603458048
 11
17.9999989478504
 21
31.13564921667
  0
LINE
  5
443
100
AcDbEntity
  8
CEN
100
AcDbLine
  6
BYLAYER
 10
65.3497610654588
 20
31.5009881171584
 11
65.3497610654588
 21
24.5009881171584
  0
LINE
  5
444
100
AcDbEntity
  8
BASE
100
AcDbLine
  6
BYLAYER
 10
62.3497610654588
 20
31.5009881171584
 11
62.3497610654588
 21
24.5009881171584
  0
LINE
  5
445
100
AcDbEntity
  8
BASE
100
AcDbLine
  6
BYLAYER
 10
68.3497610654588
 20
31.5009881171584
 11
68.3497610654588
 21
24.5009881171584
  0
LINE
  5
446
100
AcDbEntity
  8
BASE
100
AcDbLine
  6
BYLAYER
 10
56.8497610654588
 20
24.5009881171584
 11
56.3497610654588
 21
25.0009881171584
  0
LINE
  5
447
100
AcDbEntity
  8
DIM
100
AcDbLine
  6
BYLAYER
 62
0
370
  -2
 10
52.3497610654587
 20
27.1664285856907
 11
52.3497610654587
 21
23.0349796425414
  0
LINE
  5
448
100
AcDbEntity
  8
DIM
100
AcDbLine
  6
BYLAYER
 62
0
370
  -2
 10
56.3497610654587
 20
26.4384881171583
 11
56.3497610654587
 21
23.0349796425414
  0
LINE
  5
449
100
AcDbEntity
  8
DIM
100
AcDbLine
  6
BYLAYER
 62
0
370
  -2
 10
52.5297610654587
 20
23.2149796425414
 11
53.8697610654587
 21
23.2149796425414
  0
LINE
  5
44A
100
AcDbEntity
  8
DIM
100
AcDbLine
  6
BYLAYER
 62
0
370
  -2
 10
56.1697610654587
 20
23.2149796425414
 11
54.8297610654587
 21
23.2149796425414
  0
SOLID
  5
44B
100
AcDbEntity
  8
DIM
100
AcDbTrace
 10
52.3497610654587
 20
23.2149796425414
 30
0.0
 11
52.5297610654587
 21
23.1849796425414
 31
0.0
 12
52.5297610654587
 22
23.2449796425414
 32
0.0
 13
52.5297610654587
 23
23.2449796425414
 33
0.0
  0
SOLID
  5
44C
100
AcDbEntity
  8
DIM
100
AcDbTrace
 10
56.1697610654587
 20
23.2449796425414
 30
0.0
 11
56.1697610654587
 21
23.1849796425414
 31
0.0
 12
56.3497610654587
 22
23.2149796425414
 32
0.0
 13
56.3497610654587
 23
23.2149796425414
 33
0.0
  0
TEXT
  5
44D
100
AcDbEntity
  8
DIM
 62
0
100
AcDbText
  6
BYLAYER
 62
0
 10
54.0797610654587
 20
23.1249796425414
 40
0.18
  1
4.0000
  7
Font_0
 72
1
 11
54.3497610654587
 21
23.2149796425414
100
AcDbText
 73
2
  0
LINE
  5
44E
100
AcDbEntity
  8
BASE
100
AcDbLine
  6
BYLAYER
 10
56.3497610654588
 20
31.0009881171584
 11
56.3497610654588
 21
28.0009881171584
  0
LINE
  5
44F
100
AcDbEntity
  8
BASE
100
AcDbLine
  6
BYLAYER
 10
56.3497610654588
 20
31.0009881171584
 11
56.8497610654588
 21
31.5009881171584
  0
LINE
  5
450
100
AcDbEntity
  8
BASE
100
AcDbLine
  6
BYLAYER
 10
52.3497610654588
 20
27.5009881171584
 11
52.3497610654588
 21
27.2289285856908
  0
LINE
  5
451
100
AcDbEntity
  8
BASE
100
AcDbLine
  6
BYLAYER
 10
52.8497610654588
 20
28.0009881171584
 11
52.3497610654588
 21
27.5009881171584
  0
LINE
  5
452
100
AcDbEntity
  8
BASE
100
AcDbLine
  6
BYLAYER
 10
52.8497610654588
 20
28.0009881171584
 11
56.3497610654588
 21
28.0009881171584
  0
LINE
  5
453
100
AcDbEntity
  8
BASE
100
AcDbLine
  6
BYLAYER
 10
56.3497610654588
 20
26.5009881171584
 11
56.3497610654588
 21
25.0009881171584
  0
LINE
  5
454
100
AcDbEntity
  8
BASE
100
AcDbLine
  6
BYLAYER
 10
54.3497610654587
 20
26.5009881171584
 11
56.3497610654588
 21
26.5009881171584
  0
LINE
  5
455
100
AcDbEntity
  8
BASE
100
AcDbLine
  6
BYLAYER
 10
54.3497610654588
 20
26.5009881171584
 11
52.3497610654588
 21
27.2289285856908
  0
LINE
  5
456
100
AcDbEntity
  8
BASE
100
AcDbLine
  6
BYLAYER
 10
73.3497610654588
 20
25.0009881171584
 11
73.3497610654588
 21
13.0009881171584
  0
LINE
  5
457
100
AcDbEntity
  8
BASE
100
AcDbLine
  6
BYLAYER
 10
73.3497610654588
 20
7.00098811715838
 11
73.3497610654588
 21
13.0009881171584
  0
LINE
  5
458
100
AcDbEntity
  8
BASE
100
AcDbLine
  6
BYLAYER
 10
72.8497610654588
 20
6.50098811715838
 11
73.3497610654588
 21
7.00098811715838
  0
LINE
  5
459
100
AcDbEntity
  8
HIDDEN
100
AcDbLine
  6
BYLAYER
 10
72.8497610654588
 20
13.5009881171584
 11
73.3497610654588
 21
13.0009881171584
  0
LINE
  5
45A
100
AcDbEntity
  8
BASE
100
AcDbLine
  6
BYLAYER
 10
72.8497610654588
 20
24.5009881171584
 11
73.3497610654588
 21
25.0009881171584
  0
LINE
  5
45B
100
AcDbEntity
  8
BASE
100
AcDbLine
  6
BYLAYER
 10
72.8497610654588
 20
31.5009881171584
 11
73.3497610654588
 21
31.0009881171584
  0
LINE
  5
45C
100
AcDbEntity
  8
BASE
100
AcDbLine
  6
BYLAYER
 10
73.3497610654588
 20
31.0009881171584
 11
73.3497610654588
 21
25.0009881171584
  0
ENDBLK
  5
45D
100
AcDbEntity
  8
0
 67
     1
100
AcDbBlockEnd
  0
BLOCK
  5
45E
100
AcDbEntity
  8
0
100
AcDbBlockBegin
  2
A
 70
    0
 10
0
 20
0
 30
0.0
  3
A
  1

  0
TEXT
  5
45F
100
AcDbEntity
  8
0
100
AcDbText
  6
BYLAYER
 10
127.674651975441
 20
244.795661972877
 40
2.5
  1
a
  7
Font_0
100
AcDbText
  0
LWPOLYLINE
  5
460
100
AcDbEntity
  8
0
100
AcDbPolyline
  6
BYLAYER
370
0
 90
     3
 70
     1
 10
126.71643944311
  20
244.632620693086
 10
129.71643944311
  20
244.632620693086
 10
128.21643944311
  20
247.230696904439
  0
ENDBLK
  5
461
100
AcDbEntity
  8
0
 67
     1
100
AcDbBlockEnd
  0
BLOCK
  5
462
100
AcDbEntity
  8
0
100
AcDbBlockBegin
  2
B
 70
    0
 10
0
 20
0
 30
0.0
  3
B
  1

  0
LWPOLYLINE
  5
463
100
AcDbEntity
  8
0
100
AcDbPolyline
  6
BYLAYER
370
0
 90
     3
 70
     1
 10
131.70249874082
  20
244.288443720077
 10
135.28174293015
  20
244.288443720077
 10
133.492120835485
  20
247.388160114384
  0
TEXT
  5
464
100
AcDbEntity
  8
0
100
AcDbText
  6
BYLAYER
 10
132.758464625955
 20
244.383450143826
 40
2.5
  1
b
  7
Font_0
100
AcDbText
  0
ENDBLK
  5
465
100
AcDbEntity
  8
0
 67
     1
100
AcDbBlockEnd
  0
BLOCK
  5
466
100
AcDbEntity
  8
0
100
AcDbBlockBegin
  2
C
 70
    0
 10
0
 20
0
 30
0.0
  3
C
  1

  0
LWPOLYLINE
  5
467
100
AcDbEntity
  8
0
100
AcDbPolyline
  6
BYLAYER
370
0
 90
     3
 70
     1
 10
135.509916074992
  20
244.473484482901
 10
139.001038434513
  20
244.473484482901
 10
137.255477254752
  20
247.496885133966
  0
TEXT
  5
468
100
AcDbEntity
  8
0
100
AcDbText
  6
BYLAYER
 10
136.382181305809
 20
244.594791834341
 40
2.5
  1
c
  7
Font_0
100
AcDbText
  0
ENDBLK
  5
469
100
AcDbEntity
  8
0
 67
     1
100
AcDbBlockEnd
  0
BLOCK
  5
46A
100
AcDbEntity
  8
0
100
AcDbBlockBegin
  2
D
 70
    0
 10
0
 20
0
 30
0.0
  3
D
  1

  0
LWPOLYLINE
  5
46B
100
AcDbEntity
  8
0
100
AcDbPolyline
  6
BYLAYER
370
0
 90
     3
 70
     1
 10
140.763374439689
  20
244.465698913845
 10
144.291976798415
  20
244.465698913845
 10
142.527675619052
  20
247.521558196355
  0
TEXT
  5
46C
100
AcDbEntity
  8
0
100
AcDbText
  6
BYLAYER
 10
141.593202675708
 20
244.519464650768
 40
2.5
  1
d
  7
Font_0
100
AcDbText
  0
ENDBLK
  5
46D
100
AcDbEntity
  8
0
 67
     1
100
AcDbBlockEnd
  0
BLOCK
  5
46E
100
AcDbEntity
  8
0
100
AcDbBlockBegin
  2
A4ｹﾏｮﾘ_JAME_
 70
    0
 10
0
 20
0
 30
0.0
  3
A4ｹﾏｮﾘ_JAME_
  1

  0
POINT
  5
46F
100
AcDbEntity
  8
7475A
100
AcDbPoint
 10
289
 20
0
  0
TEXT
  5
470
100
AcDbEntity
  8
0
100
AcDbText
  6
BYLAYER
 10
3.82484782096731
 20
38.4479746826859
 40
5
  1
ｦCｦL､魘ﾁ :
  7
Font_0
100
AcDbText
  0
LINE
  5
471
100
AcDbEntity
  8
0
100
AcDbLine
  6
BYLAYER
 10
49.4
 20
12
 11
49.4
 21
6
  0
TEXT
  5
472
100
AcDbEntity
  8
TEXT
100
AcDbText
  6
BYLAYER
 10
129
 20
19
 40
3.5
  1
JAME
  7
Font_0
100
AcDbText
  0
TEXT
  5
473
100
AcDbEntity
  8
TEXT
100
AcDbText
  6
BYLAYER
 10
179
 20
7
 40
3.5
 41
0.8
  1
20020101
  7
Font_0
100
AcDbText
  0
TEXT
  5
474
100
AcDbEntity
  8
TEXT
100
AcDbText
  6
BYLAYER
 10
179
 20
19
 40
3.5
  1
M/M
  7
Font_0
100
AcDbText
  0
TEXT
  5
475
100
AcDbEntity
  8
TEXT
100
AcDbText
  6
BYLAYER
 10
179
 20
25
 40
3.5
  1
1
  7
Font_0
100
AcDbText
  0
INSERT
  5
476
100
AcDbEntity
  8
0
100
AcDbBlockReference
  6
CONTINUOUS
  2
JAME
 10
0
 20
0
 30
0.0
  0
ENDBLK
  5
477
100
AcDbEntity
  8
0
 67
     1
100
AcDbBlockEnd
  0
BLOCK
  5
478
100
AcDbEntity
  8
0
100
AcDbBlockBegin
  2
Rｺﾝ､L
 70
    0
 10
0
 20
0
 30
0.0
  3
Rｺﾝ､L
  1

  0
LINE
  5
479
100
AcDbEntity
  8
0
100
AcDbLine
  6
BYLAYER
 10
1.5
 20
4
 11
3.9509924697129
 21
10.1840630586541
  0
LINE
  5
47A
100
AcDbEntity
  8
0
100
AcDbLine
  6
BYLAYER
 10
-1.5
 20
4
 11
-3.9509924697129
 21
10.1840630586541
  0
LINE
  5
47B
100
AcDbEntity
  8
0
100
AcDbLine
  6
BYLAYER
 10
-1.5
 20
0
 11
1.5
 21
0
  0
LINE
  5
47C
100
AcDbEntity
  8
0
100
AcDbLine
  6
BYLAYER
 10
-1.5
 20
4
 11
1.5
 21
4
  0
LINE
  5
47D
100
AcDbEntity
  8
0
100
AcDbLine
  6
BYLAYER
 10
1.5
 20
4
 11
1.5
 21
0
  0
LINE
  5
47E
100
AcDbEntity
  8
0
100
AcDbLine
  6
BYLAYER
 10
-1.5
 20
4
 11
-1.5
 21
0
  0
ARC
  5
47F
100
AcDbEntity
  8
0
100
AcDbCircle
  6
BYLAYER
 10
0
 20
11.75
 40
4.25
100
AcDbArc
 50
338.379589074111
 51
201.620410925889
  0
CIRCLE
  5
480
100
AcDbEntity
  8
0
100
AcDbCircle
  6
BYLAYER
 10
0
 20
11.75
 40
2.7
  0
ENDBLK
  5
481
100
AcDbEntity
  8
0
 67
     1
100
AcDbBlockEnd
  0
BLOCK
  5
482
100
AcDbEntity
  8
0
100
AcDbBlockBegin
  2
A$C7AD0034B
 70
    0
 10
0
 20
0
 30
0.0
  3
A$C7AD0034B
  1

  0
ARC
  5
483
100
AcDbEntity
  8
__ｴﾟ
100
AcDbCircle
  6
BYLAYER
 10
27.9873390023998
 20
67.7811556842672
 40
2
100
AcDbArc
 50
2.54947724685038
 51
271.451939550645
  0
ARC
  5
484
100
AcDbEntity
  8
__ｴﾟ
100
AcDbCircle
  6
BYLAYER
 10
94.2787380854805
 20
94.5368512842135
 40
94.4245212672322
100
AcDbArc
 50
184.282129199768
 51
250.650043868926
  0
CIRCLE
  5
485
100
AcDbEntity
  8
__ｴﾟ
100
AcDbCircle
  6
BYLAYER
 10
98.0178055881201
 20
87.4863897551003
 40
30.5
  0
CIRCLE
  5
486
100
AcDbEntity
  8
__ｴﾟ
100
AcDbCircle
  6
BYLAYER
 10
98.01780558812
 20
87.4863897551003
 40
68.25
  0
ARC
  5
487
100
AcDbEntity
  8
__ｴﾟ
100
AcDbCircle
  6
BYLAYER
 10
92.458310973521
 20
82.4143764325315
 40
82.4157131461808
100
AcDbArc
 50
249.051539760392
 51
43.2929490606908
  0
CIRCLE
  5
488
100
AcDbEntity
  8
__ｴﾟ
100
AcDbCircle
  6
BYLAYER
 10
98.0178055881201
 20
52.4863897551003
 40
2.75
  0
CIRCLE
  5
489
100
AcDbEntity
  8
__ｴﾟ
100
AcDbCircle
  6
BYLAYER
 10
150.09827217384
 20
36.6908436884058
 40
1.3
  0
ARC
  5
48A
100
AcDbEntity
  8
__ｴﾟ
100
AcDbCircle
  6
BYLAYER
 10
150.09827217384
 20
36.6908436884058
 40
2
100
AcDbArc
 50
2.54947724685038
 51
271.451939550645
  0
ARC
  5
48B
100
AcDbEntity
  8
__ｴﾟ
100
AcDbCircle
  6
BYLAYER
 10
103.661969742417
 20
92.4758490112695
 40
103.664307425849
100
AcDbArc
 50
86.8788989907748
 51
182.758764857609
  0
LINE
  5
48C
100
AcDbEntity
  8
__ｴﾟ
100
AcDbLine
  6
BYLAYER
 10
173.01780558812
 20
195.9863897551
 11
173.01780558812
 21
143.9863897551
  0
LINE
  5
48D
100
AcDbEntity
  8
__ｴﾟ
100
AcDbLine
  6
BYLAYER
 10
174.51780558812
 20
209.9863897551
 11
174.51780558812
 21
129.9863897551
  0
LINE
  5
48E
100
AcDbEntity
  8
__ｴﾟ
100
AcDbLine
  6
BYLAYER
 10
161.51780558812
 20
182.9863897551
 11
170.01780558812
 21
191.4863897551
  0
LINE
  5
48F
100
AcDbEntity
  8
__ｴﾟ
100
AcDbLine
  6
BYLAYER
 10
173.01780558812
 20
209.9863897551
 11
173.01780558812
 21
129.9863897551
  0
CIRCLE
  5
490
100
AcDbEntity
  8
__ｴﾟ
100
AcDbCircle
  6
BYLAYER
 10
98.0178055881201
 20
122.4863897551
 40
2.75
  0
CIRCLE
  5
491
100
AcDbEntity
  8
__ｴﾟ
100
AcDbCircle
  6
BYLAYER
 10
27.9873390023998
 20
67.7811556842672
 40
1.3
  0
CIRCLE
  5
492
100
AcDbEntity
  8
__ｴﾟ
100
AcDbCircle
  6
BYLAYER
 10
63.01780558812
 20
87.4863897551003
 40
2.75
  0
ARC
  5
493
100
AcDbEntity
  8
__ｴﾟ
100
AcDbCircle
  6
BYLAYER
 10
115.96780558812
 20
157.987169892628
 40
2
100
AcDbArc
 50
2.54947724685038
 51
271.451939550645
  0
CIRCLE
  5
494
100
AcDbEntity
  8
__ｴﾟ
100
AcDbCircle
  6
BYLAYER
 10
115.96780558812
 20
157.987169892628
 40
1.3
  0
CIRCLE
  5
495
100
AcDbEntity
  8
__ｴﾟ
100
AcDbCircle
  6
BYLAYER
 10
133.01780558812
 20
87.4863897551003
 40
2.75
  0
LINE
  5
496
100
AcDbEntity
  8
__ｴﾟ
100
AcDbLine
  6
BYLAYER
 10
161.51780558812
 20
156.9863897551
 11
170.01780558812
 21
148.4863897551
  0
LINE
  5
497
100
AcDbEntity
  8
__ｴﾟ
100
AcDbLine
  6
BYLAYER
 10
170.01780558812
 20
142.2363897551
 11
170.01780558812
 21
148.4863897551
  0
LINE
  5
498
100
AcDbEntity
  8
__ｴﾟ
100
AcDbLine
  6
BYLAYER
 10
161.51780558812
 20
142.2363897551
 11
161.51780558812
 21
143.7363897551
  0
LINE
  5
499
100
AcDbEntity
  8
__ｴﾟ
100
AcDbLine
  6
BYLAYER
 10
161.51780558812
 20
143.7363897551
 11
161.51780558812
 21
142.2363897551
  0
LINE
  5
49A
100
AcDbEntity
  8
__ｴﾟ
100
AcDbLine
  6
BYLAYER
 10
170.01780558812
 20
143.7363897551
 11
161.51780558812
 21
143.7363897551
  0
LINE
  5
49B
100
AcDbEntity
  8
__ｴﾟ
100
AcDbLine
  6
BYLAYER
 10
173.01780558812
 20
142.2363897551
 11
161.51780558812
 21
142.2363897551
  0
LINE
  5
49C
100
AcDbEntity
  8
__ｴﾟ
100
AcDbLine
  6
BYLAYER
 10
174.51780558812
 20
129.9863897551
 11
173.01780558812
 21
129.9863897551
  0
ARC
  5
49D
100
AcDbEntity
  8
__ｴﾟ
100
AcDbCircle
  6
BYLAYER
 10
154.628748543249
 20
140.9863897551
 40
3.00000000000009
100
AcDbArc
 50
90
 51
223.29294906069
  0
LINE
  5
49E
100
AcDbEntity
  8
__ｴﾟ
100
AcDbLine
  6
BYLAYER
 10
170.01780558812
 20
143.9863897551
 11
154.628748543249
 21
143.9863897551
  0
LINE
  5
49F
100
AcDbEntity
  8
__ｴﾟ
100
AcDbLine
  6
BYLAYER
 10
161.51780558812
 20
182.9863897551
 11
161.51780558812
 21
156.9863897551
  0
LINE
  5
4A0
100
AcDbEntity
  8
__ｴﾟ
100
AcDbLine
  6
BYLAYER
 10
109.306133896714
 20
195.9863897551
 11
170.01780558812
 21
195.9863897551
  0
LINE
  5
4A1
100
AcDbEntity
  8
__ｴﾟ
100
AcDbLine
  6
BYLAYER
 10
174.51780558812
 20
209.9863897551
 11
173.01780558812
 21
209.9863897551
  0
LINE
  5
4A2
100
AcDbEntity
  8
__ｴﾟ
100
AcDbLine
  6
BYLAYER
 10
170.01780558812
 20
197.7363897551
 11
170.01780558812
 21
191.4863897551
  0
LINE
  5
4A3
100
AcDbEntity
  8
__ｴﾟ
100
AcDbLine
  6
BYLAYER
 10
161.51780558812
 20
197.7363897551
 11
161.51780558812
 21
196.2363897551
  0
LINE
  5
4A4
100
AcDbEntity
  8
__ｴﾟ
100
AcDbLine
  6
BYLAYER
 10
158.0610875154
 20
195.9863897551
 11
170.01780558812
 21
195.9863897551
  0
LINE
  5
4A5
100
AcDbEntity
  8
__ｴﾟ
100
AcDbLine
  6
BYLAYER
 10
173.01780558812
 20
197.7363897551
 11
161.51780558812
 21
197.7363897551
  0
LINE
  5
4A6
100
AcDbEntity
  8
__ｴﾟ
100
AcDbLine
  6
BYLAYER
 10
170.01780558812
 20
196.2363897551
 11
161.51780558812
 21
196.2363897551
  0
ENDBLK
  5
4A7
100
AcDbEntity
  8
0
 67
     1
100
AcDbBlockEnd
  0
BLOCK
  5
4A8
100
AcDbEntity
  8
0
100
AcDbBlockBegin
  2
A$C34DF46FA
 70
    0
 10
0
 20
0
 30
0.0
  3
A$C34DF46FA
  1

  0
CIRCLE
  5
4A9
100
AcDbEntity
  8
_Xｭｷ､f
100
AcDbCircle
  6
BYLAYER
 10
39.999997897098
 20
39.9999984974603
 40
38.4
  0
CIRCLE
  5
4AA
100
AcDbEntity
  8
_Xｭｷ､f
100
AcDbCircle
  6
BYLAYER
 10
39.999997897098
 20
39.9999984974603
 40
39
  0
LINE
  5
4AB
100
AcDbEntity
  8
_Xｭｷ､f
100
AcDbLine
  6
BYLAYER
 10
-2.1029019877E-6
 20
74.9999984974603
 11
-2.1029019877E-6
 21
4.9999984974603
  0
LINE
  5
4AC
100
AcDbEntity
  8
_Xｭｷ､f
100
AcDbLine
  6
BYLAYER
 10
79.999997897098
 20
74.9999984974603
 11
79.999997897098
 21
4.9999984974603
  0
LINE
  5
4AD
100
AcDbEntity
  8
_Xｭｷ､f
100
AcDbLine
  6
BYLAYER
 10
4.99999789709801
 20
-1.5025397033E-6
 11
74.999997897098
 21
-1.5025397033E-6
  0
ARC
  5
4AE
100
AcDbEntity
  8
_Xｭｷ､f
100
AcDbCircle
  6
BYLAYER
 10
4.99999789709801
 20
4.9999984974603
 40
5
100
AcDbArc
 50
180
 51
270
  0
CIRCLE
  5
4AF
100
AcDbEntity
  8
_Xｭｷ､f
100
AcDbCircle
  6
BYLAYER
 10
6.99999789709795
 20
6.99999849746035
 40
3.25
  0
ARC
  5
4B0
100
AcDbEntity
  8
_Xｭｷ､f
100
AcDbCircle
  6
BYLAYER
 10
74.999997897098
 20
4.9999984974603
 40
5
100
AcDbArc
 50
270
 51
0
  0
CIRCLE
  5
4B1
100
AcDbEntity
  8
_Xｭｷ､f
100
AcDbCircle
  6
BYLAYER
 10
72.999997897098
 20
6.9999984974603
 40
3.25
  0
LINE
  5
4B2
100
AcDbEntity
  8
_Xｭｷ､f
100
AcDbLine
  6
BYLAYER
 10
4.99999789709801
 20
79.9999984974603
 11
74.999997897098
 21
79.9999984974603
  0
CIRCLE
  5
4B3
100
AcDbEntity
  8
_Xｭｷ､f
100
AcDbCircle
  6
BYLAYER
 10
6.99999789709801
 20
72.9999984974604
 40
3.25
  0
ARC
  5
4B4
100
AcDbEntity
  8
_Xｭｷ､f
100
AcDbCircle
  6
BYLAYER
 10
4.99999789709801
 20
74.9999984974603
 40
5
100
AcDbArc
 50
90
 51
180
  0
CIRCLE
  5
4B5
100
AcDbEntity
  8
_Xｭｷ､f
100
AcDbCircle
  6
BYLAYER
 10
72.999997897098
 20
72.9999984974603
 40
3.25
  0
ARC
  5
4B6
100
AcDbEntity
  8
_Xｭｷ､f
100
AcDbCircle
  6
BYLAYER
 10
74.999997897098
 20
74.9999984974603
 40
5
100
AcDbArc
 50
0
 51
90
  0
ENDBLK
  5
4B7
100
AcDbEntity
  8
0
 67
     1
100
AcDbBlockEnd
  0
BLOCK
  5
4B8
100
AcDbEntity
  8
0
100
AcDbBlockBegin
  2
A$C2D3D7F29
 70
    0
 10
0
 20
0
 30
0.0
  3
A$C2D3D7F29
  1

  0
LINE
  5
4B9
100
AcDbEntity
  8
_Xｭｷ､f
100
AcDbLine
  6
BYLAYER
 10
-2.7648773653E-6
 20
78.9999984974603
 11
-2.7648773653E-6
 21
0.999998497460297
  0
LINE
  5
4BA
100
AcDbEntity
  8
_Xｭｷ､f
100
AcDbLine
  6
BYLAYER
 10
19.9999972351226
 20
79.9999984974603
 11
19.9999972351226
 21
-1.5025397033E-6
  0
ARC
  5
4BB
100
AcDbEntity
  8
HIDDEN
100
AcDbCircle
  6
BYLAYER
370
0
 10
17.1638972351227
 20
-2.00000150253967
 40
3.59999999999998
100
AcDbArc
 50
38.0190924335641
 51
90.0000000000004
  0
LINE
  5
4BC
100
AcDbEntity
  8
HIDDEN
100
AcDbLine
  6
BYLAYER
370
0
 10
17.1638972351226
 20
1.59999849746032
 11
-2.7648773653E-6
 21
1.59999849746032
  0
ARC
  5
4BD
100
AcDbEntity
  8
_Xｭｷ､f
100
AcDbCircle
  6
BYLAYER
370
0
 10
17.1638972351226
 20
-2.00000150253965
 40
3.00000000000001
100
AcDbArc
 50
41.8103148957772
 51
89.9999999999992
  0
LINE
  5
4BE
100
AcDbEntity
  8
_Xｭｷ､f
100
AcDbLine
  6
BYLAYER
370
0
 10
17.1638972351226
 20
0.999998497460354
 11
-2.7648773653E-6
 21
0.999998497460354
  0
LINE
  5
4BF
100
AcDbEntity
  8
_Xｭｷ､f
100
AcDbLine
  6
BYLAYER
 10
19.9999972351226
 20
-1.5025397033E-6
 11
19.3999652126224
 21
-1.5025397033E-6
  0
ARC
  5
4C0
100
AcDbEntity
  8
HIDDEN
100
AcDbCircle
  6
BYLAYER
370
0
 10
17.1638972351226
 20
81.9999984974603
 40
3.60000000000001
100
AcDbArc
 50
-89.9999999999995
 51
-398.019092433563
  0
LINE
  5
4C1
100
AcDbEntity
  8
HIDDEN
100
AcDbLine
  6
BYLAYER
370
0
 10
17.1638972351226
 20
78.3999984974603
 11
-2.7648773653E-6
 21
78.3999984974603
  0
ARC
  5
4C2
100
AcDbEntity
  8
_Xｭｷ､f
100
AcDbCircle
  6
BYLAYER
370
0
 10
17.1638972351227
 20
81.9999984974603
 40
2.99999999999998
100
AcDbArc
 50
-90.0000000000004
 51
-401.810314895778
  0
LINE
  5
4C3
100
AcDbEntity
  8
_Xｭｷ､f
100
AcDbLine
  6
BYLAYER
370
0
 10
17.1638972351226
 20
78.9999984974603
 11
-2.7648773653E-6
 21
78.9999984974603
  0
LINE
  5
4C4
100
AcDbEntity
  8
_Xｭｷ､f
100
AcDbLine
  6
BYLAYER
 10
19.9999972351226
 20
79.9999984974603
 11
19.3999652126224
 21
79.9999984974603
  0
ENDBLK
  5
4C5
100
AcDbEntity
  8
0
 67
     1
100
AcDbBlockEnd
  0
BLOCK
  5
4C6
100
AcDbEntity
  8
0
100
AcDbBlockBegin
  2
A$C3F5A6B5D
 70
    0
 10
0
 20
0
 30
0.0
  3
A$C3F5A6B5D
  1

  0
LINE
  5
4C7
100
AcDbEntity
  8
ｾﾉｪO
100
AcDbLine
  6
BYLAYER
 10
4.128778528E-7
 20
170.00000162193
 11
4.128778528E-7
 21
1.6219304939E-6
  0
LINE
  5
4C8
100
AcDbEntity
  8
ｾﾉｪO
100
AcDbLine
  6
BYLAYER
 10
10.0000004128778
 20
143.75000162193
 11
10.0000004128781
 21
26.2500016219304
  0
LINE
  5
4C9
100
AcDbEntity
  8
HIDDEN
100
AcDbLine
  6
BYLAYER
370
0
 10
4.128778528E-7
 20
1.6219304371E-6
 11
4.128778528E-7
 21
17.2500016219304
  0
ARC
  5
4CA
100
AcDbEntity
  8
HIDDEN
100
AcDbCircle
  6
BYLAYER
370
0
 10
10.0000004128779
 20
17.2500016219304
 40
10
100
AcDbArc
 50
90.0000000000001
 51
-180
  0
LINE
  5
4CB
100
AcDbEntity
  8
ｾﾉｪO
100
AcDbLine
  6
BYLAYER
 10
4.128778528E-7
 20
1.6219304371E-6
 11
4.128778528E-7
 21
23.2500016219304
  0
LINE
  5
4CC
100
AcDbEntity
  8
ｾﾉｪO
100
AcDbLine
  6
BYLAYER
370
0
 10
1.00000041287785
 20
1.6219304371E-6
 11
1.00000041287785
 21
17.2500016219304
  0
ARC
  5
4CD
100
AcDbEntity
  8
ｾﾉｪO
100
AcDbCircle
  6
BYLAYER
370
0
 10
10.0000004128779
 20
17.2500016219304
 40
9.00000000000002
100
AcDbArc
 50
90.0000000000001
 51
-180
  0
LINE
  5
4CE
100
AcDbEntity
  8
ｾﾉｪO
100
AcDbLine
  6
BYLAYER
 10
4.128778528E-7
 20
1.6219305508E-6
 11
1.00000041287785
 21
1.6219305508E-6
  0
LINE
  5
4CF
100
AcDbEntity
  8
ｾﾉｪO
100
AcDbLine
  6
BYLAYER
 10
10.0000004128778
 20
26.2500016219304
 11
10.0000004128778
 21
26.2500016219304
  0
LINE
  5
4D0
100
AcDbEntity
  8
HIDDEN
100
AcDbLine
  6
BYLAYER
370
0
 10
4.128778528E-7
 20
170.00000162193
 11
4.128778528E-7
 21
152.75000162193
  0
ARC
  5
4D1
100
AcDbEntity
  8
HIDDEN
100
AcDbCircle
  6
BYLAYER
370
0
 10
10.0000004128778
 20
152.75000162193
 40
9.99999999999998
100
AcDbArc
 50
-180
 51
-89.9999999999999
  0
LINE
  5
4D2
100
AcDbEntity
  8
ｾﾉｪO
100
AcDbLine
  6
BYLAYER
 10
4.128778528E-7
 20
170.00000162193
 11
4.128778528E-7
 21
146.75000162193
  0
LINE
  5
4D3
100
AcDbEntity
  8
ｾﾉｪO
100
AcDbLine
  6
BYLAYER
370
0
 10
1.00000041287785
 20
170.00000162193
 11
1.00000041287785
 21
152.75000162193
  0
ARC
  5
4D4
100
AcDbEntity
  8
ｾﾉｪO
100
AcDbCircle
  6
BYLAYER
370
0
 10
10.0000004128778
 20
152.75000162193
 40
8.99999999999998
100
AcDbArc
 50
-180
 51
-89.9999999999999
  0
LINE
  5
4D5
100
AcDbEntity
  8
ｾﾉｪO
100
AcDbLine
  6
BYLAYER
 10
10.0000004128778
 20
143.75000162193
 11
10.0000004128778
 21
143.75000162193
  0
LINE
  5
4D6
100
AcDbEntity
  8
ｾﾉｪO
100
AcDbLine
  6
BYLAYER
 10
4.128778528E-7
 20
170.00000162193
 11
1.00000041287785
 21
170.00000162193
  0
ENDBLK
  5
4D7
100
AcDbEntity
  8
0
 67
     1
100
AcDbBlockEnd
  0
BLOCK
  5
4D8
100
AcDbEntity
  8
0
100
AcDbBlockBegin
  2
A$C10D82111
 70
    0
 10
0
 20
0
 30
0.0
  3
A$C10D82111
  1

  0
LINE
  5
4D9
100
AcDbEntity
  8
0
100
AcDbLine
  6
BYLAYER
 10
40.0000008150914
 20
121.159869323161
 11
40.0000008150914
 21
12.8401330013658
  0
LINE
  5
4DA
100
AcDbEntity
  8
0
100
AcDbLine
  6
BYLAYER
 10
8.150914255E-7
 20
131.000001162263
 11
8.150914255E-7
 21
3.00000116226329
  0
LINE
  5
4DB
100
AcDbEntity
  8
0
100
AcDbLine
  6
BYLAYER
 10
4.00000081509165
 20
130.500001162263
 11
4.00000081509165
 21
3.50000116226329
  0
LINE
  5
4DC
100
AcDbEntity
  8
BASE
100
AcDbLine
  6
BYLAYER
370
0
 10
27.0000008150914
 20
73.0000011622633
 11
27.0000008150914
 21
92.8687792131595
  0
ARC
  5
4DD
100
AcDbEntity
  8
BASE
100
AcDbCircle
  6
BYLAYER
370
0
 10
42.0000008150914
 20
92.8687792131594
 40
15
100
AcDbArc
 50
148.999999999999
 51
-180.000000000001
  0
LINE
  5
4DE
100
AcDbEntity
  8
BASE
100
AcDbLine
  6
BYLAYER
370
0
 10
29.1424913045598
 20
100.59435033681
 11
36.8575103256233
 21
113.43429819951
  0
ARC
  5
4DF
100
AcDbEntity
  8
BASE
100
AcDbCircle
  6
BYLAYER
370
0
 10
24.0000008150911
 20
121.159869323161
 40
15.0000000000003
100
AcDbArc
 50
-30.9999999999986
 51
1.25313854449663E-12
  0
LINE
  5
4E0
100
AcDbEntity
  8
BASE
100
AcDbLine
  6
BYLAYER
370
0
 10
39.0000008150914
 20
121.159869323161
 11
39.0000008150914
 21
127.000001162263
  0
ARC
  5
4E1
100
AcDbEntity
  8
BASE
100
AcDbCircle
  6
BYLAYER
370
0
 10
36.5000008150914
 20
127.000001162263
 40
2.49999999999999
100
AcDbArc
 50
1.97194390250738E-13
 51
90.0000000000001
  0
LINE
  5
4E2
100
AcDbEntity
  8
BASE
100
AcDbLine
  6
BYLAYER
370
0
 10
28.0000008150914
 20
73.0000011622633
 11
28.0000008150914
 21
92.8687792131595
  0
ARC
  5
4E3
100
AcDbEntity
  8
BASE
100
AcDbCircle
  6
BYLAYER
370
0
 10
42.0000008150915
 20
92.8687792131591
 40
14
100
AcDbArc
 50
148.999999999998
 51
-180.000000000002
  0
LINE
  5
4E4
100
AcDbEntity
  8
BASE
100
AcDbLine
  6
BYLAYER
370
0
 10
29.9996586052621
 20
100.0793122619
 11
37.7146776263253
 21
112.9192601246
  0
ARC
  5
4E5
100
AcDbEntity
  8
BASE
100
AcDbCircle
  6
BYLAYER
370
0
 10
24.0000008150918
 20
121.159869323161
 40
15.9999999999996
100
AcDbArc
 50
-30.9999999999998
 51
-1.33583296621468E-13
  0
LINE
  5
4E6
100
AcDbEntity
  8
BASE
100
AcDbLine
  6
BYLAYER
370
0
 10
40.0000008150914
 20
121.159869323161
 11
40.0000008150914
 21
127.000001162263
  0
ARC
  5
4E7
100
AcDbEntity
  8
BASE
100
AcDbCircle
  6
BYLAYER
370
0
 10
36.5000008150914
 20
127.000001162263
 40
3.49999999999999
100
AcDbArc
 50
-6.36110936292703E-15
 51
90
  0
LINE
  5
4E8
100
AcDbEntity
  8
HIDDEN
100
AcDbLine
  6
BYLAYER
 10
36.0000008150914
 20
130.500001162263
 11
36.0000008150914
 21
3.50000116226329
  0
LINE
  5
4E9
100
AcDbEntity
  8
0
100
AcDbLine
  6
BYLAYER
370
0
 10
28.0000008150914
 20
61.0000011622633
 11
28.0000008150914
 21
41.1312231113673
  0
ARC
  5
4EA
100
AcDbEntity
  8
0
100
AcDbCircle
  6
BYLAYER
370
0
 10
42.0000008150919
 20
41.1312231113676
 40
14.0000000000005
100
AcDbArc
 50
-179.999999999999
 51
-148.999999999999
  0
LINE
  5
4EB
100
AcDbEntity
  8
0
100
AcDbLine
  6
BYLAYER
370
0
 10
29.9996586052621
 20
33.9206900626264
 11
37.7146776263253
 21
21.0807421999266
  0
ARC
  5
4EC
100
AcDbEntity
  8
0
100
AcDbCircle
  6
BYLAYER
370
0
 10
24.0000008150914
 20
12.8401330013658
 40
16
100
AcDbArc
 50
-2.79888811968789E-13
 51
-329.000000000001
  0
LINE
  5
4ED
100
AcDbEntity
  8
0
100
AcDbLine
  6
BYLAYER
370
0
 10
40.0000008150914
 20
12.8401330013658
 11
40.0000008150914
 21
7.00000116226329
  0
ARC
  5
4EE
100
AcDbEntity
  8
0
100
AcDbCircle
  6
BYLAYER
370
0
 10
36.5000008150914
 20
7.00000116226328
 40
3.49999999999999
100
AcDbArc
 50
-89.9999999999999
 51
-360
  0
LINE
  5
4EF
100
AcDbEntity
  8
0
100
AcDbLine
  6
BYLAYER
370
0
 10
27.0000008150914
 20
61.0000011622633
 11
27.0000008150914
 21
41.131223111367
  0
ARC
  5
4F0
100
AcDbEntity
  8
0
100
AcDbCircle
  6
BYLAYER
370
0
 10
42.0000008150913
 20
41.1312231113672
 40
14.9999999999999
100
AcDbArc
 50
-179.999999999999
 51
-148.999999999999
  0
LINE
  5
4F1
100
AcDbEntity
  8
0
100
AcDbLine
  6
BYLAYER
370
0
 10
29.1424913045598
 20
33.4056519877163
 11
36.8575103256233
 21
20.5657041250165
  0
ARC
  5
4F2
100
AcDbEntity
  8
0
100
AcDbCircle
  6
BYLAYER
370
0
 10
24.0000008150916
 20
12.840133001366
 40
14.9999999999999
100
AcDbArc
 50
-7.63333123551244E-13
 51
-329.000000000001
  0
LINE
  5
4F3
100
AcDbEntity
  8
0
100
AcDbLine
  6
BYLAYER
370
0
 10
39.0000008150914
 20
12.8401330013658
 11
39.0000008150914
 21
7.00000116226329
  0
ARC
  5
4F4
100
AcDbEntity
  8
0
100
AcDbCircle
  6
BYLAYER
370
0
 10
36.5000008150914
 20
7.00000116226329
 40
2.5
100
AcDbArc
 50
-89.9999999999999
 51
-360
  0
LINE
  5
4F5
100
AcDbEntity
  8
0
100
AcDbLine
  6
BYLAYER
 10
4.50000081509165
 20
3.00000116226329
 11
35.5000008150914
 21
3.00000116226329
  0
LINE
  5
4F6
100
AcDbEntity
  8
0
100
AcDbLine
  6
BYLAYER
 10
4.00000081509165
 20
4.57403085681903
 11
36.0000008150914
 21
4.57403085681903
  0
LINE
  5
4F7
100
AcDbEntity
  8
0
100
AcDbLine
  6
BYLAYER
 10
4.00000081509165
 20
7.45359579454089
 11
36.0000008150914
 21
7.45359579454089
  0
ARC
  5
4F8
100
AcDbEntity
  8
0
100
AcDbCircle
  6
BYLAYER
 10
4.50000081509165
 20
3.50000116226329
 40
0.5
100
AcDbArc
 50
180
 51
270
  0
LINE
  5
4F9
100
AcDbEntity
  8
0
100
AcDbLine
  6
BYLAYER
 10
2.60000081509156
 20
1.00000116226329
 11
2.60000081509156
 21
1.1622632883E-6
  0
LINE
  5
4FA
100
AcDbEntity
  8
0
100
AcDbLine
  6
BYLAYER
370
0
 10
4.00000081509165
 20
3.50000116226329
 11
1.50000081509142
 21
3.50000116226329
  0
ARC
  5
4FB
100
AcDbEntity
  8
0
100
AcDbCircle
  6
BYLAYER
370
0
 10
1.50000081509143
 20
3.00000116226329
 40
0.5
100
AcDbArc
 50
-270
 51
-180
  0
LINE
  5
4FC
100
AcDbEntity
  8
0
100
AcDbLine
  6
BYLAYER
370
0
 10
1.00000081509142
 20
3.00000116226329
 11
1.00000081509142
 21
1.50000116226329
  0
ARC
  5
4FD
100
AcDbEntity
  8
0
100
AcDbCircle
  6
BYLAYER
370
0
 10
1.50000081509142
 20
1.50000116226329
 40
0.5
100
AcDbArc
 50
-180
 51
-90
  0
LINE
  5
4FE
100
AcDbEntity
  8
0
100
AcDbLine
  6
BYLAYER
370
0
 10
1.50000081509142
 20
1.00000116226329
 11
2.60000081509156
 21
1.00000116226329
  0
LINE
  5
4FF
100
AcDbEntity
  8
0
100
AcDbLine
  6
BYLAYER
370
0
 10
4.00000081509165
 20
4.50000116226329
 11
1.50000081509142
 21
4.50000116226329
  0
ARC
  5
500
100
AcDbEntity
  8
0
100
AcDbCircle
  6
BYLAYER
370
0
 10
1.50000081509143
 20
3.00000116226329
 40
1.5
100
AcDbArc
 50
-270
 51
-180
  0
LINE
  5
501
100
AcDbEntity
  8
0
100
AcDbLine
  6
BYLAYER
370
0
 10
8.150914255E-7
 20
3.00000116226329
 11
8.150914255E-7
 21
1.50000116226329
  0
ARC
  5
502
100
AcDbEntity
  8
0
100
AcDbCircle
  6
BYLAYER
370
0
 10
1.50000081509142
 20
1.50000116226329
 40
1.5
100
AcDbArc
 50
-180
 51
-90
  0
LINE
  5
503
100
AcDbEntity
  8
0
100
AcDbLine
  6
BYLAYER
370
0
 10
1.50000081509142
 20
1.1622632883E-6
 11
2.60000081509156
 21
1.1622632883E-6
  0
LINE
  5
504
100
AcDbEntity
  8
BASE
100
AcDbLine
  6
BYLAYER
 10
36.0000008150914
 20
4.50000116226329
 11
36.5000008150914
 21
4.50000116226329
  0
ARC
  5
505
100
AcDbEntity
  8
BASE
100
AcDbCircle
  6
BYLAYER
 10
35.5000008150914
 20
3.50000116226329
 40
0.5
100
AcDbArc
 50
270
 51
0
  0
LINE
  5
506
100
AcDbEntity
  8
BASE
100
AcDbLine
  6
BYLAYER
 10
36.5000008150914
 20
3.50000116226329
 11
36.0000008150914
 21
3.50000116226329
  0
LINE
  5
507
100
AcDbEntity
  8
0
100
AcDbLine
  6
BYLAYER
 10
4.00000081509165
 20
11.7288780048893
 11
36.0000008150914
 21
11.7288780048893
  0
LINE
  5
508
100
AcDbEntity
  8
0
100
AcDbLine
  6
BYLAYER
 10
4.00000081509142
 20
16.6321497401695
 11
36.0000008150914
 21
16.6321497401695
  0
LINE
  5
509
100
AcDbEntity
  8
0
100
AcDbLine
  6
BYLAYER
 10
4.00000081509165
 20
17.1930311030808
 11
36.0000008150914
 21
17.1930311030808
  0
LINE
  5
50A
100
AcDbEntity
  8
BASE
100
AcDbLine
  6
BYLAYER
 10
12.0000008150914
 20
76.0000011622633
 11
12.0000008150914
 21
58.0000011622633
  0
LINE
  5
50B
100
AcDbEntity
  8
BASE
100
AcDbLine
  6
BYLAYER
 10
25.9226505459019
 20
71.0000011622633
 11
25.9226505459019
 21
63.0000011622633
  0
LINE
  5
50C
100
AcDbEntity
  8
BASE
100
AcDbLine
  6
BYLAYER
 10
26.5000008150914
 20
72.0000011622633
 11
26.5000008150914
 21
62.0000011622633
  0
LINE
  5
50D
100
AcDbEntity
  8
BASE
100
AcDbLine
  6
BYLAYER
 10
28.0000008150914
 20
72.0000011622633
 11
28.0000008150914
 21
62.0000011622633
  0
LINE
  5
50E
100
AcDbEntity
  8
BASE
100
AcDbLine
  6
BYLAYER
 10
29.0000008150914
 20
73.0000011622633
 11
29.0000008150914
 21
61.0000011622633
  0
LINE
  5
50F
100
AcDbEntity
  8
BASE
100
AcDbLine
  6
BYLAYER
 10
12.5000008150914
 20
71.0000011622633
 11
12.5000008150914
 21
63.0000011622633
  0
LINE
  5
510
100
AcDbEntity
  8
CEN
100
AcDbLine
  6
BYLAYER
 10
40.0000008150914
 20
67.0000011622633
 11
11.4000008150915
 21
67.0000011622633
  0
LINE
  5
511
100
AcDbEntity
  8
BASE
100
AcDbLine
  6
BYLAYER
 10
25.9226505459019
 20
63.0000011622633
 11
12.5000008150914
 21
63.0000011622633
  0
LINE
  5
512
100
AcDbEntity
  8
BASE
100
AcDbLine
  6
BYLAYER
 10
27.0000008150914
 20
57.5000011622633
 11
12.5000008150914
 21
57.5000011622633
  0
LINE
  5
513
100
AcDbEntity
  8
BASE
100
AcDbLine
  6
BYLAYER
 10
12.5000008150914
 20
63.0000011622633
 11
12.0000008150914
 21
62.5000011622633
  0
LINE
  5
514
100
AcDbEntity
  8
BASE
100
AcDbLine
  6
BYLAYER
 10
12.5000008150914
 20
57.5000011622633
 11
12.0000008150914
 21
58.0000011622633
  0
LINE
  5
515
100
AcDbEntity
  8
BASE
100
AcDbLine
  6
BYLAYER
 10
27.0000008150914
 20
61.0000011622633
 11
28.0000008150914
 21
61.0000011622633
  0
LINE
  5
516
100
AcDbEntity
  8
BASE
100
AcDbLine
  6
BYLAYER
 10
28.0000008150914
 20
61.0000011622633
 11
27.0000008150914
 21
61.0000011622633
  0
ARC
  5
517
100
AcDbEntity
  8
BASE
100
AcDbCircle
  6
BYLAYER
 10
28.0000008150914
 20
61.0000011622633
 40
1
100
AcDbArc
 50
270
 51
90
  0
LINE
  5
518
100
AcDbEntity
  8
BASE
100
AcDbLine
  6
BYLAYER
 10
27.0000008150914
 20
61.0000011622633
 11
27.0000008150914
 21
57.5000011622633
  0
LINE
  5
519
100
AcDbEntity
  8
BASE
100
AcDbLine
  6
BYLAYER
 10
26.5000008150914
 20
62.0000011622633
 11
25.9226505459019
 21
63.0000011622633
  0
LINE
  5
51A
100
AcDbEntity
  8
BASE
100
AcDbLine
  6
BYLAYER
 10
28.0000008150914
 20
62.0000011622633
 11
26.5000008150914
 21
62.0000011622633
  0
LINE
  5
51B
100
AcDbEntity
  8
BASE
100
AcDbLine
  6
BYLAYER
 10
25.9226505459019
 20
71.0000011622633
 11
12.5000008150914
 21
71.0000011622633
  0
LINE
  5
51C
100
AcDbEntity
  8
BASE
100
AcDbLine
  6
BYLAYER
 10
27.0000008150914
 20
76.5000011622633
 11
12.5000008150914
 21
76.5000011622633
  0
LINE
  5
51D
100
AcDbEntity
  8
BASE
100
AcDbLine
  6
BYLAYER
 10
12.5000008150914
 20
76.5000011622633
 11
12.0000008150914
 21
76.0000011622633
  0
LINE
  5
51E
100
AcDbEntity
  8
BASE
100
AcDbLine
  6
BYLAYER
 10
12.5000008150914
 20
71.0000011622633
 11
12.0000008150914
 21
71.5000011622633
  0
LINE
  5
51F
100
AcDbEntity
  8
BASE
100
AcDbLine
  6
BYLAYER
 10
27.0000008150914
 20
73.0000011622633
 11
28.0000008150914
 21
73.0000011622633
  0
LINE
  5
520
100
AcDbEntity
  8
BASE
100
AcDbLine
  6
BYLAYER
 10
27.0000008150914
 20
76.5000011622633
 11
27.0000008150914
 21
73.0000011622633
  0
LINE
  5
521
100
AcDbEntity
  8
BASE
100
AcDbLine
  6
BYLAYER
 10
28.0000008150914
 20
73.0000011622633
 11
27.0000008150914
 21
73.0000011622633
  0
ARC
  5
522
100
AcDbEntity
  8
BASE
100
AcDbCircle
  6
BYLAYER
 10
28.0000008150914
 20
73.0000011622633
 40
1
100
AcDbArc
 50
270
 51
90
  0
LINE
  5
523
100
AcDbEntity
  8
BASE
100
AcDbLine
  6
BYLAYER
 10
26.5000008150914
 20
72.0000011622633
 11
25.9226505459019
 21
71.0000011622633
  0
LINE
  5
524
100
AcDbEntity
  8
CEN
100
AcDbLine
  6
BYLAYER
 10
19.5000008150914
 20
76.5000011622633
 11
19.5000008150914
 21
71.0000011622633
  0
LINE
  5
525
100
AcDbEntity
  8
BASE
100
AcDbLine
  6
BYLAYER
 10
21.5000008150914
 20
76.5000011622633
 11
21.5000008150914
 21
71.0000011622633
  0
LINE
  5
526
100
AcDbEntity
  8
BASE
100
AcDbLine
  6
BYLAYER
 10
17.5000008150914
 20
76.5000011622633
 11
17.5000008150914
 21
71.0000011622633
  0
LINE
  5
527
100
AcDbEntity
  8
BASE
100
AcDbLine
  6
BYLAYER
 10
28.0000008150914
 20
72.0000011622633
 11
26.5000008150914
 21
72.0000011622633
  0
LINE
  5
528
100
AcDbEntity
  8
0
100
AcDbLine
  6
BYLAYER
 10
4.00000081509165
 20
126.546406529986
 11
36.0000008150914
 21
126.546406529986
  0
LINE
  5
529
100
AcDbEntity
  8
0
100
AcDbLine
  6
BYLAYER
 10
4.00000081509165
 20
122.271124319637
 11
36.0000008150914
 21
122.271124319637
  0
LINE
  5
52A
100
AcDbEntity
  8
0
100
AcDbLine
  6
BYLAYER
 10
4.00000081509142
 20
117.367852584357
 11
36.0000008150914
 21
117.367852584357
  0
LINE
  5
52B
100
AcDbEntity
  8
0
100
AcDbLine
  6
BYLAYER
 10
4.00000081509165
 20
116.806971221446
 11
36.0000008150914
 21
116.806971221446
  0
LINE
  5
52C
100
AcDbEntity
  8
0
100
AcDbLine
  6
BYLAYER
 10
4.50000081509165
 20
131.000001162263
 11
35.5000008150914
 21
131.000001162263
  0
LINE
  5
52D
100
AcDbEntity
  8
0
100
AcDbLine
  6
BYLAYER
 10
4.00000081509165
 20
129.425971467708
 11
36.0000008150914
 21
129.425971467708
  0
LINE
  5
52E
100
AcDbEntity
  8
0
100
AcDbLine
  6
BYLAYER
 10
2.60000081509156
 20
133.000001162263
 11
2.60000081509156
 21
134.000001162263
  0
ARC
  5
52F
100
AcDbEntity
  8
0
100
AcDbCircle
  6
BYLAYER
 10
4.50000081509165
 20
130.500001162263
 40
0.5
100
AcDbArc
 50
90
 51
180
  0
LINE
  5
530
100
AcDbEntity
  8
0
100
AcDbLine
  6
BYLAYER
370
0
 10
4.00000081509165
 20
129.500001162263
 11
1.50000081509142
 21
129.500001162263
  0
ARC
  5
531
100
AcDbEntity
  8
0
100
AcDbCircle
  6
BYLAYER
370
0
 10
1.50000081509142
 20
131.000001162263
 40
1.5
100
AcDbArc
 50
180
 51
-90
  0
LINE
  5
532
100
AcDbEntity
  8
0
100
AcDbLine
  6
BYLAYER
370
0
 10
8.150914255E-7
 20
131.000001162263
 11
8.150914255E-7
 21
132.500001162263
  0
ARC
  5
533
100
AcDbEntity
  8
0
100
AcDbCircle
  6
BYLAYER
370
0
 10
1.50000081509143
 20
132.500001162263
 40
1.5
100
AcDbArc
 50
90
 51
-180
  0
LINE
  5
534
100
AcDbEntity
  8
0
100
AcDbLine
  6
BYLAYER
370
0
 10
1.50000081509142
 20
134.000001162263
 11
2.60000081509156
 21
134.000001162263
  0
LINE
  5
535
100
AcDbEntity
  8
0
100
AcDbLine
  6
BYLAYER
370
0
 10
4.00000081509165
 20
130.500001162263
 11
1.50000081509142
 21
130.500001162263
  0
ARC
  5
536
100
AcDbEntity
  8
0
100
AcDbCircle
  6
BYLAYER
370
0
 10
1.50000081509142
 20
131.000001162263
 40
0.5
100
AcDbArc
 50
180
 51
-90
  0
LINE
  5
537
100
AcDbEntity
  8
0
100
AcDbLine
  6
BYLAYER
370
0
 10
1.00000081509142
 20
131.000001162263
 11
1.00000081509142
 21
132.500001162263
  0
ARC
  5
538
100
AcDbEntity
  8
0
100
AcDbCircle
  6
BYLAYER
370
0
 10
1.50000081509142
 20
132.500001162263
 40
0.5
100
AcDbArc
 50
90
 51
-180
  0
LINE
  5
539
100
AcDbEntity
  8
0
100
AcDbLine
  6
BYLAYER
370
0
 10
1.50000081509142
 20
133.000001162263
 11
2.60000081509156
 21
133.000001162263
  0
ARC
  5
53A
100
AcDbEntity
  8
BASE
100
AcDbCircle
  6
BYLAYER
 10
35.5000008150914
 20
130.500001162263
 40
0.5
100
AcDbArc
 50
0
 51
90
  0
LINE
  5
53B
100
AcDbEntity
  8
BASE
100
AcDbLine
  6
BYLAYER
 10
36.0000008150914
 20
129.500001162263
 11
36.5000008150914
 21
129.500001162263
  0
LINE
  5
53C
100
AcDbEntity
  8
BASE
100
AcDbLine
  6
BYLAYER
 10
36.5000008150914
 20
130.500001162263
 11
36.0000008150914
 21
130.500001162263
  0
ENDBLK
  5
53D
100
AcDbEntity
  8
0
 67
     1
100
AcDbBlockEnd
  0
BLOCK
  5
53E
100
AcDbEntity
  8
0
100
AcDbBlockBegin
  2
A$C12011E55
 70
    0
 10
0
 20
0
 30
0.0
  3
A$C12011E55
  1

  0
LINE
  5
53F
100
AcDbEntity
  8
_ｨｹF
100
AcDbLine
  6
BYLAYER
 10
129.000002144198
 20
69.7099501787663
 11
110.500002144198
 21
69.7099501787663
  0
LINE
  5
540
100
AcDbEntity
  8
_ｨｹF
100
AcDbLine
  6
BYLAYER
 10
128.000002144198
 20
62.7099501787663
 11
110.500002144198
 21
62.7099501787663
  0
ARC
  5
541
100
AcDbEntity
  8
_ｨｹF
100
AcDbCircle
  6
BYLAYER
 10
52.0000021441981
 20
115.18324658012
 40
5
100
AcDbArc
 50
270
 51
0
  0
ARC
  5
542
100
AcDbEntity
  8
_ｨｹF
100
AcDbCircle
  6
BYLAYER
 10
52.0000021441981
 20
114.477797551295
 40
5
100
AcDbArc
 50
270
 51
0
  0
ARC
  5
543
100
AcDbEntity
  8
_ｨｹF
100
AcDbCircle
  6
BYLAYER
 10
7.00000214419811
 20
115.183246580121
 40
5
100
AcDbArc
 50
180
 51
270
  0
ARC
  5
544
100
AcDbEntity
  8
_ｨｹF
100
AcDbCircle
  6
BYLAYER
 10
7.00000214419811
 20
114.477797551295
 40
5
100
AcDbArc
 50
180
 51
270
  0
LINE
  5
545
100
AcDbEntity
  8
_ｨｹF
100
AcDbLine
  6
BYLAYER
 10
89.0000021441981
 20
115.209950178766
 11
89.0000021441981
 21
18.2099501787663
  0
LINE
  5
546
100
AcDbEntity
  8
_ｨｹF
100
AcDbLine
  6
BYLAYER
 10
2.1441981062E-6
 20
112.209950178766
 11
2.1441981062E-6
 21
21.2099501787663
  0
LINE
  5
547
100
AcDbEntity
  8
_ｨｹF
100
AcDbLine
  6
BYLAYER
 10
96.0000021441981
 20
112.209950178766
 11
96.0000021441981
 21
21.2099501787663
  0
LINE
  5
548
100
AcDbEntity
  8
_ｨｹF
100
AcDbLine
  6
BYLAYER
 10
7.00000214419811
 20
110.18324658012
 11
52.0000021441981
 21
110.18324658012
  0
LINE
  5
549
100
AcDbEntity
  8
_ｨｹF
100
AcDbLine
  6
BYLAYER
 10
7.00000214419811
 20
109.477797551295
 11
52.0000021441981
 21
109.477797551295
  0
LWPOLYLINE
  5
54A
100
AcDbEntity
  8
_ｨｹF
100
AcDbPolyline
  6
BYLAYER
370
0
 90
     2
 10
14.9632880750073
  20
65.7486457211282
 10
21.7483747836352
  20
65.7486457211282
  0
LWPOLYLINE
  5
54B
100
AcDbEntity
  8
_ｨｹF
100
AcDbPolyline
  6
BYLAYER
 90
     37
 10
14.9632880750073
  20
43.6766609966435
 10
15.0974085259396
  20
43.4725596096128
 10
15.2348695987736
  20
43.2789028297298
 10
15.3766207183705
  20
43.0976793849954
 10
15.5236113095913
  20
42.9308780034106
 10
15.6767907972975
  20
42.7804874129764
 10
15.8371086063499
  20
42.6484963416938
 10
16.00551416161
  20
42.5368935175636
 10
16.1829568879387
  20
42.447667668587
 10
16.3703862101973
  20
42.3828075227649
 10
16.5682213899614
  20
42.3437041650768
 10
16.774761035664
  20
42.329358108417
 10
16.9877735924527
  20
42.3381722226579
 10
17.205027505475
  20
42.3685493776725
 10
17.4242912198785
  20
42.4188924433332
 10
17.6433331808106
  20
42.4876042895129
 10
17.8599218334188
  20
42.5730877860843
 10
18.0718256228508
  20
42.6737458029199
 10
18.2768129942539
  20
42.7879812098926
 10
18.4732955223456
  20
42.9137598273892
 10
18.6622573001227
  20
43.0472992778533
 10
18.8453255501519
  20
43.1843801342428
 10
19.0241274949998
  20
43.3207829695154
 10
19.2002903572331
  20
43.4522883566291
 10
19.3754413594185
  20
43.5746768685417
 10
19.5512077241225
  20
43.6837290782109
 10
19.729216673912
  20
43.7752255585946
 10
19.9110954313535
  20
43.8449468826507
 10
20.0981388972956
  20
43.8896919478895
 10
20.2903126857142
  20
43.9103329500326
 10
20.487250088867
  20
43.9087604093539
 10
20.6885843990117
  20
43.8868648461273
 10
20.8939489084061
  20
43.846536780627
 10
21.1029769093079
  20
43.7896667331268
 10
21.3153016939749
  20
43.7181452239009
 10
21.5305565546647
  20
43.6338627732233
 10
21.7483747836352
  20
43.5387099013678
  0
LWPOLYLINE
  5
54C
100
AcDbEntity
  8
_ｨｹF
100
AcDbPolyline
  6
BYLAYER
 90
     37
 10
15.0362715018528
  20
42.9473735592026
 10
15.170391952785
  20
42.7432721721719
 10
15.307853025619
  20
42.5496153922889
 10
15.4496041452159
  20
42.3683919475545
 10
15.5965947364368
  20
42.2015905659697
 10
15.7497742241429
  20
42.0511999755355
 10
15.9100920331954
  20
41.9192089042528
 10
16.0784975884554
  20
41.8076060801227
 10
16.2559403147841
  20
41.7183802311461
 10
16.4433696370428
  20
41.6535200853239
 10
16.6412048168068
  20
41.6144167276359
 10
16.8477444625094
  20
41.600070670976
 10
17.0607570192982
  20
41.608884785217
 10
17.2780109323205
  20
41.6392619402315
 10
17.4972746467239
  20
41.6896050058923
 10
17.716316607656
  20
41.758316852072
 10
17.9329052602643
  20
41.8438003486433
 10
18.1448090496962
  20
41.944458365479
 10
18.3497964210993
  20
42.0586937724516
 10
18.5462789491911
  20
42.1844723899482
 10
18.7352407269682
  20
42.3180118404123
 10
18.9183089769974
  20
42.4550926968018
 10
19.0971109218453
  20
42.5914955320744
 10
19.2732737840786
  20
42.7230009191881
 10
19.4484247862639
  20
42.8453894311006
 10
19.624191150968
  20
42.9544416407698
 10
19.8022001007575
  20
43.0459381211536
 10
19.984078858199
  20
43.1156594452096
 10
20.1711223241411
  20
43.1604045104485
 10
20.3632961125597
  20
43.1810455125916
 10
20.5602335157124
  20
43.1794729719129
 10
20.7615678258571
  20
43.1575774086863
 10
20.9669323352515
  20
43.117249343186
 10
21.1759603361533
  20
43.0603792956859
 10
21.3882851208203
  20
42.98885778646
 10
21.6035399815102
  20
42.9045753357823
 10
21.8213582104806
  20
42.8094224639269
  0
LWPOLYLINE
  5
54D
100
AcDbEntity
  8
_ｨｹF
100
AcDbPolyline
  6
BYLAYER
 90
     12
 10
19.7858376976399
  20
16.986620658337
 10
19.7858376976399
  20
16.986620658337
 10
19.8063149889908
  20
16.3920953763886
 10
19.8305155250257
  20
15.9210184894091
 10
19.8675780278566
  20
15.5290838429735
 10
19.9266412195955
  20
15.1719852826573
 10
20.0168438223548
  20
14.8054166540351
 10
20.1473245582463
  20
14.3850718026829
 10
20.3272221493824
  20
13.8666445741753
 10
20.5656753178753
  20
13.2058288140879
 10
19.8436027902083
  20
15.1972387981386
 10
20.5656753178753
  20
13.2058288140879
  0
LWPOLYLINE
  5
54E
100
AcDbEntity
  8
_ｨｹF
100
AcDbPolyline
  6
BYLAYER
370
0
 90
     2
 10
14.9632880750073
  20
16.9977681534142
 10
21.7483747836352
  20
16.9977681534142
  0
ARC
  5
54F
100
AcDbEntity
  8
_ｨｹF
100
AcDbCircle
  6
BYLAYER
 10
18.5000021441981
 20
66.7099501787663
 40
4.5
100
AcDbArc
 50
316.208308324419
 51
218.19262751648
  0
ARC
  5
550
100
AcDbEntity
  8
_ｨｹF
100
AcDbCircle
  6
BYLAYER
 10
18.5000021441981
 20
66.7099501787663
 40
8.5
100
AcDbArc
 50
292.467634557022
 51
90
  0
LWPOLYLINE
  5
551
100
AcDbEntity
  8
_ｨｹF
100
AcDbPolyline
  6
BYLAYER
370
0
 90
     2
 10
14.9632880750073
  20
65.7486457211282
 10
14.9632880750073
  20
16.9977681534142
  0
LINE
  5
552
100
AcDbEntity
  8
_ｨｹF
100
AcDbLine
  6
BYLAYER
 10
7.00000214419811
 20
109.477797551295
 11
7.00000214419811
 21
18.2099501787663
  0
LWPOLYLINE
  5
553
100
AcDbEntity
  8
_ｨｹF
100
AcDbPolyline
  6
BYLAYER
 90
     12
 10
17.764034620172
  20
16.986620658337
 10
17.764034620172
  20
16.986620658337
 10
17.6120610349835
  20
16.5616534991686
 10
17.5013809433649
  20
16.2060204292307
 10
17.4299635204893
  20
15.8700038539239
 10
17.3957779415314
  20
15.5038861786497
 10
17.3967933816648
  20
15.0579498088093
 10
17.4309790160639
  20
14.4824771498038
 10
17.4963040199022
  20
13.7277506070343
 10
17.5907375683544
  20
12.7440525859022
 10
17.3019085572876
  20
15.7167360308265
 10
17.5907375683544
  20
12.7440525859022
  0
ARC
  5
554
100
AcDbEntity
  8
_ｨｹF
100
AcDbCircle
  6
BYLAYER
 10
3.00000214419811
 20
21.2099501787663
 40
3
100
AcDbArc
 50
180
 51
270
  0
LINE
  5
555
100
AcDbEntity
  8
_ｨｹF
100
AcDbLine
  6
BYLAYER
 10
14.9632880750073
 20
18.2099501787663
 11
3.00000214419811
 21
18.2099501787663
  0
LINE
  5
556
100
AcDbEntity
  8
HIDDEN
100
AcDbLine
  6
BYLAYER
 10
7.00000214419811
 20
29.2099501787663
 11
2.1441981062E-6
 21
29.2099501787663
  0
LINE
  5
557
100
AcDbEntity
  8
HIDDEN
100
AcDbLine
  6
BYLAYER
 10
7.00000214419811
 20
34.2099501787663
 11
2.1441981062E-6
 21
34.2099501787663
  0
LINE
  5
558
100
AcDbEntity
  8
_ｨｹF
100
AcDbLine
  6
BYLAYER
 10
7.00000214419811
 20
30.0099501787663
 11
2.1441981062E-6
 21
30.0099501787663
  0
LINE
  5
559
100
AcDbEntity
  8
_ｨｹF
100
AcDbLine
  6
BYLAYER
 10
7.00000214419811
 20
33.4099501787664
 11
2.1441981062E-6
 21
33.4099501787662
  0
LINE
  5
55A
100
AcDbEntity
  8
_ｨｹF
100
AcDbLine
  6
BYLAYER
 10
18.5000021441981
 20
75.2099501787663
 11
7.00000214419811
 21
75.2099501787663
  0
LWPOLYLINE
  5
55B
100
AcDbEntity
  8
_ｨｹF
100
AcDbPolyline
  6
BYLAYER
370
100
 90
     2
 10
19.4639708412508
  20
65.7498591862823
 10
19.4639708412508
  20
67.116974629296
  0
LWPOLYLINE
  5
55C
100
AcDbEntity
  8
_ｨｹF
100
AcDbPolyline
  6
BYLAYER
370
100
 90
     2
 10
17.3534633052939
  20
65.7498591862823
 10
17.3534633052939
  20
67.116974629296
  0
LINE
  5
55D
100
AcDbEntity
  8
_ｨｹF
100
AcDbLine
  6
BYLAYER
 10
14.9632880750073
 20
58.2099501787663
 11
7.00000214419811
 21
58.2099501787663
  0
LINE
  5
55E
100
AcDbEntity
  8
HIDDEN
100
AcDbLine
  6
BYLAYER
 10
7.00000214419811
 20
99.2099501787663
 11
2.1441981062E-6
 21
99.2099501787663
  0
LINE
  5
55F
100
AcDbEntity
  8
HIDDEN
100
AcDbLine
  6
BYLAYER
 10
7.00000214419811
 20
104.209950178766
 11
2.1441981062E-6
 21
104.209950178766
  0
LINE
  5
560
100
AcDbEntity
  8
_ｨｹF
100
AcDbLine
  6
BYLAYER
 10
7.00000214419811
 20
100.009950178766
 11
2.1441981062E-6
 21
100.009950178766
  0
LINE
  5
561
100
AcDbEntity
  8
_ｨｹF
100
AcDbLine
  6
BYLAYER
 10
7.00000214419811
 20
103.409950178766
 11
2.1441981062E-6
 21
103.409950178766
  0
LWPOLYLINE
  5
562
100
AcDbEntity
  8
_ｨｹF
100
AcDbPolyline
  6
BYLAYER
370
0
 90
     2
 10
21.7483747836352
  20
65.7486457211282
 10
21.7483747836352
  20
16.9977681534142
  0
LINE
  5
563
100
AcDbEntity
  8
_ｨｹF
100
AcDbLine
  6
BYLAYER
 10
93.0000021441981
 20
18.2099501787663
 11
21.7483747836352
 21
18.2099501787663
  0
ARC
  5
564
100
AcDbEntity
  8
_ｨｹF
100
AcDbCircle
  6
BYLAYER
 10
93.0000021441981
 20
21.2099501787663
 40
3
100
AcDbArc
 50
270
 51
0
  0
LINE
  5
565
100
AcDbEntity
  8
HIDDEN
100
AcDbLine
  6
BYLAYER
 10
96.0000021441981
 20
29.2099501787663
 11
89.0000021441981
 21
29.2099501787663
  0
LINE
  5
566
100
AcDbEntity
  8
HIDDEN
100
AcDbLine
  6
BYLAYER
 10
96.0000021441981
 20
34.2099501787663
 11
89.0000021441981
 21
34.2099501787663
  0
LINE
  5
567
100
AcDbEntity
  8
_ｨｹF
100
AcDbLine
  6
BYLAYER
 10
96.0000021441981
 20
30.0099501787663
 11
89.0000021441981
 21
30.0099501787663
  0
LINE
  5
568
100
AcDbEntity
  8
_ｨｹF
100
AcDbLine
  6
BYLAYER
 10
96.0000021441981
 20
33.4099501787664
 11
89.0000021441981
 21
33.4099501787664
  0
LINE
  5
569
100
AcDbEntity
  8
_ｨｹF
100
AcDbLine
  6
BYLAYER
 10
96.0000021441981
 20
72.7099501787663
 11
109.500002144198
 21
72.7099501787663
  0
LINE
  5
56A
100
AcDbEntity
  8
_ｨｹF
100
AcDbLine
  6
BYLAYER
 10
96.0000021441981
 20
60.7099501787663
 11
109.500002144198
 21
60.7099501787663
  0
ARC
  5
56B
100
AcDbEntity
  8
_ｨｹF
100
AcDbCircle
  6
BYLAYER
 10
109.500002144198
 20
71.7099501787663
 40
1
100
AcDbArc
 50
0
 51
90
  0
ARC
  5
56C
100
AcDbEntity
  8
_ｨｹF
100
AcDbCircle
  6
BYLAYER
 10
109.500002144198
 20
61.7099501787663
 40
1
100
AcDbArc
 50
270
 51
0
  0
LINE
  5
56D
100
AcDbEntity
  8
_ｨｹF
100
AcDbLine
  6
BYLAYER
 10
110.500002144198
 20
71.7099501787663
 11
110.500002144198
 21
61.7099501787663
  0
LINE
  5
56E
100
AcDbEntity
  8
HIDDEN
100
AcDbLine
  6
BYLAYER
 10
96.0000021441981
 20
99.2099501787663
 11
89.0000021441981
 21
99.2099501787663
  0
LINE
  5
56F
100
AcDbEntity
  8
HIDDEN
100
AcDbLine
  6
BYLAYER
 10
96.0000021441981
 20
104.209950178766
 11
89.0000021441981
 21
104.209950178766
  0
LINE
  5
570
100
AcDbEntity
  8
_ｨｹF
100
AcDbLine
  6
BYLAYER
 10
96.0000021441981
 20
100.009950178766
 11
89.0000021441981
 21
100.009950178766
  0
LINE
  5
571
100
AcDbEntity
  8
_ｨｹF
100
AcDbLine
  6
BYLAYER
 10
96.0000021441981
 20
103.409950178766
 11
89.0000021441981
 21
103.409950178766
  0
LINE
  5
572
100
AcDbEntity
  8
_ｨｹF
100
AcDbLine
  6
BYLAYER
 10
2.00000214419811
 20
142.209950178766
 11
57.0000021441981
 21
142.209950178766
  0
LINE
  5
573
100
AcDbEntity
  8
_ｨｹF
100
AcDbLine
  6
BYLAYER
 10
2.23366901204395
 20
113.672594908381
 11
56.7663352763523
 21
113.672594908381
  0
LINE
  5
574
100
AcDbEntity
  8
_ｨｹF
100
AcDbLine
  6
BYLAYER
 10
2.00000214419811
 20
142.209950178766
 11
2.00000214419811
 21
115.183246580121
  0
ARC
  5
575
100
AcDbEntity
  8
_ｨｹF
100
AcDbCircle
  6
BYLAYER
 10
3.00000214419811
 20
112.209950178766
 40
3
100
AcDbArc
 50
109.471220634488
 51
180
  0
LINE
  5
576
100
AcDbEntity
  8
_ｨｹF
100
AcDbLine
  6
BYLAYER
 10
93.0000021441981
 20
115.209950178766
 11
57.0000021441981
 21
115.209950178766
  0
LINE
  5
577
100
AcDbEntity
  8
_ｨｹF
100
AcDbLine
  6
BYLAYER
 10
57.0000021441981
 20
142.209950178766
 11
57.0000021441981
 21
115.18324658012
  0
ARC
  5
578
100
AcDbEntity
  8
_ｨｹF
100
AcDbCircle
  6
BYLAYER
 10
93.0000021441981
 20
112.209950178766
 40
3
100
AcDbArc
 50
0
 51
90
  0
ARC
  5
579
100
AcDbEntity
  8
_ｨｹF
100
AcDbCircle
  6
BYLAYER
 10
128.000002144198
 20
63.7099501787663
 40
1
100
AcDbArc
 50
270
 51
0
  0
LINE
  5
57A
100
AcDbEntity
  8
_ｨｹF
100
AcDbLine
  6
BYLAYER
 10
129.000002144198
 20
69.7099501787663
 11
129.000002144198
 21
63.7099501787663
  0
INSERT
  5
57B
100
AcDbEntity
  8
_ｨｹF
100
AcDbBlockReference
  6
CONTINUOUS
  2
Rｺﾝ､L
 10
17.580856940056
 20
12.7647300546748
 30
0.0
 41
0.799999999999887
 42
0.799999999999955
 50
175.321776731351
  0
INSERT
  5
57C
100
AcDbEntity
  8
_ｨｹF
100
AcDbBlockReference
  6
CONTINUOUS
  2
Rｺﾝ､L
 10
20.6022338499906
 20
13.2035180303358
 30
0.0
 41
0.800000000000045
 42
0.799999999999955
 50
200.604987494379
  0
ENDBLK
  5
57D
100
AcDbEntity
  8
0
 67
     1
100
AcDbBlockEnd
  0
BLOCK
  5
57E
100
AcDbEntity
  8
0
100
AcDbBlockBegin
  2
A$C51B807F4
 70
    0
 10
0
 20
0
 30
0.0
  3
A$C51B807F4
  1

  0
LINE
  5
57F
100
AcDbEntity
  8
__ｴﾟ
100
AcDbLine
  6
BYLAYER
 10
56.0000034867257
 20
-1.1837231852E-6
 11
56.000003486726
 21
129.987725285026
  0
LINE
  5
580
100
AcDbEntity
  8
__ｴﾟ
100
AcDbLine
  6
BYLAYER
 10
66.0000034867262
 20
-1.1837231852E-6
 11
66.0000034867261
 21
129.987725285026
  0
LINE
  5
581
100
AcDbEntity
  8
__ｴﾟ
100
AcDbLine
  6
BYLAYER
 10
24.0000034867267
 20
-1.1837231852E-6
 11
24.0000034867265
 21
129.987725285026
  0
LINE
  5
582
100
AcDbEntity
  8
__ｴﾟ
100
AcDbLine
  6
BYLAYER
 10
14.0000034867262
 20
-1.1837231852E-6
 11
14.0000034867264
 21
129.987725285026
  0
LINE
  5
583
100
AcDbEntity
  8
__ｴﾟ
100
AcDbLine
  6
BYLAYER
 10
24.0000034867267
 20
0.999998816276815
 11
56.0000034867257
 21
0.999998816276815
  0
LINE
  5
584
100
AcDbEntity
  8
__ｴﾟ
100
AcDbLine
  6
BYLAYER
 10
24.0000034867267
 20
-1.1837231852E-6
 11
14.0000034867262
 21
-1.1837231852E-6
  0
LINE
  5
585
100
AcDbEntity
  8
__ｴﾟ
100
AcDbLine
  6
BYLAYER
 10
56.0000034867257
 20
-1.1837231852E-6
 11
66.0000034867262
 21
-1.1837231852E-6
  0
LINE
  5
586
100
AcDbEntity
  8
__ｴﾟ
100
AcDbLine
  6
BYLAYER
 10
13.7500034867262
 20
196.237725285026
 11
66.2500034867262
 21
196.237725285026
  0
LINE
  5
587
100
AcDbEntity
  8
__ｴﾟ
100
AcDbLine
  6
BYLAYER
 10
5.0000034867262
 20
209.987725285026
 11
75.0000034867262
 21
209.987725285026
  0
LINE
  5
588
100
AcDbEntity
  8
__ｴﾟ
100
AcDbLine
  6
BYLAYER
 10
15.2500034867262
 20
194.187725285026
 11
64.7500034867262
 21
194.187725285026
  0
LINE
  5
589
100
AcDbEntity
  8
__ｴﾟ
100
AcDbLine
  6
BYLAYER
 10
15.2500034867262
 20
194.987725285026
 11
64.7500034867262
 21
194.987725285026
  0
LINE
  5
58A
100
AcDbEntity
  8
__ｴﾟ
100
AcDbLine
  6
BYLAYER
 10
13.7500034867262
 20
143.737725285026
 11
66.2500034867262
 21
143.737725285026
  0
LINE
  5
58B
100
AcDbEntity
  8
__ｴﾟ
100
AcDbLine
  6
BYLAYER
 10
5.0000034867262
 20
129.987725285026
 11
75.0000034867262
 21
129.987725285026
  0
LINE
  5
58C
100
AcDbEntity
  8
__ｴﾟ
100
AcDbLine
  6
BYLAYER
 10
15.2500034867262
 20
145.787725285026
 11
64.7500034867262
 21
145.787725285026
  0
LINE
  5
58D
100
AcDbEntity
  8
__ｴﾟ
100
AcDbLine
  6
BYLAYER
 10
15.2500034867262
 20
144.987725285026
 11
64.7500034867262
 21
144.987725285026
  0
LINE
  5
58E
100
AcDbEntity
  8
__ｴﾟ
100
AcDbLine
  6
BYLAYER
 10
13.7500034867262
 20
143.737725285026
 11
13.7500034867262
 21
196.237725285026
  0
LINE
  5
58F
100
AcDbEntity
  8
__ｴﾟ
100
AcDbLine
  6
BYLAYER
 10
3.4867262002E-6
 20
204.987725285026
 11
3.4867262002E-6
 21
134.987725285026
  0
LINE
  5
590
100
AcDbEntity
  8
__ｴﾟ
100
AcDbLine
  6
BYLAYER
 10
14.2500034867261
 20
143.737725285026
 11
14.2500034867262
 21
195.987725285026
  0
LINE
  5
591
100
AcDbEntity
  8
__ｴﾟ
100
AcDbLine
  6
BYLAYER
 10
15.2500034867262
 20
194.987725285026
 11
15.2500034867262
 21
144.987725285026
  0
CIRCLE
  5
592
100
AcDbEntity
  8
__ｴﾟ
100
AcDbCircle
  6
BYLAYER
 10
7.00000348672614
 20
136.987725285026
 40
3.25
  0
ARC
  5
593
100
AcDbEntity
  8
__ｴﾟ
100
AcDbCircle
  6
BYLAYER
 10
5.0000034867262
 20
134.987725285026
 40
5
100
AcDbArc
 50
180
 51
270
  0
LINE
  5
594
100
AcDbEntity
  8
__ｴﾟ
100
AcDbLine
  6
BYLAYER
 10
24.2500034867263
 20
143.987725285026
 11
14.2500034867261
 21
143.987725285026
  0
LINE
  5
595
100
AcDbEntity
  8
__ｴﾟ
100
AcDbLine
  6
BYLAYER
 10
24.2500034867263
 20
144.987725285026
 11
15.2500034867262
 21
144.987725285026
  0
LINE
  5
596
100
AcDbEntity
  8
__ｴﾟ
100
AcDbLine
  6
BYLAYER
 10
24.2500034867263
 20
143.737725285026
 11
24.2500034867263
 21
144.987725285026
  0
LINE
  5
597
100
AcDbEntity
  8
__ｴﾟ
100
AcDbLine
  6
BYLAYER
 10
24.2500034867262
 20
194.987725285026
 11
15.2500034867262
 21
194.987725285026
  0
LINE
  5
598
100
AcDbEntity
  8
__ｴﾟ
100
AcDbLine
  6
BYLAYER
 10
24.2500034867262
 20
195.987725285026
 11
14.2500034867262
 21
195.987725285026
  0
LINE
  5
599
100
AcDbEntity
  8
__ｴﾟ
100
AcDbLine
  6
BYLAYER
 10
24.2500034867262
 20
194.987725285026
 11
24.2500034867262
 21
195.987725285026
  0
CIRCLE
  5
59A
100
AcDbEntity
  8
__ｴﾟ
100
AcDbCircle
  6
BYLAYER
 10
7.0000034867262
 20
202.987725285026
 40
3.25
  0
ARC
  5
59B
100
AcDbEntity
  8
__ｴﾟ
100
AcDbCircle
  6
BYLAYER
 10
5.0000034867262
 20
204.987725285026
 40
5
100
AcDbArc
 50
90
 51
180
  0
LINE
  5
59C
100
AcDbEntity
  8
__ｴﾟ
100
AcDbLine
  6
BYLAYER
 10
65.7500034867262
 20
143.737725285026
 11
65.7500034867262
 21
195.987725285026
  0
LINE
  5
59D
100
AcDbEntity
  8
__ｴﾟ
100
AcDbLine
  6
BYLAYER
 10
66.2500034867262
 20
143.737725285026
 11
66.2500034867262
 21
196.237725285026
  0
LINE
  5
59E
100
AcDbEntity
  8
__ｴﾟ
100
AcDbLine
  6
BYLAYER
 10
80.0000034867262
 20
204.987725285026
 11
80.0000034867262
 21
134.987725285026
  0
LINE
  5
59F
100
AcDbEntity
  8
__ｴﾟ
100
AcDbLine
  6
BYLAYER
 10
64.7500034867262
 20
194.987725285026
 11
64.7500034867262
 21
144.987725285026
  0
CIRCLE
  5
5A0
100
AcDbEntity
  8
__ｴﾟ
100
AcDbCircle
  6
BYLAYER
 10
73.0000034867262
 20
136.987725285026
 40
3.25
  0
ARC
  5
5A1
100
AcDbEntity
  8
__ｴﾟ
100
AcDbCircle
  6
BYLAYER
 10
75.0000034867262
 20
134.987725285026
 40
5
100
AcDbArc
 50
270
 51
0
  0
LINE
  5
5A2
100
AcDbEntity
  8
__ｴﾟ
100
AcDbLine
  6
BYLAYER
 10
55.7500034867262
 20
143.737725285026
 11
55.7500034867262
 21
144.987725285026
  0
LINE
  5
5A3
100
AcDbEntity
  8
__ｴﾟ
100
AcDbLine
  6
BYLAYER
 10
55.7500034867261
 20
143.987725285026
 11
65.7500034867263
 21
143.987725285026
  0
LINE
  5
5A4
100
AcDbEntity
  8
__ｴﾟ
100
AcDbLine
  6
BYLAYER
 10
55.7500034867261
 20
144.987725285026
 11
64.7500034867262
 21
144.987725285026
  0
LINE
  5
5A5
100
AcDbEntity
  8
__ｴﾟ
100
AcDbLine
  6
BYLAYER
 10
55.7500034867262
 20
194.987725285026
 11
55.7500034867262
 21
195.987725285026
  0
LINE
  5
5A6
100
AcDbEntity
  8
__ｴﾟ
100
AcDbLine
  6
BYLAYER
 10
55.7500034867262
 20
194.987725285026
 11
64.7500034867262
 21
194.987725285026
  0
LINE
  5
5A7
100
AcDbEntity
  8
__ｴﾟ
100
AcDbLine
  6
BYLAYER
 10
55.7500034867262
 20
195.987725285026
 11
65.7500034867262
 21
195.987725285026
  0
CIRCLE
  5
5A8
100
AcDbEntity
  8
__ｴﾟ
100
AcDbCircle
  6
BYLAYER
 10
73.0000034867262
 20
202.987725285026
 40
3.25
  0
ARC
  5
5A9
100
AcDbEntity
  8
__ｴﾟ
100
AcDbCircle
  6
BYLAYER
 10
75.0000034867262
 20
204.987725285026
 40
5
100
AcDbArc
 50
0
 51
90
  0
ENDBLK
  5
5AA
100
AcDbEntity
  8
0
 67
     1
100
AcDbBlockEnd
  0
BLOCK
  5
5AB
100
AcDbEntity
  8
0
100
AcDbBlockBegin
  2
A$C2D9E4FCD
 70
    0
 10
0
 20
0
 30
0.0
  3
A$C2D9E4FCD
  1

  0
LINE
  5
5AC
100
AcDbEntity
  8
､Jｭｷ､f
100
AcDbLine
  6
BYLAYER
 10
158.957206880948
 20
84.537063896586
 11
152.562012321336
 21
57.5764056239168
  0
ARC
  5
5AD
100
AcDbEntity
  8
､Jｭｷ､f
100
AcDbCircle
  6
BYLAYER
 10
84.9999984332455
 20
84.9986647813154
 40
84.9999999999999
100
AcDbArc
 50
70.189259151794
 51
289.810740848206
  0
ARC
  5
5AE
100
AcDbEntity
  8
､Jｭｷ､f
100
AcDbCircle
  6
BYLAYER
 10
84.7268291121034
 20
73.3832400828354
 40
74.283058973676
100
AcDbArc
 50
293.04708378785
 51
342.165628799049
  0
ARC
  5
5AF
100
AcDbEntity
  8
､Jｭｷ､f
100
AcDbCircle
  6
BYLAYER
 10
84.7268291121034
 20
96.6140894797952
 40
74.283058973676
100
AcDbArc
 50
17.8343712009517
 51
66.9529162121499
  0
LINE
  5
5B0
100
AcDbEntity
  8
､Jｭｷ､f
100
AcDbLine
  6
BYLAYER
 10
158.957206881237
 20
85.4602655997319
 11
152.562012321329
 21
112.420923938744
  0
ARC
  5
5B1
100
AcDbEntity
  8
､Jｭｷ､f
100
AcDbCircle
  6
BYLAYER
 10
158.762001116592
 20
57.5646183976938
 40
6.19999999999998
100
AcDbArc
 50
179.891071173937
 51
230.411441841202
  0
ARC
  5
5B2
100
AcDbEntity
  8
､Jｭｷ､f
100
AcDbCircle
  6
BYLAYER
 10
158.762001116585
 20
112.432711164933
 40
6.19999999999997
100
AcDbArc
 50
129.588558158747
 51
180.108928825747
  0
CIRCLE
  5
5B3
100
AcDbEntity
  8
､Jｭｷ､f
100
AcDbCircle
  6
BYLAYER
 10
84.9999984332458
 20
84.9986647813153
 40
63.5
  0
CIRCLE
  5
5B4
100
AcDbEntity
  8
､Jｭｷ､f
100
AcDbCircle
  6
BYLAYER
 10
32.6740966254411
 20
32.6727629735108
 40
3.5
  0
CIRCLE
  5
5B5
100
AcDbEntity
  8
､Jｭｷ､f
100
AcDbCircle
  6
BYLAYER
 10
115.422897347557
 20
18.9153104350837
 40
2.25
  0
CIRCLE
  5
5B6
100
AcDbEntity
  8
､Jｭｷ､f
100
AcDbCircle
  6
BYLAYER
 10
137.32590024105
 20
32.6727629735108
 40
3.5
  0
CIRCLE
  5
5B7
100
AcDbEntity
  8
､Jｭｷ､f
100
AcDbCircle
  6
BYLAYER
 10
12.5586853449647
 20
91.6933386378718
 40
2.25
  0
CIRCLE
  5
5B8
100
AcDbEntity
  8
､Jｭｷ､f
100
AcDbCircle
  6
BYLAYER
 10
32.6740966254411
 20
137.32456658912
 40
3.5
  0
CIRCLE
  5
5B9
100
AcDbEntity
  8
､Jｭｷ､f
100
AcDbCircle
  6
BYLAYER
 10
137.32590024105
 20
137.32456658912
 40
3.5
  0
CIRCLE
  5
5BA
100
AcDbEntity
  8
､Jｭｷ､f
100
AcDbCircle
  6
BYLAYER
 10
127.018412607215
 20
144.38734527099
 40
2.25
  0
ARC
  5
5BB
100
AcDbEntity
  8
､Jｭｷ､f
100
AcDbCircle
  6
BYLAYER
 10
153.53638623723
 20
51.2453661371335
 40
2
100
AcDbArc
 50
342.165628799049
 51
50.4114418412015
  0
ARC
  5
5BC
100
AcDbEntity
  8
､Jｭｷ､f
100
AcDbCircle
  6
BYLAYER
 10
157.011204657603
 20
84.9986647487662
 40
2
100
AcDbArc
 50
346.655799253896
 51
13.3442007103359
  0
ARC
  5
5BD
100
AcDbEntity
  8
､Jｭｷ､f
100
AcDbCircle
  6
BYLAYER
 10
153.53638623723
 20
118.751963425499
 40
2
100
AcDbArc
 50
309.588558158746
 51
17.8343712009533
  0
ENDBLK
  5
5BE
100
AcDbEntity
  8
0
 67
     1
100
AcDbBlockEnd
  0
BLOCK
  5
5BF
100
AcDbEntity
  8
0
100
AcDbBlockBegin
  2
A$C0BBC48C4
 70
    0
 10
0
 20
0
 30
0.0
  3
A$C0BBC48C4
  1

  0
LINE
  5
5C0
100
AcDbEntity
  8
ｸ_ｮy
100
AcDbLine
  6
BYLAYER
 10
97.0000016550848
 20
100.500002157313
 11
97.0000016550848
 21
2.1573129061E-6
  0
LINE
  5
5C1
100
AcDbEntity
  8
ｸ_ｮy
100
AcDbLine
  6
BYLAYER
 10
1.6550848159E-6
 20
2.1573129061E-6
 11
1.6550848159E-6
 21
100.500002157313
  0
LINE
  5
5C2
100
AcDbEntity
  8
ｸ_ｮy
100
AcDbLine
  6
BYLAYER
 10
1.6550848159E-6
 20
2.00000215731291
 11
97.0000016550848
 21
2.00000215731291
  0
LINE
  5
5C3
100
AcDbEntity
  8
ｸ_ｮy
100
AcDbLine
  6
BYLAYER
 10
1.6550848159E-6
 20
2.1573129061E-6
 11
97.0000016550848
 21
2.1573129061E-6
  0
ARC
  5
5C4
100
AcDbEntity
  8
ｸ_ｮy
100
AcDbCircle
  6
BYLAYER
 10
77.0000016550848
 20
30.0000021573129
 40
8
100
AcDbArc
 50
118.955024371846
 51
241.044975628154
  0
ARC
  5
5C5
100
AcDbEntity
  8
ｸ_ｮy
100
AcDbCircle
  6
BYLAYER
 10
77.0000016550848
 20
30.0000021573129
 40
8
100
AcDbArc
 50
298.955024371846
 51
61.0449756281539
  0
LINE
  5
5C6
100
AcDbEntity
  8
ｸ_ｮy
100
AcDbLine
  6
BYLAYER
 10
80.8729850012924
 20
23.0000021573129
 11
73.1270183088773
 21
23.0000021573129
  0
LINE
  5
5C7
100
AcDbEntity
  8
ｸ_ｮy
100
AcDbLine
  6
BYLAYER
 10
80.8729850012924
 20
37.0000021573129
 11
73.1270183088773
 21
37.0000021573129
  0
ARC
  5
5C8
100
AcDbEntity
  8
ｸ_ｮy
100
AcDbCircle
  6
BYLAYER
 10
48.5000016550848
 20
100.500002157313
 40
48.5
100
AcDbArc
 50
0
 51
180
  0
CIRCLE
  5
5C9
100
AcDbEntity
  8
ｸ_ｮy
100
AcDbCircle
  6
BYLAYER
 10
48.5000016550848
 20
135.500002157313
 40
2.75
  0
CIRCLE
  5
5CA
100
AcDbEntity
  8
ｸ_ｮy
100
AcDbCircle
  6
BYLAYER
 10
48.5000016550848
 20
65.5000021573129
 40
2.75
  0
CIRCLE
  5
5CB
100
AcDbEntity
  8
ｸ_ｮy
100
AcDbCircle
  6
BYLAYER
 10
13.5000016550848
 20
100.500002157313
 40
2.75
  0
LINE
  5
5CC
100
AcDbEntity
  8
ｸ_ｮy
100
AcDbLine
  6
BYLAYER
 10
48.5000016550853
 20
100.275002157312
 11
48.5000016550853
 21
100.725002157313
  0
LINE
  5
5CD
100
AcDbEntity
  8
ｸ_ｮy
100
AcDbLine
  6
BYLAYER
 10
48.2750016550854
 20
100.500002157312
 11
48.7250016550852
 21
100.500002157312
  0
CIRCLE
  5
5CE
100
AcDbEntity
  8
ｸ_ｮy
100
AcDbCircle
  6
BYLAYER
 10
83.5000016550848
 20
100.500002157313
 40
2.75
  0
ENDBLK
  5
5CF
100
AcDbEntity
  8
0
 67
     1
100
AcDbBlockEnd
  0
BLOCK
  5
5D0
100
AcDbEntity
  8
0
100
AcDbBlockBegin
  2
A$C14A60303
 70
    0
 10
0
 20
0
 30
0.0
  3
A$C14A60303
  1

  0
LINE
  5
5D1
100
AcDbEntity
  8
ｸ_ｮy
100
AcDbLine
  6
BYLAYER
 10
145
 20
149.000002157313
 11
145
 21
2.00000215731291
  0
LINE
  5
5D2
100
AcDbEntity
  8
ｸ_ｮy
100
AcDbLine
  6
BYLAYER
 10
147
 20
149.000002157313
 11
147
 21
2.1573129061E-6
  0
LINE
  5
5D3
100
AcDbEntity
  8
ｸ_ｮy
100
AcDbLine
  6
BYLAYER
 10
145
 20
2.00000215731291
 11
0
 21
2.00000215731291
  0
LINE
  5
5D4
100
AcDbEntity
  8
ｸ_ｮy
100
AcDbLine
  6
BYLAYER
 10
147
 20
2.1573129061E-6
 11
0
 21
2.1573129061E-6
  0
LINE
  5
5D5
100
AcDbEntity
  8
ｸ_ｮy
100
AcDbLine
  6
BYLAYER
 10
0
 20
2.00000215731291
 11
0
 21
2.1573129061E-6
  0
LINE
  5
5D6
100
AcDbEntity
  8
ｸ_ｮy
100
AcDbLine
  6
BYLAYER
 10
145
 20
23.0000021573129
 11
147
 21
23.0000021573129
  0
LINE
  5
5D7
100
AcDbEntity
  8
ｸ_ｮy
100
AcDbLine
  6
BYLAYER
 10
145
 20
37.0000021573129
 11
147
 21
37.0000021573129
  0
LINE
  5
5D8
100
AcDbEntity
  8
ｸ_ｮy
100
AcDbLine
  6
BYLAYER
 10
147
 20
149.000002157313
 11
145
 21
149.000002157313
  0
ENDBLK
  5
5D9
100
AcDbEntity
  8
0
 67
     1
100
AcDbBlockEnd
  0
BLOCK
  5
5DA
100
AcDbEntity
  8
0
100
AcDbBlockBegin
  2
A$C71152DD0
 70
    0
 10
0
 20
0
 30
0.0
  3
A$C71152DD0
  1

  0
LINE
  5
5DB
100
AcDbEntity
  8
ｨ茹L
100
AcDbLine
  6
BYLAYER
 10
66.5
 20
1.3444541764E-6
 11
0
 21
4.00000134445418
  0
LINE
  5
5DC
100
AcDbEntity
  8
ｨ茹L
100
AcDbLine
  6
BYLAYER
 10
0
 20
20.5000013444542
 11
66.5
 21
24.5000013444542
  0
LINE
  5
5DD
100
AcDbEntity
  8
ｨ茹L
100
AcDbLine
  6
BYLAYER
 10
0
 20
20.5000013444542
 11
0
 21
4.00000134445418
  0
LINE
  5
5DE
100
AcDbEntity
  8
ｨ茹L
100
AcDbLine
  6
BYLAYER
 10
66.5
 20
24.5000013444542
 11
66.5
 21
1.3444541764E-6
  0
ARC
  5
5DF
100
AcDbEntity
  8
ｨ茹L
100
AcDbCircle
  6
BYLAYER
 10
66.5
 20
3.00000134445418
 40
3
100
AcDbArc
 50
270
 51
0
  0
ARC
  5
5E0
100
AcDbEntity
  8
ｨ茹L
100
AcDbCircle
  6
BYLAYER
 10
66.5
 20
21.5000013444542
 40
3
100
AcDbArc
 50
0
 51
90
  0
LINE
  5
5E1
100
AcDbEntity
  8
ｨ茹L
100
AcDbLine
  6
BYLAYER
 10
69.5
 20
21.5000013444542
 11
69.5
 21
3.00000134445418
  0
ENDBLK
  5
5E2
100
AcDbEntity
  8
0
 67
     1
100
AcDbBlockEnd
  0
BLOCK
  5
5E3
100
AcDbEntity
  8
0
100
AcDbBlockBegin
  2
A$C0B777CE8
 70
    0
 10
0
 20
0
 30
0.0
  3
A$C0B777CE8
  1

  0
LINE
  5
5E4
100
AcDbEntity
  8
ｨ茹L
100
AcDbLine
  6
BYLAYER
 10
20.2500022466666
 20
16.000000451515
 11
23.5000022466666
 21
4.515150067E-7
  0
LINE
  5
5E5
100
AcDbEntity
  8
ｨ茹L
100
AcDbLine
  6
BYLAYER
 10
3.25000224666655
 20
16.000000451515
 11
2.2466665541E-6
 21
4.515150067E-7
  0
LINE
  5
5E6
100
AcDbEntity
  8
ｨ茹L
100
AcDbLine
  6
BYLAYER
 10
2.2466665541E-6
 20
4.515150067E-7
 11
23.5000022466666
 21
4.515150067E-7
  0
LINE
  5
5E7
100
AcDbEntity
  8
ｨ茹L
100
AcDbLine
  6
BYLAYER
 10
3.25000224666655
 20
16.000000451515
 11
20.2500022466666
 21
16.000000451515
  0
ENDBLK
  5
5E8
100
AcDbEntity
  8
0
 67
     1
100
AcDbBlockEnd
  0
BLOCK
  5
5E9
100
AcDbEntity
  8
0
100
AcDbBlockBegin
  2
A$C0D036401
 70
    0
 10
0
 20
0
 30
0.0
  3
A$C0D036401
  1

  0
CIRCLE
  5
5EA
100
AcDbEntity
  8
ｨ茹L
100
AcDbCircle
  6
BYLAYER
 10
12.2499953351074
 20
12.250000666053
 40
12.25
  0
LWPOLYLINE
  5
5EB
100
AcDbEntity
  8
ｨ茹L
100
AcDbPolyline
  6
BYLAYER
370
0
 90
     4
 70
     1
 10
8.99730414164924
  20
7.72451726645909
 10
16.7754787347014
  20
15.5026918595113
 10
15.5026865285658
  20
16.7754840656467
 10
7.72451193551387
  20
8.99730947259468
  0
CIRCLE
  5
5EC
100
AcDbEntity
  8
ｨ茹L
100
AcDbCircle
  6
BYLAYER
 10
12.2499953351074
 20
12.250000666053
 40
6
  0
CIRCLE
  5
5ED
100
AcDbEntity
  8
ｨ茹L
100
AcDbCircle
  6
BYLAYER
 10
12.2499953351074
 20
12.250000666053
 40
6.9
  0
ENDBLK
  5
5EE
100
AcDbEntity
  8
0
 67
     1
100
AcDbBlockEnd
  0
BLOCK
  5
5EF
100
AcDbEntity
  8
0
100
AcDbBlockBegin
  2
A$C7F6C03C9
 70
    0
 10
0
 20
0
 30
0.0
  3
A$C7F6C03C9
  1

  0
LINE
  5
5F0
100
AcDbEntity
  8
ｸ_ｮy
100
AcDbLine
  6
BYLAYER
 10
96.9999980820157
 20
100.499999454536
 11
96.9999980820157
 21
-5.454638767E-7
  0
LINE
  5
5F1
100
AcDbEntity
  8
ｸ_ｮy
100
AcDbLine
  6
BYLAYER
 10
-1.9179842639E-6
 20
-5.454638767E-7
 11
-1.9179842639E-6
 21
100.499999454536
  0
LINE
  5
5F2
100
AcDbEntity
  8
ｸ_ｮy
100
AcDbLine
  6
BYLAYER
 10
-1.9179842639E-6
 20
1.99999945453612
 11
96.9999980820157
 21
1.99999945453612
  0
LINE
  5
5F3
100
AcDbEntity
  8
ｸ_ｮy
100
AcDbLine
  6
BYLAYER
 10
-1.9179842639E-6
 20
-5.454638767E-7
 11
96.9999980820157
 21
-5.454638767E-7
  0
LINE
  5
5F4
100
AcDbEntity
  8
ｸ_ｮy
100
AcDbLine
  6
BYLAYER
 10
12.9999980820157
 20
1.99999945453612
 11
12.9999980820157
 21
-5.454638767E-7
  0
LINE
  5
5F5
100
AcDbEntity
  8
ｸ_ｮy
100
AcDbLine
  6
BYLAYER
 10
83.9999980820157
 20
1.99999945453612
 11
83.9999980820157
 21
-5.454638767E-7
  0
LINE
  5
5F6
100
AcDbEntity
  8
ｸ_ｮy
100
AcDbLine
  6
BYLAYER
 10
80.8729814282233
 20
22.9999994545361
 11
73.1270147358084
 21
22.9999994545361
  0
LINE
  5
5F7
100
AcDbEntity
  8
ｸ_ｮy
100
AcDbLine
  6
BYLAYER
 10
80.8729814282233
 20
36.9999994545361
 11
73.1270147358084
 21
36.9999994545361
  0
ARC
  5
5F8
100
AcDbEntity
  8
ｸ_ｮy
100
AcDbCircle
  6
BYLAYER
 10
76.9999980820157
 20
29.9999994545361
 40
8
100
AcDbArc
 50
118.955024371861
 51
241.044975628139
  0
ARC
  5
5F9
100
AcDbEntity
  8
ｸ_ｮy
100
AcDbCircle
  6
BYLAYER
 10
76.9999980820157
 20
29.9999994545361
 40
8
100
AcDbArc
 50
298.955024371861
 51
61.0449756281391
  0
ARC
  5
5FA
100
AcDbEntity
  8
ｸ_ｮy
100
AcDbCircle
  6
BYLAYER
 10
48.4999980820157
 20
100.499999454536
 40
48.5
100
AcDbArc
 50
0
 51
180
  0
CIRCLE
  5
5FB
100
AcDbEntity
  8
ｸ_ｮy
100
AcDbCircle
  6
BYLAYER
 10
13.4999980820157
 20
100.499999454536
 40
2.75
  0
CIRCLE
  5
5FC
100
AcDbEntity
  8
ｸ_ｮy
100
AcDbCircle
  6
BYLAYER
 10
48.4999980820157
 20
65.4999994545361
 40
2.75
  0
LINE
  5
5FD
100
AcDbEntity
  8
ｸ_ｮy
100
AcDbLine
  6
BYLAYER
 10
48.4999980820157
 20
100.274999454536
 11
48.4999980820157
 21
100.724999454536
  0
LINE
  5
5FE
100
AcDbEntity
  8
ｸ_ｮy
100
AcDbLine
  6
BYLAYER
 10
48.2749980820157
 20
100.499999454536
 11
48.7249980820158
 21
100.499999454536
  0
CIRCLE
  5
5FF
100
AcDbEntity
  8
ｸ_ｮy
100
AcDbCircle
  6
BYLAYER
 10
48.4999980820157
 20
135.499999454536
 40
2.75
  0
CIRCLE
  5
600
100
AcDbEntity
  8
ｸ_ｮy
100
AcDbCircle
  6
BYLAYER
 10
83.4999980820157
 20
100.499999454536
 40
2.75
  0
ENDBLK
  5
601
100
AcDbEntity
  8
0
 67
     1
100
AcDbBlockEnd
  0
BLOCK
  5
602
100
AcDbEntity
  8
0
100
AcDbBlockBegin
  2
A$C37F6580F
 70
    0
 10
0
 20
0
 30
0.0
  3
A$C37F6580F
  1

  0
LINE
  5
603
100
AcDbEntity
  8
ｸ_ｮy
100
AcDbLine
  6
BYLAYER
 10
145
 20
1.99999945453612
 11
0
 21
1.99999945453612
  0
LINE
  5
604
100
AcDbEntity
  8
ｸ_ｮy
100
AcDbLine
  6
BYLAYER
 10
147
 20
-5.454638767E-7
 11
0
 21
-5.454638767E-7
  0
LINE
  5
605
100
AcDbEntity
  8
ｸ_ｮy
100
AcDbLine
  6
BYLAYER
 10
0
 20
1.99999945453612
 11
0
 21
-5.454638767E-7
  0
LINE
  5
606
100
AcDbEntity
  8
ｸ_ｮy
100
AcDbLine
  6
BYLAYER
 10
145
 20
148.999999454536
 11
145
 21
1.99999945453612
  0
LINE
  5
607
100
AcDbEntity
  8
ｸ_ｮy
100
AcDbLine
  6
BYLAYER
 10
147
 20
148.999999454536
 11
147
 21
-5.454638767E-7
  0
LINE
  5
608
100
AcDbEntity
  8
CEN
100
AcDbLine
  6
BYLAYER
 10
13
 20
1.99999945453612
 11
13
 21
-5.454638767E-7
  0
LINE
  5
609
100
AcDbEntity
  8
CEN
100
AcDbLine
  6
BYLAYER
 10
130
 20
1.99999945453612
 11
130
 21
-5.454638767E-7
  0
LINE
  5
60A
100
AcDbEntity
  8
CEN
100
AcDbLine
  6
BYLAYER
 10
145
 20
100.499999454536
 11
147
 21
100.499999454536
  0
LINE
  5
60B
100
AcDbEntity
  8
ｸ_ｮy
100
AcDbLine
  6
BYLAYER
 10
147
 20
148.999999454536
 11
145
 21
148.999999454536
  0
ENDBLK
  5
60C
100
AcDbEntity
  8
0
 67
     1
100
AcDbBlockEnd
  0
BLOCK
  5
60D
100
AcDbEntity
  8
0
100
AcDbBlockBegin
  2
A$C6F3E0DB2
 70
    0
 10
0
 20
0
 30
0.0
  3
A$C6F3E0DB2
  1

  0
CIRCLE
  5
60E
100
AcDbEntity
  8
0
100
AcDbCircle
  6
BYLAYER
 10
112.459368472769
 20
89.999999959245
 40
54
  0
CIRCLE
  5
60F
100
AcDbEntity
  8
HIDDEN
100
AcDbCircle
  6
BYLAYER
 10
112.459368472769
 20
89.999999959245
 40
55
  0
CIRCLE
  5
610
100
AcDbEntity
  8
CEN
100
AcDbCircle
  6
BYLAYER
 10
112.459368472769
 20
89.9999999592451
 40
72.7499999999997
  0
CIRCLE
  5
611
100
AcDbEntity
  8
CEN
100
AcDbCircle
  6
BYLAYER
 10
112.459368472769
 20
89.999999959245
 40
73.9999999999999
  0
LINE
  5
612
100
AcDbEntity
  8
DIM
100
AcDbLine
  6
BYLAYER
 62
0
370
  -2
 10
163.199754436319
 20
164.992983575655
 11
160.981715966415
 21
162.237365720282
  0
TEXT
  5
613
100
AcDbEntity
  8
DIM
 62
0
100
AcDbText
  6
BYLAYER
 62
0
 10
167.350111451384
 20
167.328486659919
 40
3.53738949210011
  1
R74.28
  7
Font_0
 50
51.1688862207508
 72
1
 11
169.299360228553
 21
172.57093267793
100
AcDbText
 73
2
  0
SOLID
  5
614
100
AcDbEntity
  8
DIM
100
AcDbTrace
 10
158.763677496512
 20
159.48174786491
 30
0.0
 11
161.440985608977
 21
161.867692641965
 31
0.0
 12
160.522446323853
 22
162.6070387986
 32
0.0
 13
160.522446323853
 23
162.6070387986
 33
0.0
  0
CIRCLE
  5
615
100
AcDbEntity
  8
BASE
100
AcDbCircle
  6
BYLAYER
 10
142.877176990084
 20
23.914302376455
 40
2.25
  0
ARC
  5
616
100
AcDbEntity
  8
BASE
100
AcDbCircle
  6
BYLAYER
 10
112.459368472769
 20
89.999999959245
 40
84.9999999999999
100
AcDbArc
 50
70.1892591517941
 51
289.810740848206
  0
LINE
  5
617
100
AcDbEntity
  8
DIM
100
AcDbLine
  6
BYLAYER
 62
0
370
  -2
 10
137.035690852688
 20
183.131512649792
 11
135.591565541796
 21
177.659026871042
  0
TEXT
  5
618
100
AcDbEntity
  8
DIM
 62
0
100
AcDbText
  6
BYLAYER
 62
0
 10
140.573169252014
 20
186.832092401121
 40
4.95234528894015
  1
φ170
  7
Font_0
 50
75.2173021543869
 72
1
 11
139.758468782598
 21
193.449428545144
100
AcDbText
 73
2
  0
SOLID
  5
619
100
AcDbEntity
  8
DIM
100
AcDbTrace
 10
134.147440230904
 20
172.186541092292
 30
0.0
 11
136.503646504921
 21
177.418339319227
 31
0.0
 12
134.679484578671
 22
177.899714422857
 32
0.0
 13
134.679484578671
 23
177.899714422857
 33
0.0
  0
LINE
  5
61A
100
AcDbEntity
  8
DIM
100
AcDbLine
  6
BYLAYER
 62
0
370
  -2
 10
172.2714147721
 20
23.5314562881735
 11
169.658946008162
 21
25.9164366604767
  0
TEXT
  5
61B
100
AcDbEntity
  8
DIM
 62
0
100
AcDbText
  6
BYLAYER
 62
0
 10
174.34451054087
 20
19.2439964408257
 40
3.53738949210011
  1
R74.28
  7
Font_0
 50
-42.3936437065428
 72
1
 11
179.455703872928
 21
16.9727602643396
100
AcDbText
 73
2
  0
SOLID
  5
61C
100
AcDbEntity
  8
DIM
100
AcDbTrace
 10
167.046477244225
 20
28.3014170327799
 30
0.0
 11
169.261449279445
 21
25.4810251998205
 31
0.0
 12
170.05644273688
 22
26.351848121133
 32
0.0
 13
170.05644273688
 23
26.351848121133
 33
0.0
  0
CIRCLE
  5
61D
100
AcDbEntity
  8
BASE
100
AcDbCircle
  6
BYLAYER
 10
60.1334666649643
 20
37.6740981514404
 40
3.5
  0
CIRCLE
  5
61E
100
AcDbEntity
  8
BASE
100
AcDbCircle
  6
BYLAYER
 10
60.1334666649643
 20
142.325901767049
 40
3.5
  0
CIRCLE
  5
61F
100
AcDbEntity
  8
BASE
100
AcDbCircle
  6
BYLAYER
 10
40.0185712805994
 20
96.7002538471946
 40
2.25
  0
LINE
  5
620
100
AcDbEntity
  8
BASE
100
AcDbLine
  6
BYLAYER
 10
186.416576920472
 20
89.5383990745156
 11
180.021382360859
 21
62.5777408018464
  0
LINE
  5
621
100
AcDbEntity
  8
DIM
100
AcDbLine
  6
BYLAYER
 62
0
370
  -2
 10
189.811156954579
 20
58.4008425596141
 11
186.374874288006
 21
57.5611486545345
  0
TEXT
  5
622
100
AcDbEntity
  8
DIM
 62
0
100
AcDbText
  6
BYLAYER
 62
0
 10
192.235502129287
 20
57.1725226709573
 40
3.53738949210011
  1
R2
  7
Font_0
 50
13.7317636431986
 72
1
 11
193.533796510034
 21
59.3105109567838
100
AcDbText
 73
2
  0
SOLID
  5
623
100
AcDbEntity
  8
DIM
100
AcDbTrace
 10
182.938591621432
 20
56.7214547494548
 30
0.0
 11
186.514823272186
 21
56.9884348767723
 31
0.0
 12
186.234925303826
 22
58.1338624322967
 32
0.0
 13
186.234925303826
 23
58.1338624322967
 33
0.0
  0
LINE
  5
624
100
AcDbEntity
  8
DIM
100
AcDbLine
  6
BYLAYER
 62
0
370
  -2
 10
194.80963526827
 20
66.9282947511321
 11
183.847449283169
 21
61.3601386404323
  0
TEXT
  5
625
100
AcDbEntity
  8
DIM
 62
0
100
AcDbText
  6
BYLAYER
 62
0
 10
197.976013990161
 20
66.5528491760556
 40
3.53738949210011
  1
R6.2
  7
Font_0
 50
26.9279339579398
 72
1
 11
200.328880746023
 21
69.7317520611224
100
AcDbText
 73
2
  0
SOLID
  5
626
100
AcDbEntity
  8
DIM
100
AcDbTrace
 10
180.693594724453
 20
59.7581630347236
 30
0.0
 11
184.114445217454
 21
60.8344962139796
 31
0.0
 12
183.580453348885
 22
61.885781066885
 32
0.0
 13
183.580453348885
 23
61.885781066885
 33
0.0
  0
ARC
  5
627
100
AcDbEntity
  8
BASE
100
AcDbCircle
  6
BYLAYER
 10
112.186199151627
 20
78.384575260765
 40
74.283058973676
100
AcDbArc
 50
293.047083787864
 51
342.165628799047
  0
ARC
  5
628
100
AcDbEntity
  8
BASE
100
AcDbCircle
  6
BYLAYER
 10
186.221371156115
 20
62.5659535756234
 40
6.19999999999998
100
AcDbArc
 50
179.891071173932
 51
230.411441841202
  0
ARC
  5
629
100
AcDbEntity
  8
BASE
100
AcDbCircle
  6
BYLAYER
 10
180.995756276754
 20
56.2467013150631
 40
2
100
AcDbArc
 50
342.165628799047
 51
50.4114418412015
  0
ARC
  5
62A
100
AcDbEntity
  8
DIM
100
AcDbCircle
  6
BYLAYER
 10
112.186199151627
 20
78.384575260765
 40
74.283058973676
100
AcDbArc
 50
342.165628799047
 51
343.327568130442
  0
ARC
  5
62B
100
AcDbEntity
  8
DIM
100
AcDbCircle
  6
BYLAYER
 10
186.221371156115
 20
62.5659535756234
 40
6.19999999999998
100
AcDbArc
 50
230.411441841202
 51
242.374039591111
  0
LINE
  5
62C
100
AcDbEntity
  8
DIM
100
AcDbLine
  6
BYLAYER
 62
0
370
  -2
 10
259.400522891372
 20
175.88434733227
 11
259.400522891372
 21
185.990301621585
  0
LINE
  5
62D
100
AcDbEntity
  8
DIM
100
AcDbLine
  6
BYLAYER
 62
0
370
  -2
 10
258.400522891372
 20
175.88434733227
 11
258.400522891372
 21
185.990301621585
  0
LINE
  5
62E
100
AcDbEntity
  8
DIM
100
AcDbLine
  6
BYLAYER
 62
0
370
  -2
 10
265.060346078732
 20
184.221606875535
 11
270.720169266092
 21
184.221606875535
  0
LINE
  5
62F
100
AcDbEntity
  8
DIM
100
AcDbLine
  6
BYLAYER
 62
0
370
  -2
 10
252.740699704012
 20
184.221606875535
 11
247.080876516652
 21
184.221606875535
  0
SOLID
  5
630
100
AcDbEntity
  8
DIM
100
AcDbTrace
 10
259.400522891372
 20
184.221606875535
 30
0.0
 11
265.060346078732
 21
183.278303010975
 31
0.0
 12
265.060346078732
 22
185.164910740095
 32
0.0
 13
265.060346078732
 23
185.164910740095
 33
0.0
  0
SOLID
  5
631
100
AcDbEntity
  8
DIM
100
AcDbTrace
 10
252.740699704012
 20
185.164910740095
 30
0.0
 11
252.740699704012
 21
183.278303010975
 31
0.0
 12
258.400522891372
 22
184.221606875535
 32
0.0
 13
258.400522891372
 23
184.221606875535
 33
0.0
  0
TEXT
  5
632
100
AcDbEntity
  8
DIM
 62
0
100
AcDbText
  6
BYLAYER
 62
0
 10
242.187487719246
 20
181.745434231065
 40
4.95234528894015
  1
1
  7
Font_0
 72
1
 11
243.425574041481
 21
184.221606875535
100
AcDbText
 73
2
  0
ARC
  5
633
100
AcDbEntity
  8
BASE
100
AcDbCircle
  6
BYLAYER
 10
112.186199151627
 20
101.615424657725
 40
74.283058973676
100
AcDbArc
 50
17.834371200953
 51
66.9529162121502
  0
LINE
  5
634
100
AcDbEntity
  8
BASE
100
AcDbLine
  6
BYLAYER
 10
186.41657692076
 20
90.4616007776615
 11
180.021382360852
 21
117.422259116674
  0
ARC
  5
635
100
AcDbEntity
  8
BASE
100
AcDbCircle
  6
BYLAYER
 10
184.470574697126
 20
89.9999999266959
 40
2
100
AcDbArc
 50
346.655799253892
 51
13.3442007103375
  0
ARC
  5
636
100
AcDbEntity
  8
BASE
100
AcDbCircle
  6
BYLAYER
 10
186.221371156108
 20
117.434046342862
 40
6.19999999999997
100
AcDbArc
 50
129.588558158748
 51
180.108928825742
  0
ARC
  5
637
100
AcDbEntity
  8
BASE
100
AcDbCircle
  6
BYLAYER
 10
180.995756276753
 20
123.753298603428
 40
2
100
AcDbArc
 50
309.588558158748
 51
17.834371200953
  0
ARC
  5
638
100
AcDbEntity
  8
HIDDEN
100
AcDbCircle
  6
BYLAYER
 10
186.221371156107
 20
117.434046342864
 40
6.19999999999997
100
AcDbArc
 50
117.625960408815
 51
129.588558158748
  0
ARC
  5
639
100
AcDbEntity
  8
HIDDEN
100
AcDbCircle
  6
BYLAYER
 10
112.186199151626
 20
101.615424657727
 40
74.283058973676
100
AcDbArc
 50
16.6724318695584
 51
17.834371200953
  0
CIRCLE
  5
63A
100
AcDbEntity
  8
BASE
100
AcDbCircle
  6
BYLAYER
 10
154.482357147623
 20
149.385443654085
 40
2.25
  0
LINE
  5
63B
100
AcDbEntity
  8
BASE
100
AcDbLine
  6
BYLAYER
 10
258.400522891372
 20
174.999999959245
 11
258.400522891372
 21
89.999999959245
  0
LINE
  5
63C
100
AcDbEntity
  8
0
100
AcDbLine
  6
BYLAYER
 10
256.400522891372
 20
153.585443654085
 11
256.400522891372
 21
19.7143023764551
  0
LINE
  5
63D
100
AcDbEntity
  8
0
100
AcDbLine
  6
BYLAYER
 10
255.000522891372
 20
140.199999959245
 11
255.000522891372
 21
39.799999959245
  0
LINE
  5
63E
100
AcDbEntity
  8
BASE
100
AcDbLine
  6
BYLAYER
 10
268.100522891372
 20
144.999999959245
 11
268.100522891372
 21
89.999999959245
  0
LINE
  5
63F
100
AcDbEntity
  8
CEN
100
AcDbLine
  6
BYLAYER
 10
253.870267438394
 20
89.999999959245
 11
273.870267438394
 21
89.999999959245
  0
LINE
  5
640
100
AcDbEntity
  8
0
100
AcDbLine
  6
BYLAYER
 10
259.400522891372
 20
174.999999959245
 11
259.400522891372
 21
155.756858236642
  0
LINE
  5
641
100
AcDbEntity
  8
0
100
AcDbLine
  6
BYLAYER
 10
258.400522891372
 20
174.999999959245
 11
258.400522891372
 21
151.749999959245
  0
LINE
  5
642
100
AcDbEntity
  8
0
100
AcDbLine
  6
BYLAYER
 10
258.400522891372
 20
174.999999959245
 11
259.400522891372
 21
174.999999959245
  0
ARC
  5
643
100
AcDbEntity
  8
0
100
AcDbCircle
  6
BYLAYER
 10
270.400522891372
 20
155.777520920806
 40
12
100
AcDbArc
 50
180
 51
258.949935040673
  0
ARC
  5
644
100
AcDbEntity
  8
0
100
AcDbCircle
  6
BYLAYER
 10
270.400522891372
 20
155.756858236642
 40
11
100
AcDbArc
 50
180
 51
257.930917475647
  0
ARC
  5
645
100
AcDbEntity
  8
0
100
AcDbCircle
  6
BYLAYER
 10
270.400522891372
 20
24.2431416818482
 40
11
100
AcDbArc
 50
102.069082524353
 51
180
  0
ARC
  5
646
100
AcDbEntity
  8
0
100
AcDbCircle
  6
BYLAYER
 10
270.400522891372
 20
24.2224789976843
 40
12
100
AcDbArc
 50
101.050064959327
 51
180
  0
LINE
  5
647
100
AcDbEntity
  8
CEN
100
AcDbLine
  6
BYLAYER
 10
253.870267438394
 20
89.999999959245
 11
273.870267438394
 21
89.999999959245
  0
LINE
  5
648
100
AcDbEntity
  8
0
100
AcDbLine
  6
BYLAYER
 10
258.400522891372
 20
4.99999995924497
 11
258.400522891372
 21
28.249999959245
  0
LINE
  5
649
100
AcDbEntity
  8
0
100
AcDbLine
  6
BYLAYER
 10
259.400522891372
 20
4.99999995924509
 11
259.400522891372
 21
24.2431416818482
  0
LINE
  5
64A
100
AcDbEntity
  8
BASE
100
AcDbLine
  6
BYLAYER
 10
258.400522891372
 20
4.99999995924497
 11
258.400522891372
 21
89.999999959245
  0
LINE
  5
64B
100
AcDbEntity
  8
0
100
AcDbLine
  6
BYLAYER
 10
258.400522891372
 20
4.99999995924509
 11
259.400522891372
 21
4.99999995924509
  0
LINE
  5
64C
100
AcDbEntity
  8
BASE
100
AcDbLine
  6
BYLAYER
 10
268.100522891372
 20
34.999999959245
 11
268.100522891372
 21
89.999999959245
  0
LINE
  5
64D
100
AcDbEntity
  8
DIM
100
AcDbLine
  6
BYLAYER
 62
0
370
  -2
 10
268.100522891372
 20
145.88434733227
 11
268.100522891372
 21
197.523474375348
  0
LINE
  5
64E
100
AcDbEntity
  8
DIM
100
AcDbLine
  6
BYLAYER
 62
0
370
  -2
 10
258.400522891372
 20
175.88434733227
 11
258.400522891372
 21
197.523474375348
  0
LINE
  5
64F
100
AcDbEntity
  8
DIM
100
AcDbLine
  6
BYLAYER
 62
0
370
  -2
 10
273.760346078732
 20
195.754779629298
 11
279.420169266093
 21
195.754779629298
  0
LINE
  5
650
100
AcDbEntity
  8
DIM
100
AcDbLine
  6
BYLAYER
 62
0
370
  -2
 10
252.740699704012
 20
195.754779629298
 11
247.080876516652
 21
195.754779629298
  0
SOLID
  5
651
100
AcDbEntity
  8
DIM
100
AcDbTrace
 10
268.100522891372
 20
195.754779629298
 30
0.0
 11
273.760346078732
 21
194.811475764738
 31
0.0
 12
273.760346078732
 22
196.698083493858
 32
0.0
 13
273.760346078732
 23
196.698083493858
 33
0.0
  0
SOLID
  5
652
100
AcDbEntity
  8
DIM
100
AcDbTrace
 10
252.740699704012
 20
196.698083493858
 30
0.0
 11
252.740699704012
 21
194.811475764738
 31
0.0
 12
258.400522891372
 22
195.754779629298
 32
0.0
 13
258.400522891372
 23
195.754779629298
 33
0.0
  0
TEXT
  5
653
100
AcDbEntity
  8
DIM
 62
0
100
AcDbText
  6
BYLAYER
 62
0
 10
221.552715681996
 20
193.278606984828
 40
4.95234528894015
  1
9.7｡ﾓ0.3
  7
Font_0
 72
1
 11
231.457406259876
 21
195.754779629298
100
AcDbText
 73
2
  0
LINE
  5
654
100
AcDbEntity
  8
DIM
100
AcDbLine
  6
BYLAYER
 62
0
370
  -2
 10
34.1964582375835
 20
134.201716567606
 11
39.8562814249439
 21
134.201716567606
  0
LINE
  5
655
100
AcDbEntity
  8
DIM
100
AcDbLine
  6
BYLAYER
 62
0
370
  -2
 10
39.8562814249439
 20
134.201716567606
 11
61.5006939300642
 21
121.024312870218
  0
TEXT
  5
656
100
AcDbEntity
  8
DIM
 62
0
100
AcDbText
  6
BYLAYER
 62
0
 10
9.49888794161647
 20
131.712584153819
 40
4.95234528894015
  1
φ108
  7
Font_0
 50
0.120000000000001
 72
1
 11
15.684119895593
 21
134.201716567606
100
AcDbText
 73
2
  0
SOLID
  5
657
100
AcDbEntity
  8
DIM
100
AcDbTrace
 10
61.9912309900272
 20
121.830039606585
 30
0.0
 11
61.0101568701013
 21
120.218586133851
 31
0.0
 12
66.3350543482667
 22
118.08109051044
 32
0.0
 13
66.3350543482667
 23
118.08109051044
 33
0.0
  0
LINE
  5
658
100
AcDbEntity
  8
DIM
100
AcDbLine
  6
BYLAYER
 62
0
370
  -2
 10
51.6215104987029
 20
154.457205113987
 11
54.8723415685845
 21
149.824096452702
  0
MTEXT
  5
659
100
AcDbEntity
  8
DIM
 62
0
100
AcDbMText
 10
40.9885838742984
 20
169.611331360272
 40
4.95234528894015
 41
  0.0
  1
4-Φ7\PPCDΦ148
 71
5
  7
Font_0
 11
0.574369721856604
 21
-0.818596006962145
  0
SOLID
  5
65A
100
AcDbEntity
  8
DIM
100
AcDbTrace
 10
55.6445263454654
 20
150.365901631015
 30
0.0
 11
54.1001567917037
 21
149.282291274388
 31
0.0
 12
58.1231726384661
 22
145.190987791417
 32
0.0
 13
58.1231726384661
 23
145.190987791417
 33
0.0
  0
LINE
  5
65B
100
AcDbEntity
  8
DIM
100
AcDbLine
  6
BYLAYER
 62
0
370
  -2
 10
34.5004072324272
 20
109.097236071608
 11
36.8020024228283
 21
103.926524506291
  0
MTEXT
  5
65C
100
AcDbEntity
  8
DIM
 62
0
100
AcDbMText
 10
25.629675769423
 20
129.0260202296
 40
4.95234528894015
 41
  0.0
  1
3-Φ4.5\PPCDΦ145.5
 71
5
  7
Font_0
 11
0.406654963275378
 21
-0.913581819457623
  0
SOLID
  5
65D
100
AcDbEntity
  8
DIM
100
AcDbTrace
 10
37.6637876837145
 20
104.310123704691
 30
0.0
 11
35.9402171619421
 21
103.542925307891
 31
0.0
 12
39.1035976132294
 22
98.7558129409738
 32
0.0
 13
39.1035976132294
 23
98.7558129409738
 33
0.0
  0
LINE
  5
65E
100
AcDbEntity
  8
CEN
100
AcDbLine
  6
BYLAYER
 10
112.459368472769
 20
179.999999959245
 11
112.459368472769
 21
-4.0755026E-8
  0
LINE
  5
65F
100
AcDbEntity
  8
CEN
100
AcDbLine
  6
BYLAYER
 10
22.459368472769
 20
89.999999959245
 11
202.459368472769
 21
89.999999959245
  0
LINE
  5
660
100
AcDbEntity
  8
DIM
100
AcDbLine
  6
BYLAYER
 62
0
370
  -2
 10
187.272619351412
 20
124.750922558156
 11
194.233740048777
 21
127.984378713513
  0
ARC
  5
661
100
AcDbEntity
  8
DIM
100
AcDbCircle
  6
BYLAYER
 62
0
370
  -2
 10
112.459368472769
 20
89.9999999592449
 40
88.3970463976832
100
AcDbArc
 50
2.29296138780106
 51
6.88277269024166
  0
ARC
  5
662
100
AcDbEntity
  8
DIM
100
AcDbCircle
  6
BYLAYER
 62
0
370
  -2
 10
112.459368472769
 20
89.9999999592449
 40
88.3970463976832
100
AcDbArc
 50
18.7501512090997
 51
22.6220125593746
  0
SOLID
  5
663
100
AcDbEntity
  8
DIM
100
AcDbTrace
 10
201.37508380501
 20
93.5484776250275
 30
0.0
 11
200.19619002505
 21
93.52488497322
 31
0.0
 12
200.856414870452
 22
89.999999959245
 32
0.0
 13
200.856414870452
 23
89.999999959245
 33
0.0
  0
SOLID
  5
664
100
AcDbEntity
  8
DIM
100
AcDbTrace
 10
193.515808770861
 20
123.764302953094
 30
0.0
 11
194.59492650448
 21
124.239541918916
 31
0.0
 12
192.629650740206
 22
127.239275636863
 32
0.0
 13
192.629650740206
 23
127.239275636863
 33
0.0
  0
TEXT
  5
665
100
AcDbEntity
  8
DIM
 62
0
100
AcDbText
  6
BYLAYER
 62
0
 10
195.556216728295
 20
115.2528525389
 40
3.53738949210011
  1
24.91｢X
  7
Font_0
 50
-77.1835380503293
 72
1
 11
198.654060783924
 21
109.608998638918
100
AcDbText
 73
2
  0
ARC
  5
666
100
AcDbEntity
  8
BASE
100
AcDbCircle
  6
BYLAYER
 10
164.785270280574
 20
142.325901767049
 40
3.5
100
AcDbArc
 50
135.000056793889
 51
315.000056793889
  0
ARC
  5
667
100
AcDbEntity
  8
BASE
100
AcDbCircle
  6
BYLAYER
 10
165.492376360847
 20
143.033009249148
 40
3.5
100
AcDbArc
 50
315.000056793889
 51
135.000056793889
  0
LINE
  5
668
100
AcDbEntity
  8
0
100
AcDbLine
  6
BYLAYER
 10
162.310394093227
 20
144.800773048006
 11
163.0175001735
 21
145.507880530105
  0
LINE
  5
669
100
AcDbEntity
  8
0
100
AcDbLine
  6
BYLAYER
 10
167.26014646792
 20
139.851030486092
 11
167.967252548194
 21
140.558137968192
  0
ARC
  5
66A
100
AcDbEntity
  8
BASE
100
AcDbCircle
  6
BYLAYER
 10
164.785270280574
 20
37.6740981514406
 40
3.5
100
AcDbArc
 50
44.999943206111
 51
224.999943206111
  0
ARC
  5
66B
100
AcDbEntity
  8
BASE
100
AcDbCircle
  6
BYLAYER
 10
165.492376360847
 20
36.9669906693415
 40
3.5
100
AcDbArc
 50
224.999943206111
 51
44.999943206111
  0
LINE
  5
66C
100
AcDbEntity
  8
0
100
AcDbLine
  6
BYLAYER
 10
162.310394093227
 20
35.1992268704838
 11
163.0175001735
 21
34.4921193883847
  0
LINE
  5
66D
100
AcDbEntity
  8
0
100
AcDbLine
  6
BYLAYER
 10
167.26014646792
 20
40.1489694323973
 11
167.967252548194
 21
39.4418619502983
  0
LINE
  5
66E
100
AcDbEntity
  8
DIM
100
AcDbLine
  6
BYLAYER
 62
0
370
  -2
 10
167.341918997563
 20
146.133212841035
 11
164.849306431655
 21
148.625820465391
  0
LINE
  5
66F
100
AcDbEntity
  8
DIM
100
AcDbLine
  6
BYLAYER
 62
0
370
  -2
 10
161.685070355376
 20
140.476352984243
 11
159.192457789468
 21
142.968960608599
  0
LINE
  5
670
100
AcDbEntity
  8
DIM
100
AcDbLine
  6
BYLAYER
 62
0
370
  -2
 10
157.94180545979
 20
139.216991222557
 11
155.440495841631
 21
136.715676645594
  0
LINE
  5
671
100
AcDbEntity
  8
DIM
100
AcDbLine
  6
BYLAYER
 62
0
370
  -2
 10
168.601273338295
 20
149.876480233274
 11
172.443913475302
 21
153.719127988249
  0
SOLID
  5
672
100
AcDbEntity
  8
DIM
100
AcDbTrace
 10
157.524919696963
 20
139.633876158917
 30
0.0
 11
158.358691222617
 21
138.800106286197
 31
0.0
 12
160.443115077949
 22
141.718305799519
 32
0.0
 13
160.443115077949
 23
141.718305799519
 33
0.0
  0
SOLID
  5
673
100
AcDbEntity
  8
DIM
100
AcDbTrace
 10
166.099963720136
 20
147.375165656311
 30
0.0
 11
169.018159101122
 21
149.459595296914
 31
0.0
 12
168.184387575468
 22
150.293365169634
 32
0.0
 13
168.184387575468
 23
150.293365169634
 33
0.0
  0
TEXT
  5
674
100
AcDbEntity
  8
DIM
 62
0
100
AcDbText
  6
BYLAYER
 62
0
 10
174.528340636503
 20
153.302244704823
 40
3.53738949210011
  1
8
  7
Font_0
 50
45.0000567938924
 72
1
 11
173.903010752562
 21
155.178228158143
100
AcDbText
 73
2
  0
LINE
  5
675
100
AcDbEntity
  8
DIM
100
AcDbLine
  6
BYLAYER
 62
0
370
  -2
 10
175.053767397643
 20
147.550281878308
 11
171.855368241126
 21
146.039200393275
  0
TEXT
  5
676
100
AcDbEntity
  8
DIM
 62
0
100
AcDbText
  6
BYLAYER
 62
0
 10
178.208107507548
 20
147.084393413824
 40
3.53738949210011
  1
R3.5
  7
Font_0
 50
25.2883602427895
 72
1
 11
180.650965921548
 21
150.194674477116
100
AcDbText
 73
2
  0
SOLID
  5
677
100
AcDbEntity
  8
DIM
100
AcDbTrace
 10
168.656969084609
 20
144.528118908241
 30
0.0
 11
172.107215155298
 21
145.506133867188
 31
0.0
 12
171.603521326954
 22
146.572266919361
 32
0.0
 13
171.603521326954
 23
146.572266919361
 33
0.0
  0
CIRCLE
  5
678
100
AcDbEntity
  8
0
100
AcDbCircle
  6
BYLAYER
 10
112.459368472769
 20
89.999999959245
 40
4
  0
CIRCLE
  5
679
100
AcDbEntity
  8
0
100
AcDbCircle
  6
BYLAYER
 10
112.459368472769
 20
89.999999959245
 40
8
  0
CIRCLE
  5
67A
100
AcDbEntity
  8
0
100
AcDbCircle
  6
BYLAYER
 10
112.459368472769
 20
89.999999959245
 40
13.75
  0
CIRCLE
  5
67B
100
AcDbEntity
  8
0
100
AcDbCircle
  6
BYLAYER
 10
112.459368472769
 20
89.999999959245
 40
15.15
  0
CIRCLE
  5
67C
100
AcDbEntity
  8
0
100
AcDbCircle
  6
BYLAYER
 10
112.459368472769
 20
89.999999959245
 40
20.9
  0
CIRCLE
  5
67D
100
AcDbEntity
  8
0
100
AcDbCircle
  6
BYLAYER
 10
112.459368472769
 20
89.999999959245
 40
22.3
  0
CIRCLE
  5
67E
100
AcDbEntity
  8
0
100
AcDbCircle
  6
BYLAYER
 10
112.459368472769
 20
89.999999959245
 40
28.05
  0
CIRCLE
  5
67F
100
AcDbEntity
  8
0
100
AcDbCircle
  6
BYLAYER
 10
112.459368472769
 20
89.999999959245
 40
29.45
  0
CIRCLE
  5
680
100
AcDbEntity
  8
0
100
AcDbCircle
  6
BYLAYER
 10
112.459368472769
 20
89.999999959245
 40
35.2
  0
CIRCLE
  5
681
100
AcDbEntity
  8
0
100
AcDbCircle
  6
BYLAYER
 10
112.459368472769
 20
89.999999959245
 40
36.6
  0
CIRCLE
  5
682
100
AcDbEntity
  8
0
100
AcDbCircle
  6
BYLAYER
 10
112.459368472769
 20
89.999999959245
 40
42.35
  0
CIRCLE
  5
683
100
AcDbEntity
  8
0
100
AcDbCircle
  6
BYLAYER
 10
112.459368472769
 20
89.999999959245
 40
43.75
  0
CIRCLE
  5
684
100
AcDbEntity
  8
0
100
AcDbCircle
  6
BYLAYER
 10
112.459368472769
 20
89.999999959245
 40
49.5
  0
CIRCLE
  5
685
100
AcDbEntity
  8
0
100
AcDbCircle
  6
BYLAYER
 10
112.459368472769
 20
89.999999959245
 40
50.9
  0
LINE
  5
686
100
AcDbEntity
  8
0
100
AcDbLine
  6
BYLAYER
 10
151.870213919809
 20
151.233877520196
 11
139.190714889487
 21
133.315645155287
  0
LINE
  5
687
100
AcDbEntity
  8
0
100
AcDbLine
  6
BYLAYER
 10
138.380376699759
 20
132.170503068602
 11
135.051091485667
 21
127.465671597539
  0
LINE
  5
688
100
AcDbEntity
  8
0
100
AcDbLine
  6
BYLAYER
 10
134.240157653743
 20
126.31968776977
 11
130.907726717381
 21
121.610410872083
  0
LINE
  5
689
100
AcDbEntity
  8
0
100
AcDbLine
  6
BYLAYER
 10
130.095803735458
 20
120.46302921152
 11
126.757870734998
 21
115.745976985899
  0
LINE
  5
68A
100
AcDbEntity
  8
0
100
AcDbLine
  6
BYLAYER
 10
125.944121532808
 20
114.596014573604
 11
122.595185840252
 21
109.863413721563
  0
LINE
  5
68B
100
AcDbEntity
  8
0
100
AcDbLine
  6
BYLAYER
 10
121.777462843058
 20
108.707835678707
 11
118.400962885193
 21
103.936281954033
  0
LINE
  5
68C
100
AcDbEntity
  8
0
100
AcDbLine
  6
BYLAYER
 10
117.571629948358
 20
102.764297143392
 11
114.08251929924
 21
97.833605859118
  0
LINE
  5
68D
100
AcDbEntity
  8
0
100
AcDbLine
  6
BYLAYER
 10
150.237624402425
 20
152.389148686514
 11
137.462453566759
 21
134.335716213555
  0
LINE
  5
68E
100
AcDbEntity
  8
0
100
AcDbLine
  6
BYLAYER
 10
136.64938903718
 20
133.18672135707
 11
133.307051659785
 21
128.463445017297
  0
LINE
  5
68F
100
AcDbEntity
  8
0
100
AcDbLine
  6
BYLAYER
 10
132.492395412831
 20
127.312200800508
 11
129.141632313455
 21
122.577017519938
  0
LINE
  5
690
100
AcDbEntity
  8
0
100
AcDbLine
  6
BYLAYER
 10
128.32431983055
 20
121.42201960177
 11
124.95872109302
 21
116.665871107111
  0
LINE
  5
691
100
AcDbEntity
  8
0
100
AcDbLine
  6
BYLAYER
 10
124.136461437502
 20
115.50388201459
 11
120.740806857441
 21
110.705259635977
  0
LINE
  5
692
100
AcDbEntity
  8
0
100
AcDbLine
  6
BYLAYER
 10
119.907583729796
 20
109.527777341348
 11
116.434178990646
 21
104.61928110939
  0
LINE
  5
693
100
AcDbEntity
  8
0
100
AcDbLine
  6
BYLAYER
 10
115.567246954713
 20
103.394162543799
 11
111.726356041293
 21
97.9663474771042
  0
LINE
  5
694
100
AcDbEntity
  8
0
100
AcDbLine
  6
BYLAYER
 10
157.094500375438
 20
147.537009787975
 11
144.415001345116
 21
129.618777423066
  0
LINE
  5
695
100
AcDbEntity
  8
0
100
AcDbLine
  6
BYLAYER
 10
143.604663155388
 20
128.473635336381
 11
140.275377941295
 21
123.768803865319
  0
LINE
  5
696
100
AcDbEntity
  8
0
100
AcDbLine
  6
BYLAYER
 10
139.464444109372
 20
122.622820037549
 11
136.13201317301
 21
117.913543139862
  0
LINE
  5
697
100
AcDbEntity
  8
0
100
AcDbLine
  6
BYLAYER
 10
135.320090191087
 20
116.766161479299
 11
131.982157190627
 21
112.049109253679
  0
LINE
  5
698
100
AcDbEntity
  8
0
100
AcDbLine
  6
BYLAYER
 10
131.168407988436
 20
110.899146841383
 11
127.81947229588
 21
106.166545989342
  0
LINE
  5
699
100
AcDbEntity
  8
0
100
AcDbLine
  6
BYLAYER
 10
127.001749298686
 20
105.010967946486
 11
123.625249340821
 21
100.239414221812
  0
LINE
  5
69A
100
AcDbEntity
  8
0
100
AcDbLine
  6
BYLAYER
 10
122.795916403986
 20
99.0674294111708
 11
119.306805754869
 21
94.1367381268972
  0
LINE
  5
69B
100
AcDbEntity
  8
0
100
AcDbLine
  6
BYLAYER
 10
158.727089892822
 20
146.381738621656
 11
145.951919057155
 21
128.328306148696
  0
LINE
  5
69C
100
AcDbEntity
  8
0
100
AcDbLine
  6
BYLAYER
 10
145.138854527577
 20
127.179311292211
 11
141.796517150182
 21
122.456034952438
  0
LINE
  5
69D
100
AcDbEntity
  8
0
100
AcDbLine
  6
BYLAYER
 10
140.981860903228
 20
121.304790735649
 11
137.631097803852
 21
116.569607455079
  0
LINE
  5
69E
100
AcDbEntity
  8
0
100
AcDbLine
  6
BYLAYER
 10
136.813785320946
 20
115.414609536911
 11
133.448186583417
 21
110.658461042252
  0
LINE
  5
69F
100
AcDbEntity
  8
0
100
AcDbLine
  6
BYLAYER
 10
132.625926927899
 20
109.496471949731
 11
129.230272347837
 21
104.697849571118
  0
LINE
  5
6A0
100
AcDbEntity
  8
0
100
AcDbLine
  6
BYLAYER
 10
128.397049220192
 20
103.52036727649
 11
124.923644481042
 21
98.6118710445307
  0
LINE
  5
6A1
100
AcDbEntity
  8
0
100
AcDbLine
  6
BYLAYER
 10
124.056712445109
 20
97.3867524789402
 11
120.215821531689
 21
91.9589374122453
  0
ARC
  5
6A2
100
AcDbEntity
  8
0
100
AcDbCircle
  6
BYLAYER
 10
154.482357147623
 20
149.385443654085
 40
5.19999999999999
100
AcDbArc
 50
324.715586587642
 51
144.715586587642
  0
ARC
  5
6A3
100
AcDbEntity
  8
0
100
AcDbCircle
  6
BYLAYER
 10
154.482357147623
 20
149.385443654085
 40
3.19999999999999
100
AcDbArc
 50
324.715586587642
 51
144.715586587642
  0
LINE
  5
6A4
100
AcDbEntity
  8
0
100
AcDbLine
  6
BYLAYER
 10
39.7238522092398
 20
93.5138545205285
 11
61.5812461433241
 21
91.4922024354639
  0
LINE
  5
6A5
100
AcDbEntity
  8
0
100
AcDbLine
  6
BYLAYER
 10
62.9781373761999
 20
91.3630000208453
 11
68.717283557711
 21
90.8321701845287
  0
LINE
  5
6A6
100
AcDbEntity
  8
0
100
AcDbLine
  6
BYLAYER
 10
70.1152015808477
 20
90.7028727991794
 11
75.8597704758806
 21
90.1715414007765
  0
LINE
  5
6A7
100
AcDbEntity
  8
0
100
AcDbLine
  6
BYLAYER
 10
77.2593936327256
 20
90.0420863027958
 11
83.0134471913209
 21
89.5098776410775
  0
LINE
  5
6A8
100
AcDbEntity
  8
0
100
AcDbLine
  6
BYLAYER
 10
84.4162184548611
 20
89.380131365819
 11
90.1892388649791
 21
88.8461684064455
  0
LINE
  5
6A9
100
AcDbEntity
  8
0
100
AcDbLine
  6
BYLAYER
 10
91.5988603047442
 20
88.7157885390447
 11
97.419397024767
 21
88.1774306619933
  0
LINE
  5
6AA
100
AcDbEntity
  8
0
100
AcDbLine
  6
BYLAYER
 10
98.8490321120496
 20
88.0451996758197
 11
104.863691347008
 21
87.488886859206
  0
LINE
  5
6AB
100
AcDbEntity
  8
0
100
AcDbLine
  6
BYLAYER
 10
39.5396527896399
 20
91.5223549413623
 11
61.5619693545628
 21
89.485448696469
  0
LINE
  5
6AC
100
AcDbEntity
  8
0
100
AcDbLine
  6
BYLAYER
 10
62.9635603538859
 20
89.3558115871806
 11
68.7252063419207
 21
88.8229006802243
  0
LINE
  5
6AD
100
AcDbEntity
  8
0
100
AcDbLine
  6
BYLAYER
 10
70.1295412030971
 20
88.6930097834052
 11
75.9057117653335
 21
88.158755457567
  0
LINE
  5
6AE
100
AcDbEntity
  8
0
100
AcDbLine
  6
BYLAYER
 10
77.314625545238
 20
88.028441043625
 11
83.1163703345485
 21
87.491821285309
  0
LINE
  5
6AF
100
AcDbEntity
  8
0
100
AcDbLine
  6
BYLAYER
 10
84.5338122353511
 20
87.3607180813838
 11
90.3873684084301
 21
86.8193061418802
  0
LINE
  5
6B0
100
AcDbEntity
  8
0
100
AcDbLine
  6
BYLAYER
 10
91.8237095519069
 20
86.686454893633
 11
97.8112943527383
 21
86.1326462678834
  0
LINE
  5
6B1
100
AcDbEntity
  8
0
100
AcDbLine
  6
BYLAYER
 10
99.3057441711542
 20
85.994420384206
 11
105.926815362666
 21
85.382018813367
  0
LINE
  5
6B2
100
AcDbEntity
  8
0
100
AcDbLine
  6
BYLAYER
 10
40.3132903519598
 20
99.8866531738603
 11
62.170684286044
 21
97.8650010887957
  0
LINE
  5
6B3
100
AcDbEntity
  8
0
100
AcDbLine
  6
BYLAYER
 10
63.56757551892
 20
97.7357986741771
 11
69.3067217004309
 21
97.2049688378602
  0
LINE
  5
6B4
100
AcDbEntity
  8
0
100
AcDbLine
  6
BYLAYER
 10
70.7046397235677
 20
97.0756714525111
 11
76.4492086186006
 21
96.544340054108
  0
LINE
  5
6B5
100
AcDbEntity
  8
0
100
AcDbLine
  6
BYLAYER
 10
77.8488317754457
 20
96.4148849561274
 11
83.6028853340408
 21
95.8826762944092
  0
LINE
  5
6B6
100
AcDbEntity
  8
0
100
AcDbLine
  6
BYLAYER
 10
85.005656597581
 20
95.7529300191507
 11
90.7786770076989
 21
95.218967059777
  0
LINE
  5
6B7
100
AcDbEntity
  8
0
100
AcDbLine
  6
BYLAYER
 10
92.1882984474641
 20
95.0885871923763
 11
98.008835167487
 21
94.5502293153251
  0
LINE
  5
6B8
100
AcDbEntity
  8
0
100
AcDbLine
  6
BYLAYER
 10
99.4384702547695
 20
94.4179983291515
 11
105.453129489728
 21
93.8616855125377
  0
LINE
  5
6B9
100
AcDbEntity
  8
0
100
AcDbLine
  6
BYLAYER
 10
40.4974897715598
 20
101.878152753026
 11
62.5198063364828
 21
99.8412465081331
  0
LINE
  5
6BA
100
AcDbEntity
  8
0
100
AcDbLine
  6
BYLAYER
 10
63.9213973358057
 20
99.7116093988449
 11
69.6830433238406
 21
99.1786984918886
  0
LINE
  5
6BB
100
AcDbEntity
  8
0
100
AcDbLine
  6
BYLAYER
 10
71.0873781850171
 20
99.0488075950695
 11
76.8635487472535
 21
98.5145532692312
  0
LINE
  5
6BC
100
AcDbEntity
  8
0
100
AcDbLine
  6
BYLAYER
 10
78.2724625271579
 20
98.3842388552891
 11
84.0742073164684
 21
97.8476190969735
  0
LINE
  5
6BD
100
AcDbEntity
  8
0
100
AcDbLine
  6
BYLAYER
 10
85.4916492172711
 20
97.7165158930482
 11
91.34520539035
 21
97.1751039535445
  0
LINE
  5
6BE
100
AcDbEntity
  8
0
100
AcDbLine
  6
BYLAYER
 10
92.7815465338268
 20
97.0422527052973
 11
98.7691313346583
 21
96.4884440795478
  0
LINE
  5
6BF
100
AcDbEntity
  8
0
100
AcDbLine
  6
BYLAYER
 10
100.263581153074
 20
96.3502181958702
 11
106.884652344586
 21
95.7378166250312
  0
ARC
  5
6C0
100
AcDbEntity
  8
0
100
AcDbCircle
  6
BYLAYER
 10
40.0185712805999
 20
96.7002538471944
 40
5.19999999999999
100
AcDbArc
 50
84.7155865876395
 51
264.71558658764
  0
ARC
  5
6C1
100
AcDbEntity
  8
0
100
AcDbCircle
  6
BYLAYER
 10
40.0185712805999
 20
96.7002538471944
 40
3.19999999999999
100
AcDbArc
 50
84.7155865876395
 51
264.71558658764
  0
LINE
  5
6C2
100
AcDbEntity
  8
0
100
AcDbLine
  6
BYLAYER
 10
145.784039289258
 20
25.2522678370106
 11
136.606144385496
 21
45.1921522869837
  0
LINE
  5
6C3
100
AcDbEntity
  8
0
100
AcDbLine
  6
BYLAYER
 10
136.019591342348
 20
46.4664967882873
 11
133.609730374929
 21
51.7021580956666
  0
LINE
  5
6C4
100
AcDbEntity
  8
0
100
AcDbLine
  6
BYLAYER
 10
133.022746183716
 20
52.9774393087858
 11
130.610608225045
 21
58.2180476048757
  0
LINE
  5
6C5
100
AcDbEntity
  8
0
100
AcDbLine
  6
BYLAYER
 10
130.022908050123
 20
59.4948843634187
 11
127.606787491988
 21
64.7441452507577
  0
LINE
  5
6C6
100
AcDbEntity
  8
0
100
AcDbLine
  6
BYLAYER
 10
127.017765430638
 20
66.0238539383115
 11
124.593680713076
 21
71.2904177497265
  0
LINE
  5
6C7
100
AcDbEntity
  8
0
100
AcDbLine
  6
BYLAYER
 10
124.001782270505
 20
72.5763756599828
 11
121.557745508347
 21
77.8862872617083
  0
LINE
  5
6C8
100
AcDbEntity
  8
0
100
AcDbLine
  6
BYLAYER
 10
120.9574433579
 20
79.1905030585234
 11
118.431894772059
 21
84.6775071594106
  0
LINE
  5
6C9
100
AcDbEntity
  8
0
100
AcDbLine
  6
BYLAYER
 10
147.600828226242
 20
26.0884962498578
 11
138.353682496985
 21
46.1788349677107
  0
LINE
  5
6CA
100
AcDbEntity
  8
0
100
AcDbLine
  6
BYLAYER
 10
137.765156027241
 20
47.4574669334842
 11
135.345847416601
 21
52.7136541802131
  0
LINE
  5
6CB
100
AcDbEntity
  8
0
100
AcDbLine
  6
BYLAYER
 10
134.756168802379
 20
53.9947892938215
 11
132.330761339518
 21
59.2642269002294
  0
LINE
  5
6CC
100
AcDbEntity
  8
0
100
AcDbLine
  6
BYLAYER
 10
131.739160042519
 20
60.5495392323395
 11
129.303013990738
 21
65.8423074853143
  0
LINE
  5
6CD
100
AcDbEntity
  8
0
100
AcDbLine
  6
BYLAYER
 10
128.707831745454
 20
67.1353997817605
 11
126.249930152436
 21
72.4754340998779
  0
LINE
  5
6CE
100
AcDbEntity
  8
0
100
AcDbLine
  6
BYLAYER
 10
125.646812136605
 20
73.7857676427532
 11
123.132632074923
 21
79.2480725004616
  0
LINE
  5
6CF
100
AcDbEntity
  8
0
100
AcDbLine
  6
BYLAYER
 10
122.50511429244
 20
80.6114169497296
 11
119.724934014348
 21
86.6516335872635
  0
LINE
  5
6D0
100
AcDbEntity
  8
0
100
AcDbLine
  6
BYLAYER
 10
139.97031469091
 20
22.5763369158998
 11
130.792419787147
 21
42.5162213658729
  0
LINE
  5
6D1
100
AcDbEntity
  8
0
100
AcDbLine
  6
BYLAYER
 10
130.205866743999
 20
43.7905658671764
 11
127.796005776581
 21
49.0262271745558
  0
LINE
  5
6D2
100
AcDbEntity
  8
0
100
AcDbLine
  6
BYLAYER
 10
127.209021585368
 20
50.301508387675
 11
124.796883626697
 21
55.5421166837649
  0
LINE
  5
6D3
100
AcDbEntity
  8
0
100
AcDbLine
  6
BYLAYER
 10
124.209183451775
 20
56.818953442308
 11
121.793062893639
 21
62.0682143296468
  0
LINE
  5
6D4
100
AcDbEntity
  8
0
100
AcDbLine
  6
BYLAYER
 10
121.204040832289
 20
63.3479230172008
 11
118.779956114728
 21
68.6144868286157
  0
LINE
  5
6D5
100
AcDbEntity
  8
0
100
AcDbLine
  6
BYLAYER
 10
118.188057672156
 20
69.9004447388719
 11
115.744020909999
 21
75.2103563405975
  0
LINE
  5
6D6
100
AcDbEntity
  8
0
100
AcDbLine
  6
BYLAYER
 10
115.143718759551
 20
76.5145721374125
 11
112.618170173711
 21
82.0015762382998
  0
LINE
  5
6D7
100
AcDbEntity
  8
0
100
AcDbLine
  6
BYLAYER
 10
138.153525753926
 20
21.7401085030525
 11
128.906380024669
 21
41.8304472209054
  0
LINE
  5
6D8
100
AcDbEntity
  8
0
100
AcDbLine
  6
BYLAYER
 10
128.317853554924
 20
43.1090791866789
 11
125.898544944285
 21
48.3652664334079
  0
LINE
  5
6D9
100
AcDbEntity
  8
0
100
AcDbLine
  6
BYLAYER
 10
125.308866330062
 20
49.6464015470162
 11
122.883458867202
 21
54.915839153424
  0
LINE
  5
6DA
100
AcDbEntity
  8
0
100
AcDbLine
  6
BYLAYER
 10
122.291857570203
 20
56.2011514855343
 11
119.855711518421
 21
61.493919738509
  0
LINE
  5
6DB
100
AcDbEntity
  8
0
100
AcDbLine
  6
BYLAYER
 10
119.260529273137
 20
62.7870120349552
 11
116.80262768012
 21
68.1270463530727
  0
LINE
  5
6DC
100
AcDbEntity
  8
0
100
AcDbLine
  6
BYLAYER
 10
116.199509664288
 20
69.437379895948
 11
113.685329602606
 21
74.8996847536563
  0
LINE
  5
6DD
100
AcDbEntity
  8
0
100
AcDbLine
  6
BYLAYER
 10
113.057811820124
 20
76.2630292029243
 11
110.277631542032
 21
82.3032458404583
  0
ARC
  5
6DE
100
AcDbEntity
  8
0
100
AcDbCircle
  6
BYLAYER
 10
142.877176990084
 20
23.9143023764551
 40
5.19999999999999
100
AcDbArc
 50
204.715586587642
 51
24.715586587642
  0
ARC
  5
6DF
100
AcDbEntity
  8
0
100
AcDbCircle
  6
BYLAYER
 10
142.877176990084
 20
23.9143023764551
 40
3.19999999999999
100
AcDbArc
 50
204.715586587642
 51
24.715586587642
  0
ARC
  5
6E0
100
AcDbEntity
  8
0
100
AcDbCircle
  6
BYLAYER
 10
257.400522891372
 20
153.585443654085
 40
1
100
AcDbArc
 50
0
 51
180
  0
ARC
  5
6E1
100
AcDbEntity
  8
0
100
AcDbCircle
  6
BYLAYER
 10
257.400522891372
 20
19.7143023764551
 40
1
100
AcDbArc
 50
180
 51
0
  0
LINE
  5
6E2
100
AcDbEntity
  8
0
100
AcDbLine
  6
BYLAYER
 10
256.400522891372
 20
89.999999959245
 11
258.400522891372
 21
89.999999959245
  0
ARC
  5
6E3
100
AcDbEntity
  8
0
100
AcDbCircle
  6
BYLAYER
 10
255.700522891372
 20
140.199999959245
 40
0.699999999999932
100
AcDbArc
 50
0
 51
180
  0
ARC
  5
6E4
100
AcDbEntity
  8
0
100
AcDbCircle
  6
BYLAYER
 10
255.700522891372
 20
39.799999959245
 40
0.699999999999932
100
AcDbArc
 50
180
 51
0
  0
ENDBLK
  5
6E5
100
AcDbEntity
  8
0
 67
     1
100
AcDbBlockEnd
  0
BLOCK
  5
6E6
100
AcDbEntity
  8
0
100
AcDbBlockBegin
  2
A$C4BE9463D
 70
    0
 10
0
 20
0
 30
0.0
  3
A$C4BE9463D
  1

  0
CIRCLE
  5
6E7
100
AcDbEntity
  8
ｾﾉｪO
100
AcDbCircle
  6
BYLAYER
 10
84.9819530822535
 20
84.9890773089827
 40
54
  0
CIRCLE
  5
6E8
100
AcDbEntity
  8
ｾﾉｪO
100
AcDbCircle
  6
BYLAYER
 10
115.399761599568
 20
18.9033797261927
 40
2.25
  0
ARC
  5
6E9
100
AcDbEntity
  8
ｾﾉｪO
100
AcDbCircle
  6
BYLAYER
 10
84.9819530822535
 20
84.9890773089827
 40
84.9999999999999
100
AcDbArc
 50
70.189259151794
 51
289.810740848206
  0
CIRCLE
  5
6EA
100
AcDbEntity
  8
ｾﾉｪO
100
AcDbCircle
  6
BYLAYER
 10
32.6560512744488
 20
32.6631755011781
 40
3.5
  0
CIRCLE
  5
6EB
100
AcDbEntity
  8
ｾﾉｪO
100
AcDbCircle
  6
BYLAYER
 10
32.6560512744488
 20
137.314979116787
 40
3.5
  0
CIRCLE
  5
6EC
100
AcDbEntity
  8
ｾﾉｪO
100
AcDbCircle
  6
BYLAYER
 10
12.5411558900839
 20
91.6893311969323
 40
2.25
  0
LINE
  5
6ED
100
AcDbEntity
  8
ｾﾉｪO
100
AcDbLine
  6
BYLAYER
 10
158.939161529956
 20
84.5274764242533
 11
152.543966970344
 21
57.5668181515841
  0
ARC
  5
6EE
100
AcDbEntity
  8
ｾﾉｪO
100
AcDbCircle
  6
BYLAYER
 10
84.7087837611113
 20
73.3736526105027
 40
74.283058973676
100
AcDbArc
 50
293.047083787864
 51
342.165628799048
  0
ARC
  5
6EF
100
AcDbEntity
  8
ｾﾉｪO
100
AcDbCircle
  6
BYLAYER
 10
158.7439557656
 20
57.5550309253612
 40
6.19999999999998
100
AcDbArc
 50
179.891071173932
 51
230.411441841202
  0
ARC
  5
6F0
100
AcDbEntity
  8
ｾﾉｪO
100
AcDbCircle
  6
BYLAYER
 10
153.518340886238
 20
51.2357786648008
 40
2
100
AcDbArc
 50
342.165628799048
 51
50.411441841202
  0
ARC
  5
6F1
100
AcDbEntity
  8
ｾﾉｪO
100
AcDbCircle
  6
BYLAYER
 10
84.7087837611113
 20
96.6045020074625
 40
74.283058973676
100
AcDbArc
 50
17.8343712009523
 51
66.9529162121501
  0
LINE
  5
6F2
100
AcDbEntity
  8
ｾﾉｪO
100
AcDbLine
  6
BYLAYER
 10
158.939161530244
 20
85.4506781273992
 11
152.543966970337
 21
112.411336466411
  0
ARC
  5
6F3
100
AcDbEntity
  8
ｾﾉｪO
100
AcDbCircle
  6
BYLAYER
 10
156.99315930661
 20
84.9890772764336
 40
2
100
AcDbArc
 50
346.655799253892
 51
13.3442007103375
  0
ARC
  5
6F4
100
AcDbEntity
  8
ｾﾉｪO
100
AcDbCircle
  6
BYLAYER
 10
158.743955765593
 20
112.4231236926
 40
6.19999999999997
100
AcDbArc
 50
129.588558158747
 51
180.108928825742
  0
ARC
  5
6F5
100
AcDbEntity
  8
ｾﾉｪO
100
AcDbCircle
  6
BYLAYER
 10
153.518340886238
 20
118.742375953166
 40
2
100
AcDbArc
 50
309.588558158747
 51
17.8343712009523
  0
CIRCLE
  5
6F6
100
AcDbEntity
  8
ｾﾉｪO
100
AcDbCircle
  6
BYLAYER
 10
127.004941757108
 20
144.374521003823
 40
2.25
  0
ARC
  5
6F7
100
AcDbEntity
  8
ｾﾉｪO
100
AcDbCircle
  6
BYLAYER
 10
137.307854890058
 20
137.314979116787
 40
3.5
100
AcDbArc
 50
135.00005679389
 51
315.00005679389
  0
ARC
  5
6F8
100
AcDbEntity
  8
ｾﾉｪO
100
AcDbCircle
  6
BYLAYER
 10
138.014960970331
 20
138.022086598886
 40
3.5
100
AcDbArc
 50
315.00005679389
 51
135.00005679389
  0
LINE
  5
6F9
100
AcDbEntity
  8
ｾﾉｪO
100
AcDbLine
  6
BYLAYER
 10
134.832978702711
 20
139.789850397744
 11
135.540084782985
 21
140.496957879843
  0
LINE
  5
6FA
100
AcDbEntity
  8
ｾﾉｪO
100
AcDbLine
  6
BYLAYER
 10
139.782731077405
 20
134.84010783583
 11
140.489837157678
 21
135.547215317929
  0
ARC
  5
6FB
100
AcDbEntity
  8
ｾﾉｪO
100
AcDbCircle
  6
BYLAYER
 10
137.307854890058
 20
32.6631755011783
 40
3.5
100
AcDbArc
 50
44.9999432061102
 51
224.99994320611
  0
ARC
  5
6FC
100
AcDbEntity
  8
ｾﾉｪO
100
AcDbCircle
  6
BYLAYER
 10
138.014960970331
 20
31.9560680190792
 40
3.5
100
AcDbArc
 50
224.99994320611
 51
44.9999432061102
  0
LINE
  5
6FD
100
AcDbEntity
  8
ｾﾉｪO
100
AcDbLine
  6
BYLAYER
 10
134.832978702711
 20
30.1883042202215
 11
135.540084782985
 21
29.4811967381224
  0
LINE
  5
6FE
100
AcDbEntity
  8
ｾﾉｪO
100
AcDbLine
  6
BYLAYER
 10
139.782731077405
 20
35.138046782135
 11
140.489837157678
 21
34.430939300036
  0
CIRCLE
  5
6FF
100
AcDbEntity
  8
ｾﾉｪO
100
AcDbCircle
  6
BYLAYER
 10
84.9819530822535
 20
84.9890773089827
 40
4
  0
CIRCLE
  5
700
100
AcDbEntity
  8
ｾﾉｪO
100
AcDbCircle
  6
BYLAYER
 10
84.9819530822535
 20
84.9890773089827
 40
8
  0
CIRCLE
  5
701
100
AcDbEntity
  8
ｾﾉｪO
100
AcDbCircle
  6
BYLAYER
 10
84.9819530822535
 20
84.9890773089827
 40
13.75
  0
CIRCLE
  5
702
100
AcDbEntity
  8
ｾﾉｪO
100
AcDbCircle
  6
BYLAYER
 10
84.9819530822535
 20
84.9890773089827
 40
15.15
  0
CIRCLE
  5
703
100
AcDbEntity
  8
ｾﾉｪO
100
AcDbCircle
  6
BYLAYER
 10
84.9819530822535
 20
84.9890773089827
 40
20.9
  0
CIRCLE
  5
704
100
AcDbEntity
  8
ｾﾉｪO
100
AcDbCircle
  6
BYLAYER
 10
84.9819530822535
 20
84.9890773089827
 40
22.3
  0
CIRCLE
  5
705
100
AcDbEntity
  8
ｾﾉｪO
100
AcDbCircle
  6
BYLAYER
 10
84.9819530822535
 20
84.9890773089827
 40
28.05
  0
CIRCLE
  5
706
100
AcDbEntity
  8
ｾﾉｪO
100
AcDbCircle
  6
BYLAYER
 10
84.9819530822535
 20
84.9890773089827
 40
29.45
  0
CIRCLE
  5
707
100
AcDbEntity
  8
ｾﾉｪO
100
AcDbCircle
  6
BYLAYER
 10
84.9819530822535
 20
84.9890773089827
 40
35.2
  0
CIRCLE
  5
708
100
AcDbEntity
  8
ｾﾉｪO
100
AcDbCircle
  6
BYLAYER
 10
84.9819530822535
 20
84.9890773089827
 40
36.6
  0
CIRCLE
  5
709
100
AcDbEntity
  8
ｾﾉｪO
100
AcDbCircle
  6
BYLAYER
 10
84.9819530822535
 20
84.9890773089827
 40
42.35
  0
CIRCLE
  5
70A
100
AcDbEntity
  8
ｾﾉｪO
100
AcDbCircle
  6
BYLAYER
 10
84.9819530822535
 20
84.9890773089827
 40
43.75
  0
CIRCLE
  5
70B
100
AcDbEntity
  8
ｾﾉｪO
100
AcDbCircle
  6
BYLAYER
 10
84.9819530822535
 20
84.9890773089827
 40
49.5
  0
CIRCLE
  5
70C
100
AcDbEntity
  8
ｾﾉｪO
100
AcDbCircle
  6
BYLAYER
 10
84.9819530822535
 20
84.9890773089827
 40
50.9
  0
LINE
  5
70D
100
AcDbEntity
  8
ｾﾉｪO
100
AcDbLine
  6
BYLAYER
 10
124.392798529294
 20
146.222954869933
 11
111.713299498972
 21
128.304722505025
  0
LINE
  5
70E
100
AcDbEntity
  8
ｾﾉｪO
100
AcDbLine
  6
BYLAYER
 10
110.902961309244
 20
127.15958041834
 11
107.573676095151
 21
122.454748947277
  0
LINE
  5
70F
100
AcDbEntity
  8
ｾﾉｪO
100
AcDbLine
  6
BYLAYER
 10
106.762742263227
 20
121.308765119507
 11
103.430311326866
 21
116.59948822182
  0
LINE
  5
710
100
AcDbEntity
  8
ｾﾉｪO
100
AcDbLine
  6
BYLAYER
 10
102.618388344943
 20
115.452106561258
 11
99.2804553444829
 21
110.735054335637
  0
LINE
  5
711
100
AcDbEntity
  8
ｾﾉｪO
100
AcDbLine
  6
BYLAYER
 10
98.4667061422925
 20
109.585091923342
 11
95.1177704497362
 21
104.852491071301
  0
LINE
  5
712
100
AcDbEntity
  8
ｾﾉｪO
100
AcDbLine
  6
BYLAYER
 10
94.3000474525425
 20
103.696913028445
 11
90.9235474946771
 21
98.9253593037709
  0
LINE
  5
713
100
AcDbEntity
  8
ｾﾉｪO
100
AcDbLine
  6
BYLAYER
 10
90.0942145578421
 20
97.7533744931293
 11
86.6051039087246
 21
92.8226832088557
  0
LINE
  5
714
100
AcDbEntity
  8
ｾﾉｪO
100
AcDbLine
  6
BYLAYER
 10
122.76020901191
 20
147.378226036252
 11
109.985038176243
 21
129.324793563293
  0
LINE
  5
715
100
AcDbEntity
  8
ｾﾉｪO
100
AcDbLine
  6
BYLAYER
 10
109.171973646665
 20
128.175798706808
 11
105.82963626927
 21
123.452522367035
  0
LINE
  5
716
100
AcDbEntity
  8
ｾﾉｪO
100
AcDbLine
  6
BYLAYER
 10
105.014980022316
 20
122.301278150246
 11
101.66421692294
 21
117.566094869676
  0
LINE
  5
717
100
AcDbEntity
  8
ｾﾉｪO
100
AcDbLine
  6
BYLAYER
 10
100.846904440035
 20
116.411096951508
 11
97.481305702505
 21
111.654948456849
  0
LINE
  5
718
100
AcDbEntity
  8
ｾﾉｪO
100
AcDbLine
  6
BYLAYER
 10
96.6590460469869
 20
110.492959364328
 11
93.2633914669251
 21
105.694336985714
  0
LINE
  5
719
100
AcDbEntity
  8
ｾﾉｪO
100
AcDbLine
  6
BYLAYER
 10
92.4301683392801
 20
104.516854691086
 11
88.9567636001303
 21
99.6083584591274
  0
LINE
  5
71A
100
AcDbEntity
  8
ｾﾉｪO
100
AcDbLine
  6
BYLAYER
 10
88.0898315641972
 20
98.3832398935369
 11
84.2489406507773
 21
92.9554248268419
  0
LINE
  5
71B
100
AcDbEntity
  8
ｾﾉｪO
100
AcDbLine
  6
BYLAYER
 10
129.617084984922
 20
142.526087137712
 11
116.9375859546
 21
124.607854772804
  0
LINE
  5
71C
100
AcDbEntity
  8
ｾﾉｪO
100
AcDbLine
  6
BYLAYER
 10
116.127247764872
 20
123.462712686119
 11
112.79796255078
 21
118.757881215056
  0
LINE
  5
71D
100
AcDbEntity
  8
ｾﾉｪO
100
AcDbLine
  6
BYLAYER
 10
111.987028718856
 20
117.611897387286
 11
108.654597782494
 21
112.9026204896
  0
LINE
  5
71E
100
AcDbEntity
  8
ｾﾉｪO
100
AcDbLine
  6
BYLAYER
 10
107.842674800571
 20
111.755238829037
 11
104.504741800111
 21
107.038186603417
  0
LINE
  5
71F
100
AcDbEntity
  8
ｾﾉｪO
100
AcDbLine
  6
BYLAYER
 10
103.690992597921
 20
105.888224191121
 11
100.342056905365
 21
101.15562333908
  0
LINE
  5
720
100
AcDbEntity
  8
ｾﾉｪO
100
AcDbLine
  6
BYLAYER
 10
99.5243339081709
 20
100.000045296224
 11
96.1478339503057
 21
95.2284915715501
  0
LINE
  5
721
100
AcDbEntity
  8
ｾﾉｪO
100
AcDbLine
  6
BYLAYER
 10
95.3185010134706
 20
94.0565067609085
 11
91.8293903643532
 21
89.125815476635
  0
LINE
  5
722
100
AcDbEntity
  8
ｾﾉｪO
100
AcDbLine
  6
BYLAYER
 10
131.249674502306
 20
141.370815971393
 11
118.47450366664
 21
123.317383498434
  0
LINE
  5
723
100
AcDbEntity
  8
ｾﾉｪO
100
AcDbLine
  6
BYLAYER
 10
117.661439137062
 20
122.168388641949
 11
114.319101759666
 21
117.445112302176
  0
LINE
  5
724
100
AcDbEntity
  8
ｾﾉｪO
100
AcDbLine
  6
BYLAYER
 10
113.504445512712
 20
116.293868085387
 11
110.153682413336
 21
111.558684804817
  0
LINE
  5
725
100
AcDbEntity
  8
ｾﾉｪO
100
AcDbLine
  6
BYLAYER
 10
109.336369930431
 20
110.403686886649
 11
105.970771192902
 21
105.64753839199
  0
LINE
  5
726
100
AcDbEntity
  8
ｾﾉｪO
100
AcDbLine
  6
BYLAYER
 10
105.148511537384
 20
104.485549299469
 11
101.752856957322
 21
99.6869269208553
  0
LINE
  5
727
100
AcDbEntity
  8
ｾﾉｪO
100
AcDbLine
  6
BYLAYER
 10
100.919633829677
 20
98.5094446262272
 11
97.4462290905269
 21
93.6009483942684
  0
LINE
  5
728
100
AcDbEntity
  8
ｾﾉｪO
100
AcDbLine
  6
BYLAYER
 10
96.5792970545938
 20
92.375829828678
 11
92.7384061411738
 21
86.948014761983
  0
ARC
  5
729
100
AcDbEntity
  8
ｾﾉｪO
100
AcDbCircle
  6
BYLAYER
 10
127.004941757108
 20
144.374521003823
 40
5.19999999999999
100
AcDbArc
 50
324.715586587641
 51
144.715586587641
  0
ARC
  5
72A
100
AcDbEntity
  8
ｾﾉｪO
100
AcDbCircle
  6
BYLAYER
 10
127.004941757108
 20
144.374521003823
 40
3.19999999999999
100
AcDbArc
 50
324.715586587641
 51
144.715586587641
  0
LINE
  5
72B
100
AcDbEntity
  8
ｾﾉｪO
100
AcDbLine
  6
BYLAYER
 10
12.2464368187243
 20
88.5029318702663
 11
34.1038307528086
 21
86.4812797852017
  0
LINE
  5
72C
100
AcDbEntity
  8
ｾﾉｪO
100
AcDbLine
  6
BYLAYER
 10
35.5007219856844
 20
86.3520773705831
 11
41.2398681671955
 21
85.8212475342664
  0
LINE
  5
72D
100
AcDbEntity
  8
ｾﾉｪO
100
AcDbLine
  6
BYLAYER
 10
42.6377861903322
 20
85.6919501489172
 11
48.3823550853651
 21
85.1606187505142
  0
LINE
  5
72E
100
AcDbEntity
  8
ｾﾉｪO
100
AcDbLine
  6
BYLAYER
 10
49.7819782422101
 20
85.0311636525336
 11
55.5360318008054
 21
84.4989549908153
  0
LINE
  5
72F
100
AcDbEntity
  8
ｾﾉｪO
100
AcDbLine
  6
BYLAYER
 10
56.9388030643456
 20
84.3692087155567
 11
62.7118234744636
 21
83.8352457561832
  0
LINE
  5
730
100
AcDbEntity
  8
ｾﾉｪO
100
AcDbLine
  6
BYLAYER
 10
64.1214449142287
 20
83.7048658887825
 11
69.9419816342515
 21
83.166508011731
  0
LINE
  5
731
100
AcDbEntity
  8
ｾﾉｪO
100
AcDbLine
  6
BYLAYER
 10
71.3716167215341
 20
83.0342770255575
 11
77.3862759564923
 21
82.4779642089437
  0
LINE
  5
732
100
AcDbEntity
  8
ｾﾉｪO
100
AcDbLine
  6
BYLAYER
 10
12.0622373991244
 20
86.5114322911
 11
34.0845539640474
 21
84.4745260462067
  0
LINE
  5
733
100
AcDbEntity
  8
ｾﾉｪO
100
AcDbLine
  6
BYLAYER
 10
35.4861449633704
 20
84.3448889369183
 11
41.2477909514052
 21
83.811978029962
  0
LINE
  5
734
100
AcDbEntity
  8
ｾﾉｪO
100
AcDbLine
  6
BYLAYER
 10
42.6521258125816
 20
83.6820871331429
 11
48.4282963748181
 21
83.1478328073047
  0
LINE
  5
735
100
AcDbEntity
  8
ｾﾉｪO
100
AcDbLine
  6
BYLAYER
 10
49.8372101547225
 20
83.0175183933627
 11
55.638954944033
 21
82.4808986350467
  0
LINE
  5
736
100
AcDbEntity
  8
ｾﾉｪO
100
AcDbLine
  6
BYLAYER
 10
57.0563968448356
 20
82.3497954311215
 11
62.9099530179146
 21
81.808383491618
  0
LINE
  5
737
100
AcDbEntity
  8
ｾﾉｪO
100
AcDbLine
  6
BYLAYER
 10
64.3462941613914
 20
81.6755322433707
 11
70.3338789622228
 21
81.1217236176211
  0
LINE
  5
738
100
AcDbEntity
  8
ｾﾉｪO
100
AcDbLine
  6
BYLAYER
 10
71.8283287806387
 20
80.9834977339437
 11
78.4493999721505
 21
80.3710961631048
  0
LINE
  5
739
100
AcDbEntity
  8
ｾﾉｪO
100
AcDbLine
  6
BYLAYER
 10
12.8358749614443
 20
94.875730523598
 11
34.6932688955285
 21
92.8540784385334
  0
LINE
  5
73A
100
AcDbEntity
  8
ｾﾉｪO
100
AcDbLine
  6
BYLAYER
 10
36.0901601284045
 20
92.7248760239148
 11
41.8293063099154
 21
92.1940461875979
  0
LINE
  5
73B
100
AcDbEntity
  8
ｾﾉｪO
100
AcDbLine
  6
BYLAYER
 10
43.2272243330522
 20
92.0647488022488
 11
48.9717932280851
 21
91.5334174038458
  0
LINE
  5
73C
100
AcDbEntity
  8
ｾﾉｪO
100
AcDbLine
  6
BYLAYER
 10
50.3714163849302
 20
91.4039623058651
 11
56.1254699435253
 21
90.8717536441469
  0
LINE
  5
73D
100
AcDbEntity
  8
ｾﾉｪO
100
AcDbLine
  6
BYLAYER
 10
57.5282412070655
 20
90.7420073688884
 11
63.3012616171834
 21
90.2080444095147
  0
LINE
  5
73E
100
AcDbEntity
  8
ｾﾉｪO
100
AcDbLine
  6
BYLAYER
 10
64.7108830569487
 20
90.077664542114
 11
70.5314197769715
 21
89.5393066650628
  0
LINE
  5
73F
100
AcDbEntity
  8
ｾﾉｪO
100
AcDbLine
  6
BYLAYER
 10
71.961054864254
 20
89.4070756788892
 11
77.9757140992122
 21
88.8507628622755
  0
LINE
  5
740
100
AcDbEntity
  8
ｾﾉｪO
100
AcDbLine
  6
BYLAYER
 10
13.0200743810443
 20
96.8672301027642
 11
35.0423909459673
 21
94.8303238578708
  0
LINE
  5
741
100
AcDbEntity
  8
ｾﾉｪO
100
AcDbLine
  6
BYLAYER
 10
36.4439819452903
 20
94.7006867485826
 11
42.2056279333251
 21
94.1677758416263
  0
LINE
  5
742
100
AcDbEntity
  8
ｾﾉｪO
100
AcDbLine
  6
BYLAYER
 10
43.6099627945016
 20
94.0378849448073
 11
49.386133356738
 21
93.5036306189689
  0
LINE
  5
743
100
AcDbEntity
  8
ｾﾉｪO
100
AcDbLine
  6
BYLAYER
 10
50.7950471366424
 20
93.3733162050269
 11
56.5967919259529
 21
92.8366964467112
  0
LINE
  5
744
100
AcDbEntity
  8
ｾﾉｪO
100
AcDbLine
  6
BYLAYER
 10
58.0142338267556
 20
92.7055932427859
 11
63.8677899998345
 21
92.1641813032823
  0
LINE
  5
745
100
AcDbEntity
  8
ｾﾉｪO
100
AcDbLine
  6
BYLAYER
 10
65.3041311433113
 20
92.031330055035
 11
71.2917159441428
 21
91.4775214292855
  0
LINE
  5
746
100
AcDbEntity
  8
ｾﾉｪO
100
AcDbLine
  6
BYLAYER
 10
72.7861657625585
 20
91.3392955456079
 11
79.4072369540704
 21
90.7268939747689
  0
ARC
  5
747
100
AcDbEntity
  8
ｾﾉｪO
100
AcDbCircle
  6
BYLAYER
 10
12.5411558900844
 20
91.6893311969321
 40
5.19999999999999
100
AcDbArc
 50
84.7155865876396
 51
264.71558658764
  0
ARC
  5
748
100
AcDbEntity
  8
ｾﾉｪO
100
AcDbCircle
  6
BYLAYER
 10
12.5411558900844
 20
91.6893311969321
 40
3.19999999999999
100
AcDbArc
 50
84.7155865876396
 51
264.71558658764
  0
LINE
  5
749
100
AcDbEntity
  8
ｾﾉｪO
100
AcDbLine
  6
BYLAYER
 10
118.306623898743
 20
20.2413451867483
 11
109.12872899498
 21
40.1812296367215
  0
LINE
  5
74A
100
AcDbEntity
  8
ｾﾉｪO
100
AcDbLine
  6
BYLAYER
 10
108.542175951832
 20
41.455574138025
 11
106.132314984414
 21
46.6912354454043
  0
LINE
  5
74B
100
AcDbEntity
  8
ｾﾉｪO
100
AcDbLine
  6
BYLAYER
 10
105.545330793201
 20
47.9665166585236
 11
103.13319283453
 21
53.2071249546134
  0
LINE
  5
74C
100
AcDbEntity
  8
ｾﾉｪO
100
AcDbLine
  6
BYLAYER
 10
102.545492659608
 20
54.4839617131564
 11
100.129372101472
 21
59.7332226004954
  0
LINE
  5
74D
100
AcDbEntity
  8
ｾﾉｪO
100
AcDbLine
  6
BYLAYER
 10
99.5403500401223
 20
61.0129312880492
 11
97.1162653225608
 21
66.2794950994643
  0
LINE
  5
74E
100
AcDbEntity
  8
ｾﾉｪO
100
AcDbLine
  6
BYLAYER
 10
96.5243668799894
 20
67.5654530097205
 11
94.080330117832
 21
72.875364611446
  0
LINE
  5
74F
100
AcDbEntity
  8
ｾﾉｪO
100
AcDbLine
  6
BYLAYER
 10
93.4800279673844
 20
74.1795804082611
 11
90.9544793815437
 21
79.6665845091484
  0
LINE
  5
750
100
AcDbEntity
  8
ｾﾉｪO
100
AcDbLine
  6
BYLAYER
 10
120.123412835726
 20
21.0775735995955
 11
110.87626710647
 21
41.1679123174484
  0
LINE
  5
751
100
AcDbEntity
  8
ｾﾉｪO
100
AcDbLine
  6
BYLAYER
 10
110.287740636725
 20
42.4465442832219
 11
107.868432026086
 21
47.7027315299508
  0
LINE
  5
752
100
AcDbEntity
  8
ｾﾉｪO
100
AcDbLine
  6
BYLAYER
 10
107.278753411863
 20
48.9838666435593
 11
104.853345949003
 21
54.2533042499671
  0
LINE
  5
753
100
AcDbEntity
  8
ｾﾉｪO
100
AcDbLine
  6
BYLAYER
 10
104.261744652003
 20
55.5386165820772
 11
101.825598600222
 21
60.8313848350521
  0
LINE
  5
754
100
AcDbEntity
  8
ｾﾉｪO
100
AcDbLine
  6
BYLAYER
 10
101.230416354938
 20
62.1244771314982
 11
98.7725147619209
 21
67.4645114496157
  0
LINE
  5
755
100
AcDbEntity
  8
ｾﾉｪO
100
AcDbLine
  6
BYLAYER
 10
98.1693967460891
 20
68.7748449924909
 11
95.6552166844074
 21
74.2371498501993
  0
LINE
  5
756
100
AcDbEntity
  8
ｾﾉｪO
100
AcDbLine
  6
BYLAYER
 10
95.0276989019246
 20
75.6004942994673
 11
92.2475186238328
 21
81.6407109370012
  0
LINE
  5
757
100
AcDbEntity
  8
ｾﾉｪO
100
AcDbLine
  6
BYLAYER
 10
112.492899300394
 20
17.5654142656375
 11
103.315004396632
 21
37.5052987156106
  0
LINE
  5
758
100
AcDbEntity
  8
ｾﾉｪO
100
AcDbLine
  6
BYLAYER
 10
102.728451353484
 20
38.7796432169141
 11
100.318590386065
 21
44.0153045242936
  0
LINE
  5
759
100
AcDbEntity
  8
ｾﾉｪO
100
AcDbLine
  6
BYLAYER
 10
99.7316061948522
 20
45.2905857374127
 11
97.3194682361811
 21
50.5311940335026
  0
LINE
  5
75A
100
AcDbEntity
  8
ｾﾉｪO
100
AcDbLine
  6
BYLAYER
 10
96.7317680612593
 20
51.8080307920458
 11
94.3156475031238
 21
57.0572916793845
  0
LINE
  5
75B
100
AcDbEntity
  8
ｾﾉｪO
100
AcDbLine
  6
BYLAYER
 10
93.726625441774
 20
58.3370003669386
 11
91.3025407242126
 21
63.6035641783534
  0
LINE
  5
75C
100
AcDbEntity
  8
ｾﾉｪO
100
AcDbLine
  6
BYLAYER
 10
90.7106422816411
 20
64.8895220886096
 11
88.2666055194835
 21
70.1994336903352
  0
LINE
  5
75D
100
AcDbEntity
  8
ｾﾉｪO
100
AcDbLine
  6
BYLAYER
 10
87.666303369036
 20
71.5036494871503
 11
85.1407547831952
 21
76.9906535880375
  0
LINE
  5
75E
100
AcDbEntity
  8
ｾﾉｪO
100
AcDbLine
  6
BYLAYER
 10
110.67611036341
 20
16.7291858527902
 11
101.428964634154
 21
36.8195245706431
  0
LINE
  5
75F
100
AcDbEntity
  8
ｾﾉｪO
100
AcDbLine
  6
BYLAYER
 10
100.840438164409
 20
38.0981565364166
 11
98.4211295537693
 21
43.3543437831456
  0
LINE
  5
760
100
AcDbEntity
  8
ｾﾉｪO
100
AcDbLine
  6
BYLAYER
 10
97.8314509395468
 20
44.635478896754
 11
95.4060434766862
 21
49.9049165031618
  0
LINE
  5
761
100
AcDbEntity
  8
ｾﾉｪO
100
AcDbLine
  6
BYLAYER
 10
94.8144421796871
 20
51.190228835272
 11
92.378296127906
 21
56.4829970882467
  0
LINE
  5
762
100
AcDbEntity
  8
ｾﾉｪO
100
AcDbLine
  6
BYLAYER
 10
91.7831138826216
 20
57.7760893846929
 11
89.3252122896043
 21
63.1161237028105
  0
LINE
  5
763
100
AcDbEntity
  8
ｾﾉｪO
100
AcDbLine
  6
BYLAYER
 10
88.7220942737726
 20
64.4264572456857
 11
86.2079142120909
 21
69.888762103394
  0
LINE
  5
764
100
AcDbEntity
  8
ｾﾉｪO
100
AcDbLine
  6
BYLAYER
 10
85.5803964296082
 20
71.252106552662
 11
82.8002161515164
 21
77.292323190196
  0
ARC
  5
765
100
AcDbEntity
  8
ｾﾉｪO
100
AcDbCircle
  6
BYLAYER
 10
115.399761599568
 20
18.9033797261928
 40
5.19999999999999
100
AcDbArc
 50
204.715586587643
 51
24.7155865876431
  0
ARC
  5
766
100
AcDbEntity
  8
ｾﾉｪO
100
AcDbCircle
  6
BYLAYER
 10
115.399761599568
 20
18.9033797261928
 40
3.19999999999999
100
AcDbArc
 50
204.715586587643
 51
24.7155865876431
  0
ENDBLK
  5
767
100
AcDbEntity
  8
0
 67
     1
100
AcDbBlockEnd
  0
BLOCK
  5
768
100
AcDbEntity
  8
0
100
AcDbBlockBegin
  2
A$C06CC3F2E
 70
    0
 10
0
 20
0
 30
0.0
  3
A$C06CC3F2E
  1

  0
LINE
  5
769
100
AcDbEntity
  8
ｾﾉｪO
100
AcDbLine
  6
BYLAYER
 10
3.39999997932296
 20
169.999998961755
 11
3.39999997932296
 21
84.9999989617553
  0
LINE
  5
76A
100
AcDbEntity
  8
ｾﾉｪO
100
AcDbLine
  6
BYLAYER
 10
1.39999997932296
 20
148.585442656595
 11
1.39999997932284
 21
14.7143013789654
  0
LINE
  5
76B
100
AcDbEntity
  8
ｾﾉｪO
100
AcDbLine
  6
BYLAYER
 10
-2.0677021E-8
 20
135.199998961755
 11
-2.06771347E-8
 21
34.7999989617553
  0
LINE
  5
76C
100
AcDbEntity
  8
ｾﾉｪO
100
AcDbLine
  6
BYLAYER
 10
13.0999999793232
 20
139.999998961755
 11
13.0999999793228
 21
84.9999989617553
  0
LINE
  5
76D
100
AcDbEntity
  8
ｾﾉｪO
100
AcDbLine
  6
BYLAYER
 10
4.39999997932296
 20
169.999998961755
 11
4.39999997932318
 21
150.756857239152
  0
LINE
  5
76E
100
AcDbEntity
  8
ｾﾉｪO
100
AcDbLine
  6
BYLAYER
 10
3.39999997932296
 20
169.999998961755
 11
3.39999997932296
 21
146.749998961755
  0
LINE
  5
76F
100
AcDbEntity
  8
ｾﾉｪO
100
AcDbLine
  6
BYLAYER
 10
3.39999997932296
 20
169.999998961755
 11
4.39999997932296
 21
169.999998961755
  0
ARC
  5
770
100
AcDbEntity
  8
ｾﾉｪO
100
AcDbCircle
  6
BYLAYER
 10
15.399999979323
 20
150.777519923316
 40
12
100
AcDbArc
 50
180
 51
258.949935040673
  0
ARC
  5
771
100
AcDbEntity
  8
ｾﾉｪO
100
AcDbCircle
  6
BYLAYER
 10
15.3999999793234
 20
150.756857239152
 40
11
100
AcDbArc
 50
180
 51
257.930917475647
  0
ARC
  5
772
100
AcDbEntity
  8
ｾﾉｪO
100
AcDbCircle
  6
BYLAYER
 10
15.3999999793234
 20
19.2431406843585
 40
11
100
AcDbArc
 50
102.069082524353
 51
180
  0
ARC
  5
773
100
AcDbEntity
  8
ｾﾉｪO
100
AcDbCircle
  6
BYLAYER
 10
15.399999979323
 20
19.2224780001946
 40
12
100
AcDbArc
 50
101.050064959327
 51
180
  0
LINE
  5
774
100
AcDbEntity
  8
ｾﾉｪO
100
AcDbLine
  6
BYLAYER
 10
3.39999997932296
 20
-1.0382447044E-6
 11
3.39999997932296
 21
23.2499989617553
  0
LINE
  5
775
100
AcDbEntity
  8
ｾﾉｪO
100
AcDbLine
  6
BYLAYER
 10
4.39999997932296
 20
-1.0382445907E-6
 11
4.39999997932318
 21
19.2431406843585
  0
LINE
  5
776
100
AcDbEntity
  8
ｾﾉｪO
100
AcDbLine
  6
BYLAYER
 10
3.39999997932296
 20
-1.0382447044E-6
 11
3.39999997932296
 21
84.9999989617553
  0
LINE
  5
777
100
AcDbEntity
  8
ｾﾉｪO
100
AcDbLine
  6
BYLAYER
 10
3.39999997932296
 20
-1.0382445907E-6
 11
4.39999997932296
 21
-1.0382445907E-6
  0
LINE
  5
778
100
AcDbEntity
  8
ｾﾉｪO
100
AcDbLine
  6
BYLAYER
 10
13.0999999793232
 20
29.9999989617553
 11
13.0999999793228
 21
84.9999989617553
  0
ARC
  5
779
100
AcDbEntity
  8
ｾﾉｪO
100
AcDbCircle
  6
BYLAYER
 10
2.39999997932296
 20
148.585442656595
 40
1
100
AcDbArc
 50
0
 51
180
  0
ARC
  5
77A
100
AcDbEntity
  8
ｾﾉｪO
100
AcDbCircle
  6
BYLAYER
 10
2.39999997932284
 20
14.7143013789654
 40
1
100
AcDbArc
 50
180
 51
0
  0
LINE
  5
77B
100
AcDbEntity
  8
ｾﾉｪO
100
AcDbLine
  6
BYLAYER
 10
1.39999997932296
 20
84.9999989617553
 11
3.39999997932296
 21
84.9999989617553
  0
ARC
  5
77C
100
AcDbEntity
  8
ｾﾉｪO
100
AcDbCircle
  6
BYLAYER
 10
0.699999979322911
 20
135.199998961755
 40
0.699999999999932
100
AcDbArc
 50
0
 51
180
  0
ARC
  5
77D
100
AcDbEntity
  8
ｾﾉｪO
100
AcDbCircle
  6
BYLAYER
 10
0.699999979322911
 20
34.7999989617553
 40
0.699999999999932
100
AcDbArc
 50
180
 51
0
  0
ENDBLK
  5
77E
100
AcDbEntity
  8
0
 67
     1
100
AcDbBlockEnd
  0
BLOCK
  5
77F
100
AcDbEntity
  8
0
100
AcDbBlockBegin
  2
A$C77676829
 70
    0
 10
0
 20
0
 30
0.0
  3
A$C77676829
  1

  0
LINE
  5
780
100
AcDbEntity
  8
0
100
AcDbLine
  6
BYLAYER
 10
5.44721393895844
 20
11.7888546467794
 11
0.447213938958441
 21
21.7888546467794
  0
LWPOLYLINE
  5
781
100
AcDbEntity
  8
0
100
AcDbPolyline
  6
BYLAYER
370
0
 90
     2
 10
5.00000034345851
  20
10.8944274557795
 10
3.434585096E-7
  20
20.8944274557795
  0
LINE
  5
782
100
AcDbEntity
  8
0
100
AcDbLine
  6
BYLAYER
 10
16.3416411299583
 20
11.7888546467794
 11
21.3416411299583
 21
21.7888546467794
  0
LINE
  5
783
100
AcDbEntity
  8
0
100
AcDbLine
  6
BYLAYER
 10
10.4472139389584
 20
21.7888546467794
 11
5.44721393895844
 21
11.7888546467794
  0
LINE
  5
784
100
AcDbEntity
  8
0
100
AcDbLine
  6
BYLAYER
 10
11.3416411299583
 20
21.7888546467794
 11
16.3416411299583
 21
11.7888546467794
  0
LINE
  5
785
100
AcDbEntity
  8
0
100
AcDbLine
  6
BYLAYER
 10
16.3416411299583
 20
10.0000002647795
 11
21.3416411299583
 21
2.647795156E-7
  0
LINE
  5
786
100
AcDbEntity
  8
0
100
AcDbLine
  6
BYLAYER
 10
11.3416411299583
 20
2.647795156E-7
 11
16.3416411299583
 21
10.0000002647795
  0
LINE
  5
787
100
AcDbEntity
  8
0
100
AcDbLine
  6
BYLAYER
 10
5.44721393895844
 20
10.0000002647795
 11
0.447213938958441
 21
2.647795156E-7
  0
LINE
  5
788
100
AcDbEntity
  8
0
100
AcDbLine
  6
BYLAYER
 10
10.4472139389584
 20
2.647795156E-7
 11
5.44721393895844
 21
10.0000002647795
  0
LWPOLYLINE
  5
789
100
AcDbEntity
  8
0
100
AcDbPolyline
  6
BYLAYER
370
0
 90
     2
 10
3.434585096E-7
  20
0.894427455779464
 10
5.00000034345851
  20
10.8944274557795
  0
LWPOLYLINE
  5
78A
100
AcDbEntity
  8
0
100
AcDbPolyline
  6
BYLAYER
370
0
 90
     3
 10
21.7888547254582
  20
20.8944274557795
 10
16.7888547254582
  20
10.8944274557795
 10
21.7888547254582
  20
0.894427455779464
  0
LWPOLYLINE
  5
78B
100
AcDbEntity
  8
0
100
AcDbPolyline
  6
BYLAYER
370
0
 90
     5
 10
5.89442753445837
  20
10.8944274557795
 10
10.8944275344584
  20
20.8944274557795
 10
15.8944275344584
  20
10.8944274557795
 10
10.8944275344584
  20
0.894427455779464
 10
5.89442753445837
  20
10.8944274557795
  0
ENDBLK
  5
78C
100
AcDbEntity
  8
0
 67
     1
100
AcDbBlockEnd
  0
ENDSEC
  0
SECTION
  2
ENTITIES
  0
LINE
  5
78D
100
AcDbEntity
  8
HATCH
100
AcDbLine
  6
BYLAYER
 62
0
370
  -2
 10
-7.48106327259848
 20
25.1736628804897
 11
-195.006867054204
 21
25.1736628804898
  0
LINE
  5
78E
100
AcDbEntity
  8
HATCH
100
AcDbLine
  6
BYLAYER
 62
0
370
  -2
 10
-129.731063272599
 20
-213.82633711951
 11
-195.006867054204
 21
-213.82633711951
  0
LINE
  5
78F
100
AcDbEntity
  8
HATCH
100
AcDbLine
  6
BYLAYER
 62
0
370
  -2
 10
-192.506867054204
 20
15.1736628804898
 11
-192.506867054204
 21
-74.32633711951
  0
LINE
  5
790
100
AcDbEntity
  8
HATCH
100
AcDbLine
  6
BYLAYER
 62
0
370
  -2
 10
-192.506867054204
 20
-203.82633711951
 11
-192.506867054204
 21
-114.32633711951
  0
SOLID
  5
791
100
AcDbEntity
  8
HATCH
100
AcDbTrace
 10
-194.17353372087
 20
15.1736628804898
 30
0.0
 11
-190.840200387537
 21
15.1736628804898
 31
0.0
 12
-192.506867054204
 22
25.1736628804898
 32
0.0
 13
-192.506867054204
 23
25.1736628804898
 33
0.0
  0
SOLID
  5
792
100
AcDbEntity
  8
HATCH
100
AcDbTrace
 10
-192.506867054204
 20
-213.82633711951
 30
0.0
 11
-190.840200387537
 21
-203.82633711951
 31
0.0
 12
-194.17353372087
 22
-203.82633711951
 32
0.0
 13
-194.17353372087
 23
-203.82633711951
 33
0.0
  0
TEXT
  5
793
100
AcDbEntity
  8
HATCH
 62
0
100
AcDbText
  6
BYLAYER
 62
0
 10
-186.881867054204
 20
-102.76383711951
 40
11.25
  1
239
  7
Font_0
 50
90
 72
1
 11
-192.506867054204
 21
-94.32633711951
100
AcDbText
 73
2
  0
LINE
  5
794
100
AcDbEntity
  8
HATCH
100
AcDbLine
  6
BYLAYER
 62
0
370
  -2
 10
-178.001064964854
 20
-89.6655494666302
 11
-178.001064964854
 21
53.3634880413365
  0
LINE
  5
795
100
AcDbEntity
  8
HATCH
100
AcDbLine
  6
BYLAYER
 62
0
370
  -2
 10
23.5189367274015
 20
25.4736628804897
 11
23.5189367274015
 21
53.3634880413365
  0
LINE
  5
796
100
AcDbEntity
  8
HATCH
100
AcDbLine
  6
BYLAYER
 62
0
370
  -2
 10
-168.001064964854
 20
50.8634880413365
 11
-96.303564118726
 21
50.8634880413365
  0
LINE
  5
797
100
AcDbEntity
  8
HATCH
100
AcDbLine
  6
BYLAYER
 62
0
370
  -2
 10
13.5189367274015
 20
50.8634880413365
 11
-58.178564118726
 21
50.8634880413365
  0
SOLID
  5
798
100
AcDbEntity
  8
HATCH
100
AcDbTrace
 10
-178.001064964854
 20
50.8634880413365
 30
0.0
 11
-168.001064964854
 21
49.1968213746698
 31
0.0
 12
-168.001064964854
 22
52.5301547080032
 32
0.0
 13
-168.001064964854
 23
52.5301547080032
 33
0.0
  0
SOLID
  5
799
100
AcDbEntity
  8
HATCH
100
AcDbTrace
 10
13.5189367274015
 20
52.5301547080032
 30
0.0
 11
13.5189367274015
 21
49.1968213746698
 31
0.0
 12
23.5189367274015
 22
50.8634880413365
 32
0.0
 13
23.5189367274015
 23
50.8634880413365
 33
0.0
  0
TEXT
  5
79A
100
AcDbEntity
  8
HATCH
 62
0
100
AcDbText
  6
BYLAYER
 62
0
 10
-85.678564118726
 20
45.2384880413365
 40
11.25
  1
202
  7
Font_0
 72
1
 11
-77.241064118726
 21
50.8634880413365
100
AcDbText
 73
2
  0
LINE
  5
79B
100
AcDbEntity
  8
0
100
AcDbLine
  6
BYLAYER
 10
-123.981063272599
 20
-197.82633711951
 11
-106.981063272599
 21
-197.82633711951
  0
LINE
  5
79C
100
AcDbEntity
  8
0
100
AcDbLine
  6
BYLAYER
 10
-127.231063272599
 20
-213.82633711951
 11
-103.731063272599
 21
-213.82633711951
  0
LINE
  5
79D
100
AcDbEntity
  8
0
100
AcDbLine
  6
BYLAYER
 10
-128.481063272599
 20
-195.82633711951
 11
-31.4810632725987
 21
-195.82633711951
  0
LINE
  5
79E
100
AcDbEntity
  8
0
100
AcDbLine
  6
BYLAYER
 10
-128.481063272599
 20
-197.82633711951
 11
-31.4810632725987
 21
-197.82633711951
  0
LINE
  5
79F
100
AcDbEntity
  8
0
100
AcDbLine
  6
BYLAYER
 10
-128.481063272599
 20
-197.82633711951
 11
-128.481063272599
 21
-173.417015458171
  0
LINE
  5
7A0
100
AcDbEntity
  8
0
100
AcDbLine
  6
BYLAYER
 10
-123.981063272599
 20
-197.82633711951
 11
-127.231063272599
 21
-213.82633711951
  0
LINE
  5
7A1
100
AcDbEntity
  8
HATCH
100
AcDbLine
  6
BYLAYER
 62
0
370
  -2
 10
101.890963355328
 20
22.6736628804897
 11
101.890963355328
 21
73.3700323566024
  0
LINE
  5
7A2
100
AcDbEntity
  8
HATCH
100
AcDbLine
  6
BYLAYER
 62
0
370
  -2
 10
265.890963355327
 20
-41.7356659706502
 11
265.890963355327
 21
73.3700323566024
  0
LINE
  5
7A3
100
AcDbEntity
  8
HATCH
100
AcDbLine
  6
BYLAYER
 62
0
370
  -2
 10
111.890963355328
 20
70.8700323566024
 11
165.765963355327
 21
70.8700323566024
  0
LINE
  5
7A4
100
AcDbEntity
  8
HATCH
100
AcDbLine
  6
BYLAYER
 62
0
370
  -2
 10
255.890963355327
 20
70.8700323566024
 11
202.015963355327
 21
70.8700323566024
  0
SOLID
  5
7A5
100
AcDbEntity
  8
HATCH
100
AcDbTrace
 10
101.890963355328
 20
70.8700323566024
 30
0.0
 11
111.890963355328
 21
69.2033656899358
 31
0.0
 12
111.890963355328
 22
72.5366990232691
 32
0.0
 13
111.890963355328
 23
72.5366990232691
 33
0.0
  0
SOLID
  5
7A6
100
AcDbEntity
  8
HATCH
100
AcDbTrace
 10
255.890963355327
 20
72.5366990232691
 30
0.0
 11
255.890963355327
 21
69.2033656899358
 31
0.0
 12
265.890963355327
 22
70.8700323566024
 32
0.0
 13
265.890963355327
 23
70.8700323566024
 33
0.0
  0
TEXT
  5
7A7
100
AcDbEntity
  8
HATCH
 62
0
100
AcDbText
  6
BYLAYER
 62
0
 10
175.453463355327
 20
65.2450323566024
 40
11.25
  1
164
  7
Font_0
 72
1
 11
183.890963355327
 21
70.8700323566024
100
AcDbText
 73
2
  0
LINE
  5
7A8
100
AcDbEntity
  8
HATCH
100
AcDbLine
  6
BYLAYER
 62
0
370
  -2
 10
108.890963355328
 20
20.6736628804897
 11
108.890963355328
 21
40.049076051363
  0
LINE
  5
7A9
100
AcDbEntity
  8
HATCH
100
AcDbLine
  6
BYLAYER
 62
0
370
  -2
 10
174.890963355328
 20
20.6736628804897
 11
174.890963355328
 21
40.049076051363
  0
LINE
  5
7AA
100
AcDbEntity
  8
HATCH
100
AcDbLine
  6
BYLAYER
 62
0
370
  -2
 10
118.890963355328
 20
37.5490760513631
 11
127.515963355327
 21
37.5490760513631
  0
LINE
  5
7AB
100
AcDbEntity
  8
HATCH
100
AcDbLine
  6
BYLAYER
 62
0
370
  -2
 10
164.890963355328
 20
37.5490760513631
 11
156.265963355328
 21
37.5490760513631
  0
SOLID
  5
7AC
100
AcDbEntity
  8
HATCH
100
AcDbTrace
 10
108.890963355328
 20
37.5490760513631
 30
0.0
 11
118.890963355328
 21
35.8824093846964
 31
0.0
 12
118.890963355328
 22
39.2157427180297
 32
0.0
 13
118.890963355328
 23
39.2157427180297
 33
0.0
  0
SOLID
  5
7AD
100
AcDbEntity
  8
HATCH
100
AcDbTrace
 10
164.890963355328
 20
39.2157427180297
 30
0.0
 11
164.890963355328
 21
35.8824093846964
 31
0.0
 12
174.890963355328
 22
37.5490760513631
 32
0.0
 13
174.890963355328
 23
37.5490760513631
 33
0.0
  0
TEXT
  5
7AE
100
AcDbEntity
  8
HATCH
 62
0
100
AcDbText
  6
BYLAYER
 62
0
 10
136.265963355328
 20
31.9240760513631
 40
11.25
  1
66
  7
Font_0
 72
1
 11
141.890963355328
 21
37.5490760513631
100
AcDbText
 73
2
  0
LINE
  5
7AF
100
AcDbEntity
  8
HATCH
100
AcDbLine
  6
BYLAYER
 62
0
370
  -2
 10
101.890963355328
 20
22.6736628804897
 11
101.890963355328
 21
57.8131995258452
  0
LINE
  5
7B0
100
AcDbEntity
  8
HATCH
100
AcDbLine
  6
BYLAYER
 62
0
370
  -2
 10
181.890963355328
 20
22.6736628804897
 11
181.890963355328
 21
57.8131995258452
  0
LINE
  5
7B1
100
AcDbEntity
  8
HATCH
100
AcDbLine
  6
BYLAYER
 62
0
370
  -2
 10
111.890963355328
 20
55.3131995258452
 11
128.453463355328
 21
55.3131995258452
  0
LINE
  5
7B2
100
AcDbEntity
  8
HATCH
100
AcDbLine
  6
BYLAYER
 62
0
370
  -2
 10
171.890963355328
 20
55.3131995258452
 11
155.328463355328
 21
55.3131995258452
  0
SOLID
  5
7B3
100
AcDbEntity
  8
HATCH
100
AcDbTrace
 10
101.890963355328
 20
55.3131995258452
 30
0.0
 11
111.890963355328
 21
53.6465328591786
 31
0.0
 12
111.890963355328
 22
56.9798661925119
 32
0.0
 13
111.890963355328
 23
56.9798661925119
 33
0.0
  0
SOLID
  5
7B4
100
AcDbEntity
  8
HATCH
100
AcDbTrace
 10
171.890963355328
 20
56.9798661925119
 30
0.0
 11
171.890963355328
 21
53.6465328591786
 31
0.0
 12
181.890963355328
 22
55.3131995258452
 32
0.0
 13
181.890963355328
 23
55.3131995258452
 33
0.0
  0
TEXT
  5
7B5
100
AcDbEntity
  8
HATCH
 62
0
100
AcDbText
  6
BYLAYER
 62
0
 10
136.265963355328
 20
49.6881995258452
 40
11.25
  1
80
  7
Font_0
 72
1
 11
141.890963355328
 21
55.3131995258452
100
AcDbText
 73
2
  0
LINE
  5
7B6
100
AcDbEntity
  8
0
100
AcDbLine
  6
BYLAYER
 10
106.890963355328
 20
25.1736628804897
 11
176.890963355328
 21
25.1736628804897
  0
LINE
  5
7B7
100
AcDbEntity
  8
0
100
AcDbLine
  6
BYLAYER
 10
106.890963355328
 20
-54.8263371195103
 11
176.890963355328
 21
-54.8263371195103
  0
CIRCLE
  5
7B8
100
AcDbEntity
  8
0
100
AcDbCircle
  6
BYLAYER
 10
141.890963355328
 20
-14.8263371195103
 40
37.8
  0
CIRCLE
  5
7B9
100
AcDbEntity
  8
0
100
AcDbCircle
  6
BYLAYER
 10
141.890963355328
 20
-14.8263371195103
 40
37
  0
INSERT
  5
7BA
100
AcDbEntity
  8
0
100
AcDbBlockReference
  6
BYLAYER
  2
A$C51B807F4
 10
101.890959868601
 20
-184.814062404537
 30
0.0
  0
LINE
  5
7BB
100
AcDbEntity
  8
HATCH
100
AcDbLine
  6
BYLAYER
 62
0
370
  -2
 10
104.390963355328
 20
25.1736628804897
 11
88.4841815289883
 21
25.1736628804897
  0
LINE
  5
7BC
100
AcDbEntity
  8
HATCH
100
AcDbLine
  6
BYLAYER
 62
0
370
  -2
 10
104.390963355328
 20
-54.8263371195103
 11
88.4841815289883
 21
-54.8263371195103
  0
LINE
  5
7BD
100
AcDbEntity
  8
HATCH
100
AcDbLine
  6
BYLAYER
 62
0
370
  -2
 10
90.9841815289883
 20
15.1736628804897
 11
90.9841815289883
 21
-1.3888371195103
  0
LINE
  5
7BE
100
AcDbEntity
  8
HATCH
100
AcDbLine
  6
BYLAYER
 62
0
370
  -2
 10
90.9841815289883
 20
-44.8263371195103
 11
90.9841815289883
 21
-28.2638371195103
  0
SOLID
  5
7BF
100
AcDbEntity
  8
HATCH
100
AcDbTrace
 10
89.3175148623216
 20
15.1736628804897
 30
0.0
 11
92.650848195655
 21
15.1736628804897
 31
0.0
 12
90.9841815289883
 22
25.1736628804897
 32
0.0
 13
90.9841815289883
 23
25.1736628804897
 33
0.0
  0
SOLID
  5
7C0
100
AcDbEntity
  8
HATCH
100
AcDbTrace
 10
90.9841815289883
 20
-54.8263371195103
 30
0.0
 11
92.650848195655
 21
-44.8263371195103
 31
0.0
 12
89.3175148623216
 22
-44.8263371195103
 32
0.0
 13
89.3175148623216
 23
-44.8263371195103
 33
0.0
  0
TEXT
  5
7C1
100
AcDbEntity
  8
HATCH
 62
0
100
AcDbText
  6
BYLAYER
 62
0
 10
96.6091815289883
 20
-20.4513371195103
 40
11.25
  1
80
  7
Font_0
 50
90
 72
1
 11
90.9841815289883
 21
-14.8263371195103
100
AcDbText
 73
2
  0
LINE
  5
7C2
100
AcDbEntity
  8
0
100
AcDbLine
  6
BYLAYER
 10
101.890963355328
 20
20.1736628804897
 11
101.890963355328
 21
-49.8263371195103
  0
LINE
  5
7C3
100
AcDbEntity
  8
0
100
AcDbLine
  6
BYLAYER
 10
-7.98106327259848
 20
-42.5763371195103
 11
-7.98106327259848
 21
-36.3263371195103
  0
ARC
  5
7C4
100
AcDbEntity
  8
0
100
AcDbCircle
  6
BYLAYER
 10
-23.3701203174689
 20
-43.8263371195103
 40
3.00000000000009
100
AcDbArc
 50
90
 51
223.292949060684
  0
LINE
  5
7C5
100
AcDbEntity
  8
0
100
AcDbLine
  6
BYLAYER
 10
-4.98106327259848
 20
11.1736628804897
 11
-4.98106327259848
 21
-40.8263371195103
  0
LINE
  5
7C6
100
AcDbEntity
  8
0
100
AcDbLine
  6
BYLAYER
 10
-3.48106327259848
 20
25.1736628804897
 11
-3.48106327259848
 21
-54.8263371195103
  0
LINE
  5
7C7
100
AcDbEntity
  8
0
100
AcDbLine
  6
BYLAYER
 10
-4.98106327259848
 20
25.1736628804897
 11
-4.98106327259848
 21
-54.8263371195103
  0
LINE
  5
7C8
100
AcDbEntity
  8
0
100
AcDbLine
  6
BYLAYER
 10
-52.9810632725987
 20
-197.82633711951
 11
-35.9810632725987
 21
-197.82633711951
  0
LINE
  5
7C9
100
AcDbEntity
  8
0
100
AcDbLine
  6
BYLAYER
 10
-56.2310632725987
 20
-213.82633711951
 11
-32.7310632725987
 21
-213.82633711951
  0
LINE
  5
7CA
100
AcDbEntity
  8
0
100
AcDbLine
  6
BYLAYER
 10
-106.981063272599
 20
-197.82633711951
 11
-103.731063272599
 21
-213.82633711951
  0
LINE
  5
7CB
100
AcDbEntity
  8
0
100
AcDbLine
  6
BYLAYER
 10
-52.9810632725987
 20
-197.82633711951
 11
-56.2310632725987
 21
-213.82633711951
  0
LINE
  5
7CC
100
AcDbEntity
  8
0
100
AcDbLine
  6
BYLAYER
 10
-31.4810632725987
 20
-167.131422894115
 11
-31.4810632725987
 21
-197.82633711951
  0
LINE
  5
7CD
100
AcDbEntity
  8
0
100
AcDbLine
  6
BYLAYER
 10
-35.9810632725987
 20
-197.82633711951
 11
-32.7310632725987
 21
-213.82633711951
  0
LINE
  5
7CE
100
AcDbEntity
  8
0
100
AcDbLine
  6
BYLAYER
 10
-79.9810632725982
 20
-97.5513371195102
 11
-79.9810632725982
 21
-97.1013371195104
  0
LINE
  5
7CF
100
AcDbEntity
  8
0
100
AcDbLine
  6
BYLAYER
 10
-80.2060632725983
 20
-97.3263371195103
 11
-79.7560632725982
 21
-97.3263371195103
  0
ARC
  5
7D0
100
AcDbEntity
  8
0
100
AcDbCircle
  6
BYLAYER
 10
-85.5405578871973
 20
-102.398350442079
 40
82.4157131461808
100
AcDbArc
 50
359.971582383013
 51
43.2929490606845
  0
LINE
  5
7D1
100
AcDbEntity
  8
0
100
AcDbLine
  6
BYLAYER
 10
-4.98106327259848
 20
-42.5763371195103
 11
-16.4810632725984
 21
-42.5763371195103
  0
LINE
  5
7D2
100
AcDbEntity
  8
0
100
AcDbLine
  6
BYLAYER
 10
-16.4810632725984
 20
-42.5763371195103
 11
-16.4810632725984
 21
-41.0763371195103
  0
LINE
  5
7D3
100
AcDbEntity
  8
0
100
AcDbLine
  6
BYLAYER
 10
-16.4810632725984
 20
-41.0763371195103
 11
-16.4810632725984
 21
-42.5763371195103
  0
LINE
  5
7D4
100
AcDbEntity
  8
0
100
AcDbLine
  6
BYLAYER
 10
-7.98106327259848
 20
-41.0763371195103
 11
-16.4810632725984
 21
-41.0763371195103
  0
LINE
  5
7D5
100
AcDbEntity
  8
0
100
AcDbLine
  6
BYLAYER
 10
-7.98106327259825
 20
-40.8263371195103
 11
-23.3701203174689
 21
-40.8263371195103
  0
LINE
  5
7D6
100
AcDbEntity
  8
0
100
AcDbLine
  6
BYLAYER
 10
-3.48106327259848
 20
-54.8263371195103
 11
-4.98106327259848
 21
-54.8263371195103
  0
CIRCLE
  5
7D7
100
AcDbEntity
  8
0
100
AcDbCircle
  6
BYLAYER
 10
108.890963355328
 20
-47.8263371195103
 40
3.25
  0
ARC
  5
7D8
100
AcDbEntity
  8
0
100
AcDbCircle
  6
BYLAYER
 10
106.890963355328
 20
-49.8263371195103
 40
5
100
AcDbArc
 50
180
 51
270
  0
LINE
  5
7D9
100
AcDbEntity
  8
HATCH
100
AcDbLine
  6
BYLAYER
 62
0
370
  -2
 10
-3.48106327259848
 20
27.6736628804897
 11
-3.48106327259847
 21
38.9450059616483
  0
LINE
  5
7DA
100
AcDbEntity
  8
HATCH
100
AcDbLine
  6
BYLAYER
 62
0
370
  -2
 10
23.5189367274015
 20
25.4736628804897
 11
23.5189367274015
 21
38.9450059616483
  0
LINE
  5
7DB
100
AcDbEntity
  8
HATCH
100
AcDbLine
  6
BYLAYER
 62
0
370
  -2
 10
-13.4810632725985
 20
36.4450059616483
 11
-23.4810632725985
 21
36.4450059616483
  0
LINE
  5
7DC
100
AcDbEntity
  8
HATCH
100
AcDbLine
  6
BYLAYER
 62
0
370
  -2
 10
33.5189367274015
 20
36.4450059616483
 11
43.5189367274015
 21
36.4450059616483
  0
SOLID
  5
7DD
100
AcDbEntity
  8
HATCH
100
AcDbTrace
 10
-13.4810632725985
 20
38.111672628315
 30
0.0
 11
-13.4810632725985
 21
34.7783392949817
 31
0.0
 12
-3.48106327259847
 22
36.4450059616483
 32
0.0
 13
-3.48106327259847
 23
36.4450059616483
 33
0.0
  0
SOLID
  5
7DE
100
AcDbEntity
  8
HATCH
100
AcDbTrace
 10
23.5189367274015
 20
36.4450059616483
 30
0.0
 11
33.5189367274015
 21
34.7783392949817
 31
0.0
 12
33.5189367274015
 22
38.111672628315
 32
0.0
 13
33.5189367274015
 23
38.111672628315
 33
0.0
  0
TEXT
  5
7DF
100
AcDbEntity
  8
HATCH
 62
0
100
AcDbText
  6
BYLAYER
 62
0
 10
4.39393672740152
 20
30.8200059616483
 40
11.25
  1
27
  7
Font_0
 72
1
 11
10.0189367274015
 21
36.4450059616483
100
AcDbText
 73
2
  0
LINE
  5
7E0
100
AcDbEntity
  8
0
100
AcDbLine
  6
BYLAYER
 10
-79.9810632725974
 20
11.1736628804898
 11
-7.98106327259825
 21
11.1736628804897
  0
CIRCLE
  5
7E1
100
AcDbEntity
  8
0
100
AcDbCircle
  6
BYLAYER
 10
-62.0310631928718
 20
-26.8255570022825
 40
2.25
  0
LINE
  5
7E2
100
AcDbEntity
  8
0
100
AcDbLine
  6
BYLAYER
 10
-7.98106327259848
 20
12.9236628804897
 11
-7.98106327259848
 21
6.6736628804897
  0
LINE
  5
7E3
100
AcDbEntity
  8
0
100
AcDbLine
  6
BYLAYER
 10
-16.4810632725984
 20
-1.8263371195103
 11
-7.98106327259848
 21
6.6736628804897
  0
LINE
  5
7E4
100
AcDbEntity
  8
0
100
AcDbLine
  6
BYLAYER
 10
-16.4810632725984
 20
-27.8263371195103
 11
-7.98106327259848
 21
-36.3263371195103
  0
LINE
  5
7E5
100
AcDbEntity
  8
0
100
AcDbLine
  6
BYLAYER
 10
-16.4810632725984
 20
-1.8263371195103
 11
-16.4810632725984
 21
-27.8263371195103
  0
LINE
  5
7E6
100
AcDbEntity
  8
0
100
AcDbLine
  6
BYLAYER
 10
-4.98106327259848
 20
12.9236628804897
 11
-16.4810632725984
 21
12.9236628804897
  0
LINE
  5
7E7
100
AcDbEntity
  8
0
100
AcDbLine
  6
BYLAYER
 10
-16.4810632725984
 20
12.9236628804897
 11
-16.4810632725984
 21
11.4236628804897
  0
LINE
  5
7E8
100
AcDbEntity
  8
0
100
AcDbLine
  6
BYLAYER
 10
-19.9377813453187
 20
11.1736628804897
 11
-7.98106327259848
 21
11.1736628804897
  0
LINE
  5
7E9
100
AcDbEntity
  8
0
100
AcDbLine
  6
BYLAYER
 10
-7.98106327259848
 20
11.4236628804897
 11
-16.4810632725984
 21
11.4236628804897
  0
LINE
  5
7EA
100
AcDbEntity
  8
0
100
AcDbLine
  6
BYLAYER
 10
-3.48106327259848
 20
25.1736628804897
 11
-4.98106327259848
 21
25.1736628804897
  0
ARC
  5
7EB
100
AcDbEntity
  8
0
100
AcDbCircle
  6
BYLAYER
 10
106.890963355328
 20
20.1736628804897
 40
5
100
AcDbArc
 50
90
 51
180
  0
CIRCLE
  5
7EC
100
AcDbEntity
  8
0
100
AcDbCircle
  6
BYLAYER
 10
108.890963355328
 20
18.1736628804897
 40
3.25
  0
LINE
  5
7ED
100
AcDbEntity
  8
0
100
AcDbLine
  6
BYLAYER
 10
181.890963355328
 20
20.1736628804897
 11
181.890963355328
 21
-49.8263371195103
  0
LINE
  5
7EE
100
AcDbEntity
  8
0
100
AcDbLine
  6
BYLAYER
 10
170.890963355328
 20
-145.82633711951
 11
260.890963355328
 21
-145.82633711951
  0
LINE
  5
7EF
100
AcDbEntity
  8
0
100
AcDbLine
  6
BYLAYER
 10
181.890963355328
 20
-48.8263371195103
 11
260.890963355328
 21
-48.8263371195108
  0
LINE
  5
7F0
100
AcDbEntity
  8
0
100
AcDbLine
  6
BYLAYER
 10
167.890963355328
 20
-54.8263371195107
 11
167.890963355328
 21
-142.82633711951
  0
LINE
  5
7F1
100
AcDbEntity
  8
0
100
AcDbLine
  6
BYLAYER
 10
174.890963355327
 20
-54.8263371195103
 11
174.890963355328
 21
-145.82633711951
  0
ARC
  5
7F2
100
AcDbEntity
  8
0
100
AcDbCircle
  6
BYLAYER
 10
170.890963355328
 20
-142.82633711951
 40
3
100
AcDbArc
 50
180
 51
270
  0
CIRCLE
  5
7F3
100
AcDbEntity
  8
0
100
AcDbCircle
  6
BYLAYER
 10
174.890963355328
 20
-47.8263371195103
 40
3.25
  0
ARC
  5
7F4
100
AcDbEntity
  8
0
100
AcDbCircle
  6
BYLAYER
 10
176.890963355328
 20
-49.8263371195103
 40
5
100
AcDbArc
 50
270
 51
0
  0
LINE
  5
7F5
100
AcDbEntity
  8
0
100
AcDbLine
  6
BYLAYER
 10
263.890963355328
 20
-51.8263371195103
 11
263.890963355328
 21
-142.82633711951
  0
LINE
  5
7F6
100
AcDbEntity
  8
0
100
AcDbLine
  6
BYLAYER
 10
256.890963355328
 20
-48.8263371195108
 11
256.890963355328
 21
-145.82633711951
  0
ARC
  5
7F7
100
AcDbEntity
  8
0
100
AcDbCircle
  6
BYLAYER
 10
260.890963355328
 20
-142.82633711951
 40
3
100
AcDbArc
 50
270
 51
0
  0
ARC
  5
7F8
100
AcDbEntity
  8
0
100
AcDbCircle
  6
BYLAYER
 10
260.890963355328
 20
-51.8263371195103
 40
3
100
AcDbArc
 50
0
 51
90
  0
LINE
  5
7F9
100
AcDbEntity
  8
0
100
AcDbLine
  6
BYLAYER
 10
181.890963355327
 20
4.26576814364762
 11
234.390963355328
 21
7.4236628804897
  0
LINE
  5
7FA
100
AcDbEntity
  8
0
100
AcDbLine
  6
BYLAYER
 10
234.390963355328
 20
-17.0763371195103
 11
181.890963355327
 21
-13.9184423826682
  0
LINE
  5
7FB
100
AcDbEntity
  8
0
100
AcDbLine
  6
BYLAYER
 10
125.890963355328
 20
-37.7799317517879
 11
157.890963355328
 21
-37.7799317517879
  0
LINE
  5
7FC
100
AcDbEntity
  8
0
100
AcDbLine
  6
BYLAYER
 10
126.390963355328
 20
-33.3263371195103
 11
157.390963355328
 21
-33.3263371195103
  0
LINE
  5
7FD
100
AcDbEntity
  8
0
100
AcDbLine
  6
BYLAYER
 10
125.890963355328
 20
-34.9003668140663
 11
157.890963355328
 21
-34.9003668140663
  0
LINE
  5
7FE
100
AcDbEntity
  8
0
100
AcDbLine
  6
BYLAYER
 10
124.490963355328
 20
-31.3263371195103
 11
124.490963355328
 21
-30.3263371195103
  0
ARC
  5
7FF
100
AcDbEntity
  8
0
100
AcDbCircle
  6
BYLAYER
 10
126.390963355328
 20
-33.8263371195103
 40
0.5
100
AcDbArc
 50
90
 51
180
  0
LINE
  5
800
100
AcDbEntity
  8
0
100
AcDbLine
  6
BYLAYER
370
0
 10
125.890963355328
 20
-34.8263371195103
 11
123.390963355328
 21
-34.8263371195103
  0
ARC
  5
801
100
AcDbEntity
  8
0
100
AcDbCircle
  6
BYLAYER
370
0
 10
123.390963355328
 20
-33.3263371195103
 40
1.5
100
AcDbArc
 50
180
 51
-90
  0
LINE
  5
802
100
AcDbEntity
  8
0
100
AcDbLine
  6
BYLAYER
370
0
 10
121.890963355328
 20
-33.3263371195103
 11
121.890963355328
 21
-31.8263371195103
  0
ARC
  5
803
100
AcDbEntity
  8
0
100
AcDbCircle
  6
BYLAYER
370
0
 10
123.390963355328
 20
-31.8263371195103
 40
1.5
100
AcDbArc
 50
90
 51
-180
  0
LINE
  5
804
100
AcDbEntity
  8
0
100
AcDbLine
  6
BYLAYER
370
0
 10
123.390963355328
 20
-30.3263371195103
 11
124.490963355328
 21
-30.3263371195103
  0
LINE
  5
805
100
AcDbEntity
  8
0
100
AcDbLine
  6
BYLAYER
370
0
 10
125.890963355328
 20
-33.8263371195103
 11
123.390963355328
 21
-33.8263371195103
  0
ARC
  5
806
100
AcDbEntity
  8
0
100
AcDbCircle
  6
BYLAYER
370
0
 10
123.390963355328
 20
-33.3263371195103
 40
0.5
100
AcDbArc
 50
180
 51
-90
  0
LINE
  5
807
100
AcDbEntity
  8
0
100
AcDbLine
  6
BYLAYER
370
0
 10
122.890963355328
 20
-33.3263371195103
 11
122.890963355328
 21
-31.8263371195103
  0
ARC
  5
808
100
AcDbEntity
  8
0
100
AcDbCircle
  6
BYLAYER
370
0
 10
123.390963355328
 20
-31.8263371195103
 40
0.5
100
AcDbArc
 50
90
 51
-180
  0
LINE
  5
809
100
AcDbEntity
  8
0
100
AcDbLine
  6
BYLAYER
370
0
 10
123.390963355328
 20
-31.3263371195103
 11
124.490963355328
 21
-31.3263371195103
  0
LINE
  5
80A
100
AcDbEntity
  8
0
100
AcDbLine
  6
BYLAYER
 10
125.890963355328
 20
-33.8263371195103
 11
125.890963355328
 21
-39.0263371195106
  0
LINE
  5
80B
100
AcDbEntity
  8
0
100
AcDbLine
  6
BYLAYER
 10
121.890963355328
 20
-33.3263371195103
 11
121.890963355328
 21
-39.0263371195104
  0
ARC
  5
80C
100
AcDbEntity
  8
0
100
AcDbCircle
  6
BYLAYER
 10
157.390963355328
 20
-33.8263371195103
 40
0.5
100
AcDbArc
 50
0
 51
90
  0
LINE
  5
80D
100
AcDbEntity
  8
0
100
AcDbLine
  6
BYLAYER
 10
157.890963355328
 20
-34.8263371195103
 11
158.390963355328
 21
-34.8263371195103
  0
LINE
  5
80E
100
AcDbEntity
  8
0
100
AcDbLine
  6
BYLAYER
 10
158.390963355328
 20
-33.8263371195103
 11
157.890963355328
 21
-33.8263371195103
  0
LINE
  5
80F
100
AcDbEntity
  8
0
100
AcDbLine
  6
BYLAYER
370
0
 10
160.890963355328
 20
-39.0263371195106
 11
160.890963355328
 21
-37.3263371195103
  0
ARC
  5
810
100
AcDbEntity
  8
0
100
AcDbCircle
  6
BYLAYER
370
0
 10
158.390963355328
 20
-37.3263371195103
 40
2.5
100
AcDbArc
 50
3.18055468146352E-14
 51
90
  0
LINE
  5
811
100
AcDbEntity
  8
0
100
AcDbLine
  6
BYLAYER
370
0
 10
161.890963355328
 20
-39.0263371195106
 11
161.890963355328
 21
-37.3263371195103
  0
ARC
  5
812
100
AcDbEntity
  8
0
100
AcDbCircle
  6
BYLAYER
370
0
 10
158.390963355328
 20
-37.3263371195103
 40
3.5
100
AcDbArc
 50
-6.36110936292703E-15
 51
90
  0
LINE
  5
813
100
AcDbEntity
  8
0
100
AcDbLine
  6
BYLAYER
 10
157.890963355328
 20
-33.8263371195103
 11
157.890963355328
 21
-39.0263371195106
  0
ARC
  5
814
100
AcDbEntity
  8
0
100
AcDbCircle
  6
BYLAYER
 10
176.890963355328
 20
20.1736628804897
 40
5
100
AcDbArc
 50
0
 51
90
  0
CIRCLE
  5
815
100
AcDbEntity
  8
0
100
AcDbCircle
  6
BYLAYER
 10
174.890963355328
 20
18.1736628804897
 40
3.25
  0
ARC
  5
816
100
AcDbEntity
  8
0
100
AcDbCircle
  6
BYLAYER
 10
234.390963355328
 20
4.4236628804897
 40
3
100
AcDbArc
 50
0
 51
90
  0
ARC
  5
817
100
AcDbEntity
  8
0
100
AcDbCircle
  6
BYLAYER
 10
234.390963355328
 20
-14.0763371195103
 40
3
100
AcDbArc
 50
270
 51
0
  0
LINE
  5
818
100
AcDbEntity
  8
0
100
AcDbLine
  6
BYLAYER
 10
234.390963355328
 20
7.4236628804897
 11
234.390963355328
 21
-17.0763371195103
  0
LINE
  5
819
100
AcDbEntity
  8
0
100
AcDbLine
  6
BYLAYER
 10
237.390963355328
 20
4.4236628804897
 11
237.390963355328
 21
-14.0763371195103
  0
LINE
  5
81A
100
AcDbEntity
  8
0
100
AcDbLine
  6
BYLAYER
 10
120.140963355328
 20
-213.82633711951
 11
143.640963355328
 21
-213.82633711951
  0
LINE
  5
81B
100
AcDbEntity
  8
0
100
AcDbLine
  6
BYLAYER
 10
123.390963355328
 20
-197.82633711951
 11
140.390963355328
 21
-197.82633711951
  0
LINE
  5
81C
100
AcDbEntity
  8
0
100
AcDbLine
  6
BYLAYER
 10
123.390963355328
 20
-197.82633711951
 11
120.140963355328
 21
-213.82633711951
  0
LINE
  5
81D
100
AcDbEntity
  8
0
100
AcDbLine
  6
BYLAYER
 10
140.390963355328
 20
-197.82633711951
 11
143.640963355328
 21
-213.82633711951
  0
LINE
  5
81E
100
AcDbEntity
  8
0
100
AcDbLine
  6
BYLAYER
 10
240.390963355328
 20
-197.82633711951
 11
257.390963355328
 21
-197.82633711951
  0
LINE
  5
81F
100
AcDbEntity
  8
0
100
AcDbLine
  6
BYLAYER
 10
237.140963355328
 20
-213.82633711951
 11
260.640963355328
 21
-213.82633711951
  0
LINE
  5
820
100
AcDbEntity
  8
0
100
AcDbLine
  6
BYLAYER
 10
240.390963355328
 20
-197.82633711951
 11
237.140963355328
 21
-213.82633711951
  0
LINE
  5
821
100
AcDbEntity
  8
0
100
AcDbLine
  6
BYLAYER
 10
257.390963355328
 20
-197.82633711951
 11
260.640963355328
 21
-213.82633711951
  0
LINE
  5
822
100
AcDbEntity
  8
0
100
AcDbLine
  6
BYLAYER
 10
263.890963355328
 20
-195.82633711951
 11
118.890963355328
 21
-195.82633711951
  0
LINE
  5
823
100
AcDbEntity
  8
0
100
AcDbLine
  6
BYLAYER
 10
265.890963355328
 20
-197.82633711951
 11
118.890963355328
 21
-197.82633711951
  0
LINE
  5
824
100
AcDbEntity
  8
0
100
AcDbLine
  6
BYLAYER
 10
118.890963355328
 20
-195.82633711951
 11
118.890963355328
 21
-197.82633711951
  0
LINE
  5
825
100
AcDbEntity
  8
0
100
AcDbLine
  6
BYLAYER
 10
263.890963355328
 20
-48.8263371195104
 11
263.890963355328
 21
-195.82633711951
  0
LINE
  5
826
100
AcDbEntity
  8
0
100
AcDbLine
  6
BYLAYER
 10
265.890963355328
 20
-48.8263371195104
 11
265.890963355328
 21
-197.82633711951
  0
LINE
  5
827
100
AcDbEntity
  8
0
100
AcDbLine
  6
BYLAYER
 10
131.890963355328
 20
-195.82633711951
 11
131.890963355328
 21
-197.82633711951
  0
LINE
  5
828
100
AcDbEntity
  8
0
100
AcDbLine
  6
BYLAYER
 10
248.890963355328
 20
-195.82633711951
 11
248.890963355328
 21
-197.82633711951
  0
LINE
  5
829
100
AcDbEntity
  8
CEN
100
AcDbLine
  6
BYLAYER
 10
263.890963355328
 20
-97.3263371195103
 11
265.890963355328
 21
-97.3263371195103
  0
LINE
  5
82A
100
AcDbEntity
  8
ｸ_ｮy
100
AcDbLine
  6
BYLAYER
 10
265.890963355328
 20
-48.8263371195104
 11
263.890963355328
 21
-48.8263371195101
  0
ARC
  5
82B
100
AcDbEntity
  8
0
100
AcDbCircle
  6
BYLAYER
 10
-79.9810632725983
 20
-97.3263371195103
 40
54
100
AcDbArc
 50
81.2415207391257
 51
190.189652306565
  0
CIRCLE
  5
82C
100
AcDbEntity
  8
0
100
AcDbCircle
  6
BYLAYER
 10
-27.9005967443209
 20
-148.121883245101
 40
2.25
  0
ARC
  5
82D
100
AcDbEntity
  8
0
100
AcDbCircle
  6
BYLAYER
 10
-79.9810632725983
 20
-97.3263371195103
 40
84.9999999999999
100
AcDbArc
 50
91.1892590870007
 51
310.810740783412
  0
CIRCLE
  5
82E
100
AcDbEntity
  8
0
100
AcDbCircle
  6
BYLAYER
 10
-110.079574936657
 20
-164.928700951026
 40
3.5
  0
CIRCLE
  5
82F
100
AcDbEntity
  8
0
100
AcDbCircle
  6
BYLAYER
 10
-147.583427104114
 20
-67.2278254554522
 40
3.5
  0
CIRCLE
  5
830
100
AcDbEntity
  8
0
100
AcDbCircle
  6
BYLAYER
 10
-150.011529880603
 20
-117.031571111148
 40
2.25
  0
LINE
  5
831
100
AcDbEntity
  8
0
100
AcDbLine
  6
BYLAYER
 10
-10.7706380753958
 20
-71.2533856031174
 11
-7.07923074737877
 21
-98.7151612174072
  0
ARC
  5
832
100
AcDbEntity
  8
0
100
AcDbCircle
  6
BYLAYER
 10
-76.0734928840178
 20
-108.268165397379
 40
74.283058973676
100
AcDbArc
 50
314.047083723071
 51
3.16562873425398
  0
ARC
  5
833
100
AcDbEntity
  8
0
100
AcDbCircle
  6
BYLAYER
 10
-1.2868183970336
 20
-96.5042882758825
 40
6.19999999999998
100
AcDbArc
 50
200.891071109138
 51
251.411441776408
  0
ARC
  5
834
100
AcDbEntity
  8
0
100
AcDbCircle
  6
BYLAYER
 10
-3.90073269833061
 20
-104.276511382914
 40
2
100
AcDbArc
 50
3.16562873425398
 51
71.411441776408
  0
ARC
  5
835
100
AcDbEntity
  8
0
100
AcDbCircle
  6
BYLAYER
 10
-84.3986847240759
 20
-86.580299100058
 40
74.283058973676
100
AcDbArc
 50
38.8343711361588
 51
87.9529161473568
  0
LINE
  5
836
100
AcDbEntity
  8
0
100
AcDbLine
  6
BYLAYER
 10
-11.1014839755251
 20
-70.3915025628741
 11
-26.7337482617676
 21
-47.5133923957933
  0
ARC
  5
837
100
AcDbEntity
  8
0
100
AcDbCircle
  6
BYLAYER
 10
-12.7528106122369
 20
-71.5198289070169
 40
2
100
AcDbArc
 50
7.655799189098
 51
34.3442006455437
  0
ARC
  5
838
100
AcDbEntity
  8
0
100
AcDbCircle
  6
BYLAYER
 10
-20.9497842395696
 20
-45.2805108069217
 40
6.19999999999997
100
AcDbArc
 50
150.588558093954
 51
201.108928760949
  0
ARC
  5
839
100
AcDbEntity
  8
0
100
AcDbCircle
  6
BYLAYER
 10
-28.0929334780726
 20
-41.2536734677092
 40
2
100
AcDbArc
 50
330.588558093954
 51
38.8343711361588
  0
CIRCLE
  5
83A
100
AcDbEntity
  8
0
100
AcDbCircle
  6
BYLAYER
 10
-62.0310631928717
 20
-26.8255570022819
 40
2.25
  0
ARC
  5
83B
100
AcDbEntity
  8
0
100
AcDbCircle
  6
BYLAYER
 10
-49.8825516085399
 20
-29.7239732879953
 40
3.5
100
AcDbArc
 50
156.000056729097
 51
336.000056729097
  0
ARC
  5
83C
100
AcDbEntity
  8
0
100
AcDbCircle
  6
BYLAYER
 10
-49.4758158699746
 20
-28.8104274276394
 40
3.5
100
AcDbArc
 50
336.000056729097
 51
156.000056729097
  0
LINE
  5
83D
100
AcDbEntity
  8
0
100
AcDbLine
  6
BYLAYER
 10
-53.0799621197859
 20
-28.3003982030161
 11
-52.6732263812206
 21
-27.3868523426601
  0
LINE
  5
83E
100
AcDbEntity
  8
0
100
AcDbLine
  6
BYLAYER
 10
-46.685141097294
 20
-31.1475483729746
 11
-46.2784053587285
 21
-30.2340025126185
  0
ARC
  5
83F
100
AcDbEntity
  8
0
100
AcDbCircle
  6
BYLAYER
 10
-12.3786994410832
 20
-127.424848783568
 40
3.5
100
AcDbArc
 50
65.9999431413165
 51
245.999943141316
  0
ARC
  5
840
100
AcDbEntity
  8
0
100
AcDbCircle
  6
BYLAYER
 10
-11.465154387075
 20
-127.83158633322
 40
3.5
100
AcDbArc
 50
245.999943141316
 51
65.9999431413165
  0
LINE
  5
841
100
AcDbEntity
  8
0
100
AcDbLine
  6
BYLAYER
 10
-13.8022808648648
 20
-130.622256472598
 11
-12.8887358108565
 21
-131.02899402225
  0
LINE
  5
842
100
AcDbEntity
  8
0
100
AcDbLine
  6
BYLAYER
 10
-10.9551180173016
 20
-124.227441094539
 11
-10.0415729632932
 21
-124.634178644191
  0
CIRCLE
  5
843
100
AcDbEntity
  8
0
100
AcDbCircle
  6
BYLAYER
 10
-79.9810632725983
 20
-97.3263371195103
 40
4
  0
CIRCLE
  5
844
100
AcDbEntity
  8
0
100
AcDbCircle
  6
BYLAYER
 10
-79.9810632725983
 20
-97.3263371195103
 40
8
  0
CIRCLE
  5
845
100
AcDbEntity
  8
0
100
AcDbCircle
  6
BYLAYER
 10
-79.9810632725983
 20
-97.3263371195103
 40
13.75
  0
CIRCLE
  5
846
100
AcDbEntity
  8
0
100
AcDbCircle
  6
BYLAYER
 10
-79.9810632725983
 20
-97.3263371195103
 40
15.15
  0
CIRCLE
  5
847
100
AcDbEntity
  8
0
100
AcDbCircle
  6
BYLAYER
 10
-79.9810632725983
 20
-97.3263371195103
 40
20.9
  0
CIRCLE
  5
848
100
AcDbEntity
  8
0
100
AcDbCircle
  6
BYLAYER
 10
-79.9810632725983
 20
-97.3263371195103
 40
22.3
  0
CIRCLE
  5
849
100
AcDbEntity
  8
0
100
AcDbCircle
  6
BYLAYER
 10
-79.9810632725983
 20
-97.3263371195103
 40
28.05
  0
CIRCLE
  5
84A
100
AcDbEntity
  8
0
100
AcDbCircle
  6
BYLAYER
 10
-79.9810632725983
 20
-97.3263371195103
 40
29.45
  0
CIRCLE
  5
84B
100
AcDbEntity
  8
0
100
AcDbCircle
  6
BYLAYER
 10
-79.9810632725983
 20
-97.3263371195103
 40
35.2
  0
CIRCLE
  5
84C
100
AcDbEntity
  8
0
100
AcDbCircle
  6
BYLAYER
 10
-79.9810632725983
 20
-97.3263371195103
 40
36.6
  0
CIRCLE
  5
84D
100
AcDbEntity
  8
0
100
AcDbCircle
  6
BYLAYER
 10
-79.9810632725983
 20
-97.3263371195103
 40
42.35
  0
CIRCLE
  5
84E
100
AcDbEntity
  8
0
100
AcDbCircle
  6
BYLAYER
 10
-79.9810632725983
 20
-97.3263371195103
 40
43.75
  0
CIRCLE
  5
84F
100
AcDbEntity
  8
0
100
AcDbCircle
  6
BYLAYER
 10
-79.9810632725983
 20
-97.3263371195103
 40
49.5
  0
CIRCLE
  5
850
100
AcDbEntity
  8
0
100
AcDbCircle
  6
BYLAYER
 10
-79.9810632725983
 20
-97.3263371195103
 40
50.9
  0
LINE
  5
851
100
AcDbEntity
  8
0
100
AcDbLine
  6
BYLAYER
 10
-65.1321284351415
 20
-26.0360037341702
 11
-70.5481403796075
 21
-47.3080408101107
  0
LINE
  5
852
100
AcDbEntity
  8
0
100
AcDbLine
  6
BYLAYER
 10
-70.8942740323747
 20
-48.6675222828976
 11
-72.3163687415535
 21
-54.2529699682674
  0
LINE
  5
853
100
AcDbEntity
  8
0
100
AcDbLine
  6
BYLAYER
 10
-72.6627568211904
 20
-55.6134507331275
 11
-74.0861952166887
 21
-61.204175907819
  0
LINE
  5
854
100
AcDbEntity
  8
0
100
AcDbLine
  6
BYLAYER
 10
-74.4330058089342
 20
-62.5663161416702
 11
-75.8587943954615
 21
-68.1662719737567
  0
LINE
  5
855
100
AcDbEntity
  8
0
100
AcDbLine
  6
BYLAYER
 10
-76.2063850524996
 20
-69.5314760057232
 11
-77.6368734076592
 21
-75.1498907432958
  0
LINE
  5
856
100
AcDbEntity
  8
0
100
AcDbLine
  6
BYLAYER
 10
-77.9861614599297
 20
-76.521761498801
 11
-79.4284238126106
 21
-82.1864200250456
  0
LINE
  5
857
100
AcDbEntity
  8
0
100
AcDbLine
  6
BYLAYER
 10
-79.7826710175748
 20
-83.5777684480759
 11
-81.2730347067075
 21
-89.4313507475496
  0
LINE
  5
858
100
AcDbEntity
  8
0
100
AcDbLine
  6
BYLAYER
 10
-67.0702942115602
 20
-25.5425329416005
 11
-72.5271720955445
 21
-46.975075900742
  0
LINE
  5
859
100
AcDbEntity
  8
0
100
AcDbLine
  6
BYLAYER
 10
-72.8744702966238
 20
-48.3391312768229
 11
-74.3021402002311
 21
-53.9464762075833
  0
LINE
  5
85A
100
AcDbEntity
  8
0
100
AcDbLine
  6
BYLAYER
 10
-74.6501182988599
 20
-55.3132019629075
 11
-76.0813872256445
 21
-60.9346824892409
  0
LINE
  5
85B
100
AcDbEntity
  8
0
100
AcDbLine
  6
BYLAYER
 10
-76.4304999279043
 20
-62.3058645365294
 11
-77.868105855327
 21
-67.9522343935921
  0
LINE
  5
85C
100
AcDbEntity
  8
0
100
AcDbLine
  6
BYLAYER
 10
-78.2193317282963
 20
-69.3317161725175
 11
-79.6697759233638
 21
-75.0285098669234
  0
LINE
  5
85D
100
AcDbEntity
  8
0
100
AcDbLine
  6
BYLAYER
 10
-80.0256848122669
 20
-76.4263847531005
 11
-81.5093397666317
 21
-82.2536176914248
  0
LINE
  5
85E
100
AcDbEntity
  8
0
100
AcDbLine
  6
BYLAYER
 10
-81.8796473198265
 20
-83.7080450600922
 11
-83.5202729482307
 21
-90.1517991642194
  0
LINE
  5
85F
100
AcDbEntity
  8
0
100
AcDbLine
  6
BYLAYER
 10
-58.9299979506018
 20
-27.6151102703936
 11
-64.3460098950678
 21
-48.8871473463342
  0
LINE
  5
860
100
AcDbEntity
  8
0
100
AcDbLine
  6
BYLAYER
 10
-64.692143547835
 20
-50.246628819121
 11
-66.114238257014
 21
-55.8320765044908
  0
LINE
  5
861
100
AcDbEntity
  8
0
100
AcDbLine
  6
BYLAYER
 10
-66.4606263366508
 20
-57.1925572693508
 11
-67.8840647321491
 21
-62.7832824440423
  0
LINE
  5
862
100
AcDbEntity
  8
0
100
AcDbLine
  6
BYLAYER
 10
-68.2308753243946
 20
-64.1454226778936
 11
-69.656663910922
 21
-69.7453785099801
  0
LINE
  5
863
100
AcDbEntity
  8
0
100
AcDbLine
  6
BYLAYER
 10
-70.00425456796
 20
-71.1105825419465
 11
-71.4347429231197
 21
-76.7289972795191
  0
LINE
  5
864
100
AcDbEntity
  8
0
100
AcDbLine
  6
BYLAYER
 10
-71.7840309753902
 20
-78.1008680350243
 11
-73.226293328071
 21
-83.7655265612689
  0
LINE
  5
865
100
AcDbEntity
  8
0
100
AcDbLine
  6
BYLAYER
 10
-73.5805405330352
 20
-85.1568749842993
 11
-75.0709042221677
 21
-91.0104572837729
  0
LINE
  5
866
100
AcDbEntity
  8
0
100
AcDbLine
  6
BYLAYER
 10
-56.9918321741831
 20
-28.1085810629634
 11
-62.4487100581674
 21
-49.541124022105
  0
LINE
  5
867
100
AcDbEntity
  8
0
100
AcDbLine
  6
BYLAYER
 10
-62.7960082592467
 20
-50.9051793981858
 11
-64.223678162854
 21
-56.5125243289463
  0
LINE
  5
868
100
AcDbEntity
  8
0
100
AcDbLine
  6
BYLAYER
 10
-64.5716562614827
 20
-57.8792500842705
 11
-66.0029251882674
 21
-63.5007306106038
  0
LINE
  5
869
100
AcDbEntity
  8
0
100
AcDbLine
  6
BYLAYER
 10
-66.3520378905272
 20
-64.8719126578924
 11
-67.7896438179497
 21
-70.5182825149551
  0
LINE
  5
86A
100
AcDbEntity
  8
0
100
AcDbLine
  6
BYLAYER
 10
-68.140869690919
 20
-71.8977642938805
 11
-69.5913138859866
 21
-77.5945579882865
  0
LINE
  5
86B
100
AcDbEntity
  8
0
100
AcDbLine
  6
BYLAYER
 10
-69.9472227748898
 20
-78.9924328744636
 11
-71.4308777292545
 21
-84.8196658127878
  0
LINE
  5
86C
100
AcDbEntity
  8
0
100
AcDbLine
  6
BYLAYER
 10
-71.8011852824493
 20
-86.2740931814551
 11
-73.4418109108537
 21
-92.7178472855823
  0
ARC
  5
86D
100
AcDbEntity
  8
0
100
AcDbCircle
  6
BYLAYER
 10
-62.0310631928717
 20
-26.8255570022819
 40
5.19999999999999
100
AcDbArc
 50
345.715586522848
 51
165.715586522847
  0
ARC
  5
86E
100
AcDbEntity
  8
0
100
AcDbCircle
  6
BYLAYER
 10
-62.0310631928717
 20
-26.8255570022819
 40
3.19999999999999
100
AcDbArc
 50
345.715586522848
 51
165.715586522847
  0
LINE
  5
86F
100
AcDbEntity
  8
0
100
AcDbLine
  6
BYLAYER
 10
-149.144770447293
 20
-120.111949023803
 11
-128.014639977051
 21
-114.16633441694
  0
LINE
  5
870
100
AcDbEntity
  8
0
100
AcDbLine
  6
BYLAYER
 10
-126.66422765926
 20
-113.786354216948
 11
-121.116040717631
 21
-112.225200518999
  0
LINE
  5
871
100
AcDbEntity
  8
0
100
AcDbLine
  6
BYLAYER
 10
-119.764635774084
 20
-111.844941013103
 11
-114.211206549475
 21
-110.282312236981
  0
LINE
  5
872
100
AcDbEntity
  8
0
100
AcDbLine
  6
BYLAYER
 10
-112.85815320732
 20
-109.901588903241
 11
-107.295554903398
 21
-108.336380123557
  0
LINE
  5
873
100
AcDbEntity
  8
0
100
AcDbLine
  6
BYLAYER
 10
-105.939458201848
 20
-107.954800446687
 11
-100.358524132533
 21
-106.384432333286
  0
LINE
  5
874
100
AcDbEntity
  8
0
100
AcDbLine
  6
BYLAYER
 10
-98.9958051814213
 20
-106.000989282038
 11
-93.3689358175888
 21
-104.41769585526
  0
LINE
  5
875
100
AcDbEntity
  8
0
100
AcDbLine
  6
BYLAYER
 10
-91.986869135247
 20
-104.028808722463
 11
-86.1723363161935
 21
-102.392710388393
  0
LINE
  5
876
100
AcDbEntity
  8
0
100
AcDbLine
  6
BYLAYER
 10
-148.603045801475
 20
-122.037185219212
 11
-127.313480189165
 21
-116.046708612521
  0
LINE
  5
877
100
AcDbEntity
  8
0
100
AcDbLine
  6
BYLAYER
 10
-125.95852448077
 20
-115.665449989304
 11
-120.388586371146
 21
-114.098175928666
  0
LINE
  5
878
100
AcDbEntity
  8
0
100
AcDbLine
  6
BYLAYER
 10
-119.030978097714
 20
-113.716170924377
 11
-113.446998691638
 21
-112.144945911454
  0
LINE
  5
879
100
AcDbEntity
  8
0
100
AcDbLine
  6
BYLAYER
 10
-112.084963854343
 20
-111.76169535675
 11
-106.476261155253
 21
-110.183513681998
  0
LINE
  5
87A
100
AcDbEntity
  8
0
100
AcDbLine
  6
BYLAYER
 10
-105.105981954161
 20
-109.797943320993
 11
-99.4471917971527
 21
-108.20566799349
  0
LINE
  5
87B
100
AcDbEntity
  8
0
100
AcDbLine
  6
BYLAYER
 10
-98.0586421899595
 20
-107.814956689624
 11
-92.2702829544188
 21
-106.186223101393
  0
LINE
  5
87C
100
AcDbEntity
  8
0
100
AcDbLine
  6
BYLAYER
 10
-90.8255581285962
 20
-105.779705165339
 11
-84.4247905644797
 21
-103.978651585573
  0
LINE
  5
87D
100
AcDbEntity
  8
0
100
AcDbLine
  6
BYLAYER
 10
-150.878289313911
 20
-113.951193198494
 11
-129.74815884367
 21
-108.005578591631
  0
LINE
  5
87E
100
AcDbEntity
  8
0
100
AcDbLine
  6
BYLAYER
 10
-128.397746525878
 20
-107.625598391639
 11
-122.849559584249
 21
-106.064444693691
  0
LINE
  5
87F
100
AcDbEntity
  8
0
100
AcDbLine
  6
BYLAYER
 10
-121.498154640702
 20
-105.684185187794
 11
-115.944725416093
 21
-104.121556411672
  0
LINE
  5
880
100
AcDbEntity
  8
0
100
AcDbLine
  6
BYLAYER
 10
-114.591672073938
 20
-103.740833077933
 11
-109.029073770017
 21
-102.175624298248
  0
LINE
  5
881
100
AcDbEntity
  8
0
100
AcDbLine
  6
BYLAYER
 10
-107.672977068466
 20
-101.794044621378
 11
-102.092042999151
 21
-100.223676507978
  0
LINE
  5
882
100
AcDbEntity
  8
0
100
AcDbLine
  6
BYLAYER
 10
-100.72932404804
 20
-99.8402334567296
 11
-95.1024546842072
 21
-98.2569400299508
  0
LINE
  5
883
100
AcDbEntity
  8
0
100
AcDbLine
  6
BYLAYER
 10
-93.7203880018654
 20
-97.8680528971543
 11
-87.905855182812
 21
-96.2319545630842
  0
LINE
  5
884
100
AcDbEntity
  8
0
100
AcDbLine
  6
BYLAYER
 10
-151.42001395973
 20
-112.025957003085
 11
-130.13044834742
 21
-106.035480396394
  0
LINE
  5
885
100
AcDbEntity
  8
0
100
AcDbLine
  6
BYLAYER
 10
-128.775492639025
 20
-105.654221773177
 11
-123.205554529401
 21
-104.086947712539
  0
LINE
  5
886
100
AcDbEntity
  8
0
100
AcDbLine
  6
BYLAYER
 10
-121.84794625597
 20
-103.70494270825
 11
-116.263966849893
 21
-102.133717695326
  0
LINE
  5
887
100
AcDbEntity
  8
0
100
AcDbLine
  6
BYLAYER
 10
-114.901932012598
 20
-101.750467140623
 11
-109.293229313508
 21
-100.17228546587
  0
LINE
  5
888
100
AcDbEntity
  8
0
100
AcDbLine
  6
BYLAYER
 10
-107.922950112416
 20
-99.7867151048655
 11
-102.264159955408
 21
-98.1944397773628
  0
LINE
  5
889
100
AcDbEntity
  8
0
100
AcDbLine
  6
BYLAYER
 10
-100.875610348214
 20
-97.803728473497
 11
-95.0872511126737
 21
-96.1749948852654
  0
LINE
  5
88A
100
AcDbEntity
  8
0
100
AcDbLine
  6
BYLAYER
 10
-93.6425262868511
 20
-95.7684769492118
 11
-87.2417587227345
 21
-93.9674233694461
  0
ARC
  5
88B
100
AcDbEntity
  8
0
100
AcDbCircle
  6
BYLAYER
 10
-150.011529880602
 20
-117.031571111149
 40
5.19999999999999
100
AcDbArc
 50
105.715586522845
 51
285.715586522845
  0
ARC
  5
88C
100
AcDbEntity
  8
0
100
AcDbCircle
  6
BYLAYER
 10
-150.011529880602
 20
-117.031571111149
 40
3.19999999999999
100
AcDbArc
 50
105.715586522845
 51
285.715586522845
  0
LINE
  5
88D
100
AcDbEntity
  8
0
100
AcDbLine
  6
BYLAYER
 10
-25.6662909353603
 20
-145.831058600558
 11
-41.3804094611362
 21
-130.50463613148
  0
LINE
  5
88E
100
AcDbEntity
  8
0
100
AcDbLine
  6
BYLAYER
 10
-42.3846881261603
 20
-129.525134858685
 11
-46.5107803586101
 21
-125.500840871264
  0
LINE
  5
88F
100
AcDbEntity
  8
0
100
AcDbLine
  6
BYLAYER
 10
-47.5157972225206
 20
-124.520619612301
 11
-51.6457880516314
 21
-120.492523213731
  0
LINE
  5
890
100
AcDbEntity
  8
0
100
AcDbLine
  6
BYLAYER
 10
-52.6520308015407
 20
-119.511106313619
 11
-56.7888405189349
 21
-115.476359261217
  0
LINE
  5
891
100
AcDbEntity
  8
0
100
AcDbLine
  6
BYLAYER
 10
-57.7973465634478
 20
-114.492734906121
 11
-61.9477922776027
 21
-110.444688281949
  0
LINE
  5
892
100
AcDbEntity
  8
0
100
AcDbLine
  6
BYLAYER
 10
-62.9612231764438
 20
-109.456260577692
 11
-67.1458301875953
 21
-105.374895478226
  0
LINE
  5
893
100
AcDbEntity
  8
0
100
AcDbLine
  6
BYLAYER
 10
-68.1736496649729
 20
-104.372434187992
 11
-72.4978187948937
 21
-100.154950222588
  0
LINE
  5
894
100
AcDbEntity
  8
0
100
AcDbLine
  6
BYLAYER
 10
-24.2698498047599
 20
-144.399293197718
 11
-40.1025375330857
 21
-128.957226845268
  0
LINE
  5
895
100
AcDbEntity
  8
0
100
AcDbLine
  6
BYLAYER
 10
-41.1101950404008
 20
-127.974430092404
 11
-45.2524632464174
 21
-123.934359222281
  0
LINE
  5
896
100
AcDbEntity
  8
0
100
AcDbLine
  6
BYLAYER
 10
-46.2620934212203
 20
-122.949638471246
 11
-50.4148039005122
 21
-118.899382957837
  0
LINE
  5
897
100
AcDbEntity
  8
0
100
AcDbLine
  6
BYLAYER
 10
-51.4277260355474
 20
-117.911451465252
 11
-55.5988228072151
 21
-113.843263282941
  0
LINE
  5
898
100
AcDbEntity
  8
0
100
AcDbLine
  6
BYLAYER
 10
-56.6178761353375
 20
-112.849351865021
 11
-60.8262220972783
 21
-108.744833498118
  0
LINE
  5
899
100
AcDbEntity
  8
0
100
AcDbLine
  6
BYLAYER
 10
-61.8588628155684
 20
-107.737669915806
 11
-66.1635670967443
 21
-103.539170565714
  0
LINE
  5
89A
100
AcDbEntity
  8
0
100
AcDbLine
  6
BYLAYER
 10
-67.2379843693722
 20
-102.4912611331
 11
-71.9981263050845
 21
-97.8485606087385
  0
LINE
  5
89B
100
AcDbEntity
  8
0
100
AcDbLine
  6
BYLAYER
 10
-30.1349025532816
 20
-150.412707889643
 11
-45.8490210790576
 21
-135.086285420566
  0
LINE
  5
89C
100
AcDbEntity
  8
0
100
AcDbLine
  6
BYLAYER
 10
-46.8532997440817
 20
-134.106784147771
 11
-50.9793919765314
 21
-130.08249016035
  0
LINE
  5
89D
100
AcDbEntity
  8
0
100
AcDbLine
  6
BYLAYER
 10
-51.9844088404419
 20
-129.102268901386
 11
-56.1143996695528
 21
-125.074172502817
  0
LINE
  5
89E
100
AcDbEntity
  8
0
100
AcDbLine
  6
BYLAYER
 10
-57.1206424194621
 20
-124.092755602705
 11
-61.2574521368561
 21
-120.058008550303
  0
LINE
  5
89F
100
AcDbEntity
  8
0
100
AcDbLine
  6
BYLAYER
 10
-62.265958181369
 20
-119.074384195207
 11
-66.4164038955238
 21
-115.026337571034
  0
LINE
  5
8A0
100
AcDbEntity
  8
0
100
AcDbLine
  6
BYLAYER
 10
-67.429834794365
 20
-114.037909866777
 11
-71.6144418055167
 21
-109.956544767311
  0
LINE
  5
8A1
100
AcDbEntity
  8
0
100
AcDbLine
  6
BYLAYER
 10
-72.6422612828942
 20
-108.954083477078
 11
-76.966430412815
 21
-104.736599511674
  0
LINE
  5
8A2
100
AcDbEntity
  8
0
100
AcDbLine
  6
BYLAYER
 10
-31.531343683882
 20
-151.844473292483
 11
-47.3640314122078
 21
-136.402406940032
  0
LINE
  5
8A3
100
AcDbEntity
  8
0
100
AcDbLine
  6
BYLAYER
 10
-48.371688919523
 20
-135.419610187168
 11
-52.5139571255397
 21
-131.379539317046
  0
LINE
  5
8A4
100
AcDbEntity
  8
0
100
AcDbLine
  6
BYLAYER
 10
-53.5235873003426
 20
-130.394818566011
 11
-57.6762977796344
 21
-126.344563052601
  0
LINE
  5
8A5
100
AcDbEntity
  8
0
100
AcDbLine
  6
BYLAYER
 10
-58.6892199146696
 20
-125.356631560016
 11
-62.8603166863374
 21
-121.288443377706
  0
LINE
  5
8A6
100
AcDbEntity
  8
0
100
AcDbLine
  6
BYLAYER
 10
-63.8793700144598
 20
-120.294531959785
 11
-68.0877159764006
 21
-116.190013592882
  0
LINE
  5
8A7
100
AcDbEntity
  8
0
100
AcDbLine
  6
BYLAYER
 10
-69.1203566946907
 20
-115.18285001057
 11
-73.4250609758665
 21
-110.984350660478
  0
LINE
  5
8A8
100
AcDbEntity
  8
0
100
AcDbLine
  6
BYLAYER
 10
-74.4994782484944
 20
-109.936441227864
 11
-79.2596201842066
 21
-105.293740703503
  0
ARC
  5
8A9
100
AcDbEntity
  8
0
100
AcDbCircle
  6
BYLAYER
 10
-27.9005967443209
 20
-148.121883245101
 40
5.19999999999999
100
AcDbArc
 50
225.71558652285
 51
45.7155865228498
  0
ARC
  5
8AA
100
AcDbEntity
  8
0
100
AcDbCircle
  6
BYLAYER
 10
-27.9005967443209
 20
-148.121883245101
 40
3.19999999999999
100
AcDbArc
 50
225.71558652285
 51
45.7155865228498
  0
ARC
  5
8AB
100
AcDbEntity
  8
0
100
AcDbCircle
  6
BYLAYER
 10
-79.9810632725983
 20
-97.3263371195103
 40
54
100
AcDbArc
 50
72.3182907304338
 51
79.1128823152564
  0
ARC
  5
8AC
100
AcDbEntity
  8
0
100
AcDbCircle
  6
BYLAYER
 10
-79.9810632725983
 20
-97.3263371195103
 40
54
100
AcDbArc
 50
312.318290730434
 51
319.112882315256
  0
ARC
  5
8AD
100
AcDbEntity
  8
0
100
AcDbCircle
  6
BYLAYER
 10
-79.9810632725983
 20
-97.3263371195103
 40
54
100
AcDbArc
 50
321.241520739126
 51
70.1896523065647
  0
ARC
  5
8AE
100
AcDbEntity
  8
0
100
AcDbCircle
  6
BYLAYER
 10
-79.9810632725983
 20
-97.3263371195103
 40
54
100
AcDbArc
 50
201.241520739126
 51
310.189652306564
  0
ARC
  5
8AF
100
AcDbEntity
  8
0
100
AcDbCircle
  6
BYLAYER
 10
-79.9810632725983
 20
-97.3263371195103
 40
54
100
AcDbArc
 50
192.318290730434
 51
199.112882315257
  0
LINE
  5
8B0
100
AcDbEntity
  8
0
100
AcDbLine
  6
BYLAYER
 10
114.890963355328
 20
-54.8263371195103
 11
114.890963355328
 21
-97.3263381577551
  0
LINE
  5
8B1
100
AcDbEntity
  8
0
100
AcDbLine
  6
BYLAYER
 10
112.890963355328
 20
-54.8263371195103
 11
112.890963355327
 21
-167.612035740545
  0
LINE
  5
8B2
100
AcDbEntity
  8
0
100
AcDbLine
  6
BYLAYER
 10
111.490963355328
 20
-54.8263371195103
 11
111.490963355327
 21
-147.526338157755
  0
ARC
  5
8B3
100
AcDbEntity
  8
ｾﾉｪO
100
AcDbCircle
  6
BYLAYER
 10
126.890963355328
 20
-31.5694798803584
 40
11
100
AcDbArc
 50
207.580199203583
 51
222.679455818578
  0
LINE
  5
8B4
100
AcDbEntity
  8
0
100
AcDbLine
  6
BYLAYER
 10
114.890963355328
 20
-182.326338157755
 11
114.890963355328
 21
-159.076338157755
  0
LINE
  5
8B5
100
AcDbEntity
  8
0
100
AcDbLine
  6
BYLAYER
 10
114.890963355328
 20
-182.326338157755
 11
114.890963355328
 21
-97.3263381577551
  0
LINE
  5
8B6
100
AcDbEntity
  8
0
100
AcDbLine
  6
BYLAYER
 10
114.890963355328
 20
-182.326338157755
 11
115.890963355328
 21
-182.326338157755
  0
ARC
  5
8B7
100
AcDbEntity
  8
0
100
AcDbCircle
  6
BYLAYER
 10
113.890963355327
 20
-167.612035740545
 40
1
100
AcDbArc
 50
180
 51
0
  0
LINE
  5
8B8
100
AcDbEntity
  8
0
100
AcDbLine
  6
BYLAYER
 10
112.890963355328
 20
-97.3263381577551
 11
114.890963355328
 21
-97.3263381577551
  0
ARC
  5
8B9
100
AcDbEntity
  8
0
100
AcDbCircle
  6
BYLAYER
 10
112.190963355328
 20
-147.526338157755
 40
0.699999999999932
100
AcDbArc
 50
180
 51
0
  0
LINE
  5
8BA
100
AcDbEntity
  8
BASE
100
AcDbLine
  6
BYLAYER
 10
-3.48106327259848
 20
25.1736628804897
 11
-3.48106327259848
 21
-54.8263371195103
  0
LINE
  5
8BB
100
AcDbEntity
  8
BASE
100
AcDbLine
  6
BYLAYER
 10
-2.68106327259846
 20
-53.4230902450089
 11
-2.68106327259846
 21
-54.8263371195103
  0
LINE
  5
8BC
100
AcDbEntity
  8
BASE
100
AcDbLine
  6
BYLAYER
 10
23.5189367274015
 20
22.9736628804897
 11
23.5189367274015
 21
-52.6263371195103
  0
ARC
  5
8BD
100
AcDbEntity
  8
BASE
100
AcDbCircle
  6
BYLAYER
370
0
 10
-0.644963272598471
 20
-55.6263371195103
 40
2.99999999999999
100
AcDbArc
 50
90.0000000000003
 51
-227.257860208295
  0
LINE
  5
8BE
100
AcDbEntity
  8
BASE
100
AcDbLine
  6
BYLAYER
370
0
 10
-0.644963272598488
 20
-52.6263371195103
 11
23.5189367274015
 21
-52.6263371195103
  0
LINE
  5
8BF
100
AcDbEntity
  8
BASE
100
AcDbLine
  6
BYLAYER
 10
-3.48106327259848
 20
-54.8263371195103
 11
-2.68106327259846
 21
-54.8263371195103
  0
LINE
  5
8C0
100
AcDbEntity
  8
BASE
100
AcDbLine
  6
BYLAYER
 10
-2.68106327259846
 20
-53.4230902450089
 11
-2.68106327259846
 21
25.1736628804897
  0
ARC
  5
8C1
100
AcDbEntity
  8
BASE
100
AcDbCircle
  6
BYLAYER
370
0
 10
-0.644963272598458
 20
25.9736628804897
 40
2.99999999999999
100
AcDbArc
 50
-132.742139791705
 51
-90.0000000000006
  0
LINE
  5
8C2
100
AcDbEntity
  8
BASE
100
AcDbLine
  6
BYLAYER
370
0
 10
-0.644963272598488
 20
22.9736628804897
 11
23.5189367274015
 21
22.9736628804897
  0
LINE
  5
8C3
100
AcDbEntity
  8
BASE
100
AcDbLine
  6
BYLAYER
 10
-3.48106327259848
 20
25.1736628804897
 11
-2.68106327259846
 21
25.1736628804897
  0
LINE
  5
8C4
100
AcDbEntity
  8
0
100
AcDbLine
  6
BYLAYER
 10
-0.644963272598488
 20
22.9736628804897
 11
-0.644963272598473
 21
-52.6263371195103
  0
LINE
  5
8C5
100
AcDbEntity
  8
HATCH
100
AcDbLine
  6
BYLAYER
 62
0
370
  -2
 10
26.0189367274015
 20
22.9736628804897
 11
37.4353354447708
 21
22.9736628804897
  0
LINE
  5
8C6
100
AcDbEntity
  8
HATCH
100
AcDbLine
  6
BYLAYER
 62
0
370
  -2
 10
26.0189367274015
 20
-52.6263371195103
 11
37.4353354447708
 21
-52.6263371195103
  0
LINE
  5
8C7
100
AcDbEntity
  8
HATCH
100
AcDbLine
  6
BYLAYER
 62
0
370
  -2
 10
34.9353354447708
 20
12.9736628804897
 11
34.9353354447708
 21
5.17366288048968
  0
LINE
  5
8C8
100
AcDbEntity
  8
HATCH
100
AcDbLine
  6
BYLAYER
 62
0
370
  -2
 10
34.9353354447708
 20
-42.6263371195103
 11
34.9353354447708
 21
-34.8263371195103
  0
SOLID
  5
8C9
100
AcDbEntity
  8
HATCH
100
AcDbTrace
 10
33.2686687781041
 20
12.9736628804897
 30
0.0
 11
36.6020021114374
 21
12.9736628804897
 31
0.0
 12
34.9353354447708
 22
22.9736628804897
 32
0.0
 13
34.9353354447708
 23
22.9736628804897
 33
0.0
  0
SOLID
  5
8CA
100
AcDbEntity
  8
HATCH
100
AcDbTrace
 10
34.9353354447708
 20
-52.6263371195103
 30
0.0
 11
36.6020021114374
 21
-42.6263371195103
 31
0.0
 12
33.2686687781041
 22
-42.6263371195103
 32
0.0
 13
33.2686687781041
 23
-42.6263371195103
 33
0.0
  0
TEXT
  5
8CB
100
AcDbEntity
  8
HATCH
 62
0
100
AcDbText
  6
BYLAYER
 62
0
 10
40.5603354447708
 20
-26.0763371195103
 40
11.25
  1
Φ76
  7
Font_0
 50
90
 72
1
 11
34.9353354447708
 21
-14.8263371195103
100
AcDbText
 73
2
  0
LWPOLYLINE
  5
8CC
100
AcDbEntity
  8
0
100
AcDbPolyline
  6
BYLAYER
 90
     100
 10
-144.221758580899
  20
-15.6739519501786
 10
-145.357694584701
  20
-16.7480387799707
 10
-146.597264641537
  20
-17.9686487696552
 10
-147.930738484795
  20
-19.333616445871
 10
-149.348385847858
  20
-20.8407763352568
 10
-150.840476464115
  20
-22.4879629644515
 10
-152.39728006695
  20
-24.2730108600939
 10
-154.00906638975
  20
-26.1937545488228
 10
-155.666105165902
  20
-28.2480285572771
 10
-157.358666128791
  20
-30.4336674120957
 10
-159.076189577473
  20
-32.7494871659575
 10
-160.804798073685
  20
-35.1982299757032
 10
-162.529784744833
  20
-37.7836195242135
 10
-164.236442718323
  20
-40.5093794943693
 10
-165.910065121561
  20
-43.3792335690512
 10
-167.535945081955
  20
-46.3969054311401
 10
-169.099375726909
  20
-49.5661187635169
 10
-170.585650183831
  20
-52.8905972490622
 10
-171.980061580127
  20
-56.3740645706569
 10
-173.268344654939
  20
-60.0169991334621
 10
-174.438000594358
  20
-63.8068982317605
 10
-175.476972196211
  20
-67.7280138821149
 10
-176.373202258326
  20
-71.7645981010883
 10
-177.114633578528
  20
-75.9009029052436
 10
-177.689208954646
  20
-80.1211803111438
 10
-178.084871184505
  20
-84.4096823353517
 10
-178.289563065935
  20
-88.7506609944305
 10
-178.29122739676
  20
-93.1283683049428
 10
-178.081069907092
  20
-97.5267130966786
 10
-177.663348056174
  20
-101.928231452335
 10
-177.045582235532
  20
-106.315116267834
 10
-176.235292836693
  20
-110.669560439102
 10
-175.240000251183
  20
-114.97375686206
 10
-174.067224870528
  20
-119.209898432633
 10
-172.724487086254
  20
-123.360178046744
 10
-171.219307289889
  20
-127.406788600317
 10
-169.559205872958
  20
-131.331922989275
 10
-167.751256217994
  20
-135.120875926378
 10
-165.800743671549
  20
-138.771349391723
 10
-163.712506571181
  20
-142.284147182247
 10
-161.491383254449
  20
-145.660073094881
 10
-159.142212058911
  20
-148.899930926562
 10
-156.669831322126
  20
-152.004524474223
 10
-154.079079381651
  20
-154.974657534798
 10
-151.374794575045
  20
-157.811133905221
 10
-148.561815239867
  20
-160.514757382428
 10
-145.645925215481
  20
-163.085723431049
 10
-142.636690348484
  20
-165.521794186514
 10
-139.544621987276
  20
-167.820123451949
 10
-136.380231480261
  20
-169.977865030479
 10
-133.15403017584
  20
-171.992172725231
 10
-129.876529422416
  20
-173.860200339332
 10
-126.55824056839
  20
-175.579101675907
 10
-123.209674962166
  20
-177.146030538083
 10
-119.841343952144
  20
-178.558140728986
 10
-116.462700443225
  20
-179.813822459589
 10
-113.078963566292
  20
-180.916411572252
 10
-109.694294008726
  20
-181.870480317182
 10
-106.312852457907
  20
-182.680600944584
 10
-102.938799601217
  20
-183.351345704665
 10
-99.5762961260371
  20
-183.887286847632
 10
-96.229502719747
  20
-184.292996623691
 10
-92.902580069728
  20
-184.573047283049
 10
-89.5996888633608
  20
-184.732011075911
 10
-86.3255559441311
  20
-184.774596207983
 10
-83.0871727799433
  20
-184.706054706959
 10
-79.8920969948068
  20
-184.531774556033
 10
-76.7478862127306
  20
-184.257143738399
 10
-73.6620980577243
  20
-183.887550237249
 10
-70.642290153797
  20
-183.428382035778
 10
-67.6960201249578
  20
-182.885027117178
 10
-64.8308455952163
  20
-182.262873464643
 10
-62.0543241885816
  20
-181.567309061366
 10
-59.3722498204268
  20
-180.803658848007
 10
-56.7833615715807
  20
-179.976995595093
 10
-54.284634814236
  20
-179.092329030617
 10
-51.8730449205852
  20
-178.154668882571
 10
-49.5455672628211
  20
-177.169024878948
 10
-47.2991772131363
  20
-176.140406747741
 10
-45.1308501437233
  20
-175.073824216944
 10
-43.037561426775
  20
-173.974287014549
 10
-41.0162864344838
  20
-172.846804868548
 10
-39.0644614768505
  20
-171.696098144456
 10
-37.1813666151073
  20
-170.525729757868
 10
-35.3667428482948
  20
-169.338973261901
 10
-33.6203311754532
  20
-168.139102209671
 10
-31.941872595623
  20
-166.929390154293
 10
-30.3311081078446
  20
-165.713110648885
 10
-28.7877787111583
  20
-164.493537246563
 10
-27.3116254046046
  20
-163.273943500442
 10
-25.9023891872237
  20
-162.05760296364
 10
-24.5589225653712
  20
-160.847138263214
 10
-23.2765240746628
  20
-159.642568321987
 10
-22.0496037580294
  20
-158.443261136725
 10
-20.8725716584017
  20
-157.248584704192
 10
-19.7398378187108
  20
-156.057907021153
 10
-18.6458122818874
  20
-154.870596084374
 10
-17.5849050908623
  20
-153.68601989062
 10
-16.5515262885664
  20
-152.503546436654
 10
-15.5400859179306
  20
-151.322543719243
  0
LWPOLYLINE
  5
8CD
100
AcDbEntity
  8
0
100
AcDbPolyline
  6
BYLAYER
 90
     37
 10
-144.221758580899
  20
-15.6739519501786
 10
-142.930588475691
  20
-14.5816516460453
 10
-141.654846237276
  20
-13.5148665020426
 10
-140.387329435875
  20
-12.4690520579387
 10
-139.120835641713
  20
-11.4396638535019
 10
-137.848162425014
  20
-10.4221574285004
 10
-136.562107356001
  20
-9.41198832270245
 10
-135.255468004896
  20
-8.40461207587635
 10
-133.921041941925
  20
-7.39548422779033
 10
-132.55162673731
  20
-6.38006031821263
 10
-131.140645769595
  20
-5.35537808903527
 10
-129.684025650604
  20
-4.32480409064533
 10
-128.178318800478
  20
-3.29328707555364
 10
-126.620077639362
  20
-2.26577579627107
 10
-125.005854587398
  20
-1.24721900530844
 10
-123.332202064729
  20
-0.242565455176596
 10
-121.5956724915
  20
0.74323610161361
 10
-119.792818287851
  20
1.70523691255134
 10
-117.920191873928
  20
2.63848822512575
 10
-115.975833342766
  20
3.53832338384655
 10
-113.963733478975
  20
4.40120412130568
 10
-111.889370740059
  20
5.22387426711563
 10
-109.758223583519
  20
6.00307765088891
 10
-107.575770466861
  20
6.73555810223799
 10
-105.347489847587
  20
7.41805945077539
 10
-103.0788601832
  20
8.04732552611358
 10
-100.775359931203
  20
8.62010015786507
 10
-98.4424675491005
  20
9.13312717564235
 10
-96.0897126981382
  20
9.58404094854712
 10
-93.7428298545385
  20
9.97403800363789
 10
-91.4316046982668
  20
10.3052054074624
 10
-89.1858229092887
  20
10.5796302265683
 10
-87.0352701675698
  20
10.7993995275034
 10
-85.0097321530756
  20
10.9666003768154
 10
-83.1389945457718
  20
11.083319841052
 10
-81.4528430256238
  20
11.1516449867609
 10
-79.9810632725974
  20
11.1736628804898
  0
LINE
  5
8CE
100
AcDbEntity
  8
HATCH
100
AcDbLine
  6
BYLAYER
 62
0
370
  -2
 10
-128.023482099974
 20
10.9906086219442
 11
-118.023482099974
 21
10.9906086219442
  0
LINE
  5
8CF
100
AcDbEntity
  8
HATCH
100
AcDbLine
  6
BYLAYER
 62
0
370
  -2
 10
-118.023482099974
 20
10.9906086219442
 11
-101.188779871979
 21
-36.9422932284264
  0
TEXT
  5
8D0
100
AcDbEntity
  8
HATCH
 62
0
100
AcDbText
  6
BYLAYER
 62
0
 10
-164.898470024445
 20
5.3655784332152
 40
11.25
  1
φ108
  7
Font_0
 50
0.000123000000002786
 72
1
 11
-150.835982099974
 21
10.9906086219442
100
AcDbText
 73
2
  0
SOLID
  5
8D1
100
AcDbEntity
  8
HATCH
100
AcDbTrace
 10
-99.6162787289821
 20
-36.3900089419842
 30
0.0
 11
-102.761281014976
 21
-37.4945775148686
 31
0.0
 12
-97.8750741533259
 22
-46.3773000864082
 32
0.0
 13
-97.8750741533259
 23
-46.3773000864082
 33
0.0
  0
LINE
  5
8D2
100
AcDbEntity
  8
HATCH
100
AcDbLine
  6
BYLAYER
 62
0
370
  -2
 10
-80.2060632725983
 20
-97.3263371195103
 11
-79.7560632725983
 21
-97.3263371195103
  0
LINE
  5
8D3
100
AcDbEntity
  8
HATCH
100
AcDbLine
  6
BYLAYER
 62
0
370
  -2
 10
-79.9810632725983
 20
-97.5513371195103
 11
-79.9810632725983
 21
-97.1013371195103
  0
ENDSEC
  0
SECTION
  2
OBJECTS
  0
DICTIONARY
  5
8D4
100
AcDbDictionary
  3
ACAD_GROUP
350
8D5
  3
ACAD_MLINESTYLE
350
8D6
  0
DICTIONARY
  5
8D5
102
{ACAD_REACTORS
330
8D4
102
}
100
AcDbDictionary
  0
DICTIONARY
  5
8D6
102
{ACAD_REACTORS
330
8D4
102
}
100
AcDbDictionary
  3
STANDARD
350
8D7
  0
MLINESTYLE
  5
8D7
102
{ACAD_REACTORS
330
8D6
102
}
100
AcDbMlineStyle
  2
Standard
 70
     0
  3

 62
     0
 51
90.0
 52
90.0
 71
     2
 49
0.5
 62
   256
  6
ByLayer
 49
-0.5
 62
   256
  6
ByLayer
  0
ENDSEC
  0
EOF
