999
Outputted By AR_CAD Ver.1.6.0
  0
SECTION
  2
HEADER
  9
$ACADVER
  1
AC1014
  9
$DWGCODEPAGE
  3
ANSI_932
  9
$EXTMIN
 10
0
 20
0
  9
$EXTMAX
 10
594
 20
420
  9
$INSBASE
 10
0.0
 20
0.0
 30
0.0
  9
$HANDLING
 70
     1
  9
$HANDSEED
  5
8DB
  9
$LTSCALE
 40
1
  0
ENDSEC
  0
SECTION
  2
TABLES
  0
TABLE
  2
VPORT
  5
1
100
AcDbSymbolTable
 70
     1
  0
VPORT
  5
30
100
AcDbSymbolTableRecord
100
AcDbViewportTableRecord
  2
*ACTIVE
 70
     0
 10
0.0
 20
0.0
 11
1.0
 21
1.0
 12
210.0
 22
148.5
 13
0.0
 23
0.0
 14
10.0
 24
10.0
 15
10.0
 25
10.0
 16
0.0
 26
0.0
 36
1.0
 17
0.0
 27
0.0
 37
0.0
 40
302.94
 41
1.333333
 42
50.0
 43
0.0
 44
0.0
 50
0.0
 51
0.0
 71
     0
 72
   100
 73
     1
 74
     1
 75
     0
 76
     0
 77
     0
 78
     0
  0
ENDTAB
  0
TABLE
  2
LTYPE
  5
2
100
AcDbSymbolTable
 70
     28
  0
LTYPE
  5
31
100
AcDbSymbolTableRecord
100
AcDbLinetypeTableRecord
  2
BYBLOCK
 70
    64
 3

 72
    65
 73
    0
 40
    0
  0
LTYPE
  5
32
100
AcDbSymbolTableRecord
100
AcDbLinetypeTableRecord
  2
BYLAYER
 70
    64
 3

 72
    65
 73
    0
 40
    0
  0
LTYPE
  5
33
100
AcDbSymbolTableRecord
100
AcDbLinetypeTableRecord
  2
CONTINUOUS
 70
    64
 3
CONTINUOUS
 72
    65
 73
    0
 40
    0
  0
LTYPE
  5
34
100
AcDbSymbolTableRecord
100
AcDbLinetypeTableRecord
  2
DASHED
 70
    64
 3

 72
    65
 73
    2
 40
    3.5
 49
    2.91666666666667
 74
    0
 49
    -0.583333333333333
 74
    0
  0
LTYPE
  5
35
100
AcDbSymbolTableRecord
100
AcDbLinetypeTableRecord
  2
DOT
 70
    64
 3

 72
    65
 73
    2
 40
    0.5
 49
    0.25
 74
    0
 49
    -0.25
 74
    0
  0
LTYPE
  5
36
100
AcDbSymbolTableRecord
100
AcDbLinetypeTableRecord
  2
DASHDOT
 70
    64
 3

 72
    65
 73
    4
 40
    3.5
 49
    1.84210526315789
 74
    0
 49
    -0.552631578947368
 74
    0
 49
    0.552631578947368
 74
    0
 49
    -0.552631578947368
 74
    0
  0
LTYPE
  5
37
100
AcDbSymbolTableRecord
100
AcDbLinetypeTableRecord
  2
DIVIDE
 70
    64
 3

 72
    65
 73
    6
 40
    3.5
 49
    1.4
 74
    0
 49
    -0.42
 74
    0
 49
    0.42
 74
    0
 49
    -0.42
 74
    0
 49
    0.42
 74
    0
 49
    -0.42
 74
    0
  0
LTYPE
  5
38
100
AcDbSymbolTableRecord
100
AcDbLinetypeTableRecord
  2
HIDDEN
 70
    64
 3

 72
    65
 73
    2
 40
    9.525
 49
    6.35
 74
    0
 49
    -3.175
 74
    0
  0
LTYPE
  5
39
100
AcDbSymbolTableRecord
100
AcDbLinetypeTableRecord
  2
CENTERX2
 70
    64
 3

 72
    65
 73
    4
 40
    4
 49
    2.5
 74
    0
 49
    -0.5
 74
    0
 49
    0.5
 74
    0
 49
    -0.5
 74
    0
  0
LTYPE
  5
3A
100
AcDbSymbolTableRecord
100
AcDbLinetypeTableRecord
  2
CENTER
 70
    64
 3

 72
    65
 73
    4
 40
    50.8
 49
    31.75
 74
    0
 49
    -6.35
 74
    0
 49
    6.35
 74
    0
 49
    -6.35
 74
    0
  0
LTYPE
  5
3B
100
AcDbSymbolTableRecord
100
AcDbLinetypeTableRecord
  2
BORDER
 70
    64
 3

 72
    65
 73
    6
 40
    44.45
 49
    12.7
 74
    0
 49
    -6.35
 74
    0
 49
    12.7
 74
    0
 49
    -6.35
 74
    0
 49
    0
 74
    0
 49
    -6.35
 74
    0
  0
LTYPE
  5
3C
100
AcDbSymbolTableRecord
100
AcDbLinetypeTableRecord
  2
AM_ISO02W050
 70
    64
 3

 72
    65
 73
    2
 40
    7.5
 49
    6
 74
    0
 49
    -1.5
 74
    0
  0
LTYPE
  5
3D
100
AcDbSymbolTableRecord
100
AcDbLinetypeTableRecord
  2
AM_ISO08W050
 70
    64
 3

 72
    65
 73
    4
 40
    18
 49
    12
 74
    0
 49
    -1.5
 74
    0
 49
    3
 74
    0
 49
    -1.5
 74
    0
  0
LTYPE
  5
3E
100
AcDbSymbolTableRecord
100
AcDbLinetypeTableRecord
  2
AM_ISO09W050
 70
    64
 3

 72
    65
 73
    6
 40
    22.5
 49
    12
 74
    0
 49
    -1.5
 74
    0
 49
    3
 74
    0
 49
    -1.5
 74
    0
 49
    3
 74
    0
 49
    -1.5
 74
    0
  0
LTYPE
  5
3F
100
AcDbSymbolTableRecord
100
AcDbLinetypeTableRecord
  2
Amconstr
 70
    64
 3

 72
    65
 73
    1
 40
    9999
 49
    9999
 74
    0
  0
LTYPE
  5
40
100
AcDbSymbolTableRecord
100
AcDbLinetypeTableRecord
  2
AM_ISO08W050x2
 70
    64
 3

 72
    65
 73
    4
 40
    9
 49
    6
 74
    0
 49
    -0.75
 74
    0
 49
    1.5
 74
    0
 49
    -0.75
 74
    0
  0
LTYPE
  5
41
100
AcDbSymbolTableRecord
100
AcDbLinetypeTableRecord
  2
AM_ISO02W050x2
 70
    64
 3

 72
    65
 73
    2
 40
    3.75
 49
    3
 74
    0
 49
    -0.75
 74
    0
  0
LTYPE
  5
42
100
AcDbSymbolTableRecord
100
AcDbLinetypeTableRecord
  2
Amzigzag
 70
    64
 3

 72
    65
 73
    2
 40
    4
 49
    2
 74
    0
 49
    -2
 74
    0
  0
LTYPE
  5
43
100
AcDbSymbolTableRecord
100
AcDbLinetypeTableRecord
  2
PHANTOM2
 70
    64
 3

 72
    65
 73
    6
 40
    1.25
 49
    0.625
 74
    0
 49
    -0.125
 74
    0
 49
    0.125
 74
    0
 49
    -0.125
 74
    0
 49
    0.125
 74
    0
 49
    -0.125
 74
    0
  0
LTYPE
  5
44
100
AcDbSymbolTableRecord
100
AcDbLinetypeTableRecord
  2
CENTER2
 70
    64
 3

 72
    65
 73
    4
 40
    1.125
 49
    0.75
 74
    0
 49
    -0.125
 74
    0
 49
    0.125
 74
    0
 49
    -0.125
 74
    0
  0
LTYPE
  5
45
100
AcDbSymbolTableRecord
100
AcDbLinetypeTableRecord
  2
HIDDEN2
 70
    64
 3

 72
    65
 73
    2
 40
    0.188
 49
    0.125668449197861
 74
    0
 49
    -0.062331550802139
 74
    0
  0
LTYPE
  5
46
100
AcDbSymbolTableRecord
100
AcDbLinetypeTableRecord
  2
Amzigzag2
 70
    64
 3

 72
    65
 73
    2
 40
    4
 49
    2
 74
    0
 49
    -2
 74
    0
  0
LTYPE
  5
47
100
AcDbSymbolTableRecord
100
AcDbLinetypeTableRecord
  2
ACANSTGB
 70
    64
 3

 72
    65
 73
    6
 40
    0.354
 49
    0.157892045454545
 74
    0
 49
    -0.0392215909090909
 74
    0
 49
    0.0392215909090909
 74
    0
 49
    -0.0392215909090909
 74
    0
 49
    0.0392215909090909
 74
    0
 49
    -0.0392215909090909
 74
    0
  0
LTYPE
  5
48
100
AcDbSymbolTableRecord
100
AcDbLinetypeTableRecord
  2
ACANSTGL
 70
    64
 3

 72
    65
 73
    2
 40
    0.118
 49
    0.079
 74
    0
 49
    -0.039
 74
    0
  0
LTYPE
  5
49
100
AcDbSymbolTableRecord
100
AcDbLinetypeTableRecord
  2
BORDERX2
 70
    64
 3

 72
    65
 73
    6
 40
    3.5
 49
    1
 74
    0
 49
    -0.5
 74
    0
 49
    1
 74
    0
 49
    -0.5
 74
    0
 49
    0
 74
    0
 49
    -0.5
 74
    0
  0
LTYPE
  5
4A
100
AcDbSymbolTableRecord
100
AcDbLinetypeTableRecord
  2
BORDER2
 70
    64
 3

 72
    65
 73
    6
 40
    0.875
 49
    0.25
 74
    0
 49
    -0.125
 74
    0
 49
    0.25
 74
    0
 49
    -0.125
 74
    0
 49
    0
 74
    0
 49
    -0.125
 74
    0
  0
LTYPE
  5
4B
100
AcDbSymbolTableRecord
100
AcDbLinetypeTableRecord
  2
ACISOWELD
 70
    64
 3

 72
    65
 73
    2
 40
    2
 49
    1.33333333333333
 74
    0
 49
    -0.666666666666667
 74
    0
  0
LTYPE
  5
4C
100
AcDbSymbolTableRecord
100
AcDbLinetypeTableRecord
  2
ACISOTGB
 70
    64
 3

 72
    65
 73
    6
 40
    9
 49
    4
 74
    0
 49
    -1
 74
    0
 49
    1
 74
    0
 49
    -1
 74
    0
 49
    1
 74
    0
 49
    -1
 74
    0
  0
LTYPE
  5
4D
100
AcDbSymbolTableRecord
100
AcDbLinetypeTableRecord
  2
ACISOTGL
 70
    64
 3

 72
    65
 73
    2
 40
    3
 49
    2
 74
    0
 49
    -1
 74
    0
  0
ENDTAB
  0
TABLE
  2
LAYER
  5
3
100
AcDbSymbolTable
 70
   257
  0
LAYER
  5
4E
100
AcDbSymbolTableRecord
100
AcDbLayerTableRecord
  2
0
 70
    0
 62
7
  6
CONTINUOUS
  0
LAYER
  5
4F
100
AcDbSymbolTableRecord
100
AcDbLayerTableRecord
  2
DEFPOINTS
 70
    0
 62
7
  6
CONTINUOUS
  0
LAYER
  5
50
100
AcDbSymbolTableRecord
100
AcDbLayerTableRecord
  2
ASHADE
 70
    4
 62
7
  6
CONTINUOUS
  0
LAYER
  5
51
100
AcDbSymbolTableRecord
100
AcDbLayerTableRecord
  2
CEN
 70
    0
 62
72
  6
AM_ISO08W050
  0
LAYER
  5
52
100
AcDbSymbolTableRecord
100
AcDbLayerTableRecord
  2
DIM
 70
    0
 62
1
  6
CONTINUOUS
  0
LAYER
  5
53
100
AcDbSymbolTableRecord
100
AcDbLayerTableRecord
  2
HIDDEN
 70
    0
 62
3
  6
CONTINUOUS
  0
LAYER
  5
54
100
AcDbSymbolTableRecord
100
AcDbLayerTableRecord
  2
HATCH
 70
    0
 62
5
  6
CONTINUOUS
  0
LAYER
  5
55
100
AcDbSymbolTableRecord
100
AcDbLayerTableRecord
  2
TEXT
 70
    0
 62
250
  6
CONTINUOUS
  0
LAYER
  5
56
100
AcDbSymbolTableRecord
100
AcDbLayerTableRecord
  2
M
 70
    0
 62
6
  6
CONTINUOUS
  0
LAYER
  5
57
100
AcDbSymbolTableRecord
100
AcDbLayerTableRecord
  2
BREAK
 70
    0
 62
3
  6
AM_ISO09W050
  0
LAYER
  5
58
100
AcDbSymbolTableRecord
100
AcDbLayerTableRecord
  2
01
 70
    0
 62
3
  6
CONTINUOUS
  0
LAYER
  5
59
100
AcDbSymbolTableRecord
100
AcDbLayerTableRecord
  2
7475A
 70
    0
 62
1
  6
CONTINUOUS
  0
LAYER
  5
5A
100
AcDbSymbolTableRecord
100
AcDbLayerTableRecord
  2
BASE
 70
    0
 62
7
  6
CONTINUOUS
  0
LAYER
  5
5B
100
AcDbSymbolTableRecord
100
AcDbLayerTableRecord
  2
AME
 70
    0
 62
7
  6
CONTINUOUS
  0
LAYER
  5
5C
100
AcDbSymbolTableRecord
100
AcDbLayerTableRecord
  2
PV-230
 70
    0
 62
7
  6
CONTINUOUS
  0
LAYER
  5
5D
100
AcDbSymbolTableRecord
100
AcDbLayerTableRecord
  2
4
 70
    0
 62
4
  6
CONTINUOUS
  0
LAYER
  5
5E
100
AcDbSymbolTableRecord
100
AcDbLayerTableRecord
  2
ｸ_ｮy
 70
    0
 62
241
  6
CONTINUOUS
  0
LAYER
  5
5F
100
AcDbSymbolTableRecord
100
AcDbLayerTableRecord
  2
_Xｭｷ､f
 70
    0
 62
3
  6
CONTINUOUS
  0
LAYER
  5
60
100
AcDbSymbolTableRecord
100
AcDbLayerTableRecord
  2
ｾﾉｪO
 70
    0
 62
4
  6
CONTINUOUS
  0
LAYER
  5
61
100
AcDbSymbolTableRecord
100
AcDbLayerTableRecord
  2
_ｨｹFｩTｩwｬ_
 70
    0
 62
30
  6
CONTINUOUS
  0
LAYER
  5
62
100
AcDbSymbolTableRecord
100
AcDbLayerTableRecord
  2
__ｴﾟ
 70
    0
 62
7
  6
CONTINUOUS
  0
LAYER
  5
63
100
AcDbSymbolTableRecord
100
AcDbLayerTableRecord
  2
､Jｭｷ､f
 70
    0
 62
200
  6
CONTINUOUS
  0
LAYER
  5
64
100
AcDbSymbolTableRecord
100
AcDbLayerTableRecord
  2
ｭｱｪO
 70
    0
 62
2
  6
CONTINUOUS
  0
LAYER
  5
65
100
AcDbSymbolTableRecord
100
AcDbLayerTableRecord
  2
ｺ�
 70
    0
 62
41
  6
CONTINUOUS
  0
LAYER
  5
66
100
AcDbSymbolTableRecord
100
AcDbLayerTableRecord
  2
ｨ茹L
 70
    0
 62
41
  6
CONTINUOUS
  0
LAYER
  5
67
100
AcDbSymbolTableRecord
100
AcDbLayerTableRecord
  2
ｮﾘ
 70
    0
 62
5
  6
CONTINUOUS
  0
LAYER
  5
68
100
AcDbSymbolTableRecord
100
AcDbLayerTableRecord
  2
_ｨｹF
 70
    0
 62
9
  6
CONTINUOUS
  0
LAYER
  5
69
100
AcDbSymbolTableRecord
100
AcDbLayerTableRecord
  2
ｭｷｽ�
 70
    0
 62
221
  6
CONTINUOUS
  0
LAYER
  5
6A
100
AcDbSymbolTableRecord
100
AcDbLayerTableRecord
  2
ｫﾊｪO
 70
    0
 62
22
  6
CONTINUOUS
  0
LAYER
  5
6B
100
AcDbSymbolTableRecord
100
AcDbLayerTableRecord
  2
画層29
 70
    0
 62
7
  6
CONTINUOUS
  0
LAYER
  5
6C
100
AcDbSymbolTableRecord
100
AcDbLayerTableRecord
  2
画層30
 70
    0
 62
7
  6
CONTINUOUS
  0
LAYER
  5
6D
100
AcDbSymbolTableRecord
100
AcDbLayerTableRecord
  2
画層31
 70
    0
 62
7
  6
CONTINUOUS
  0
LAYER
  5
6E
100
AcDbSymbolTableRecord
100
AcDbLayerTableRecord
  2
画層32
 70
    0
 62
7
  6
CONTINUOUS
  0
LAYER
  5
6F
100
AcDbSymbolTableRecord
100
AcDbLayerTableRecord
  2
画層33
 70
    0
 62
7
  6
CONTINUOUS
  0
LAYER
  5
70
100
AcDbSymbolTableRecord
100
AcDbLayerTableRecord
  2
画層34
 70
    0
 62
7
  6
CONTINUOUS
  0
LAYER
  5
71
100
AcDbSymbolTableRecord
100
AcDbLayerTableRecord
  2
画層35
 70
    0
 62
7
  6
CONTINUOUS
  0
LAYER
  5
72
100
AcDbSymbolTableRecord
100
AcDbLayerTableRecord
  2
画層36
 70
    0
 62
7
  6
CONTINUOUS
  0
LAYER
  5
73
100
AcDbSymbolTableRecord
100
AcDbLayerTableRecord
  2
画層37
 70
    0
 62
7
  6
CONTINUOUS
  0
LAYER
  5
74
100
AcDbSymbolTableRecord
100
AcDbLayerTableRecord
  2
画層38
 70
    0
 62
7
  6
CONTINUOUS
  0
LAYER
  5
75
100
AcDbSymbolTableRecord
100
AcDbLayerTableRecord
  2
画層39
 70
    0
 62
7
  6
CONTINUOUS
  0
LAYER
  5
76
100
AcDbSymbolTableRecord
100
AcDbLayerTableRecord
  2
画層40
 70
    0
 62
7
  6
CONTINUOUS
  0
LAYER
  5
77
100
AcDbSymbolTableRecord
100
AcDbLayerTableRecord
  2
画層41
 70
    0
 62
7
  6
CONTINUOUS
  0
LAYER
  5
78
100
AcDbSymbolTableRecord
100
AcDbLayerTableRecord
  2
画層42
 70
    0
 62
7
  6
CONTINUOUS
  0
LAYER
  5
79
100
AcDbSymbolTableRecord
100
AcDbLayerTableRecord
  2
画層43
 70
    0
 62
7
  6
CONTINUOUS
  0
LAYER
  5
7A
100
AcDbSymbolTableRecord
100
AcDbLayerTableRecord
  2
画層44
 70
    0
 62
7
  6
CONTINUOUS
  0
LAYER
  5
7B
100
AcDbSymbolTableRecord
100
AcDbLayerTableRecord
  2
画層45
 70
    0
 62
7
  6
CONTINUOUS
  0
LAYER
  5
7C
100
AcDbSymbolTableRecord
100
AcDbLayerTableRecord
  2
画層46
 70
    0
 62
7
  6
CONTINUOUS
  0
LAYER
  5
7D
100
AcDbSymbolTableRecord
100
AcDbLayerTableRecord
  2
画層47
 70
    0
 62
7
  6
CONTINUOUS
  0
LAYER
  5
7E
100
AcDbSymbolTableRecord
100
AcDbLayerTableRecord
  2
画層48
 70
    0
 62
7
  6
CONTINUOUS
  0
LAYER
  5
7F
100
AcDbSymbolTableRecord
100
AcDbLayerTableRecord
  2
画層49
 70
    0
 62
7
  6
CONTINUOUS
  0
LAYER
  5
80
100
AcDbSymbolTableRecord
100
AcDbLayerTableRecord
  2
画層50
 70
    0
 62
7
  6
CONTINUOUS
  0
LAYER
  5
81
100
AcDbSymbolTableRecord
100
AcDbLayerTableRecord
  2
画層51
 70
    0
 62
7
  6
CONTINUOUS
  0
LAYER
  5
82
100
AcDbSymbolTableRecord
100
AcDbLayerTableRecord
  2
画層52
 70
    0
 62
7
  6
CONTINUOUS
  0
LAYER
  5
83
100
AcDbSymbolTableRecord
100
AcDbLayerTableRecord
  2
画層53
 70
    0
 62
7
  6
CONTINUOUS
  0
LAYER
  5
84
100
AcDbSymbolTableRecord
100
AcDbLayerTableRecord
  2
画層54
 70
    0
 62
7
  6
CONTINUOUS
  0
LAYER
  5
85
100
AcDbSymbolTableRecord
100
AcDbLayerTableRecord
  2
画層55
 70
    0
 62
7
  6
CONTINUOUS
  0
LAYER
  5
86
100
AcDbSymbolTableRecord
100
AcDbLayerTableRecord
  2
画層56
 70
    0
 62
7
  6
CONTINUOUS
  0
LAYER
  5
87
100
AcDbSymbolTableRecord
100
AcDbLayerTableRecord
  2
画層57
 70
    0
 62
7
  6
CONTINUOUS
  0
LAYER
  5
88
100
AcDbSymbolTableRecord
100
AcDbLayerTableRecord
  2
画層58
 70
    0
 62
7
  6
CONTINUOUS
  0
LAYER
  5
89
100
AcDbSymbolTableRecord
100
AcDbLayerTableRecord
  2
画層59
 70
    0
 62
7
  6
CONTINUOUS
  0
LAYER
  5
8A
100
AcDbSymbolTableRecord
100
AcDbLayerTableRecord
  2
画層60
 70
    0
 62
7
  6
CONTINUOUS
  0
LAYER
  5
8B
100
AcDbSymbolTableRecord
100
AcDbLayerTableRecord
  2
画層61
 70
    0
 62
7
  6
CONTINUOUS
  0
LAYER
  5
8C
100
AcDbSymbolTableRecord
100
AcDbLayerTableRecord
  2
画層62
 70
    0
 62
7
  6
CONTINUOUS
  0
LAYER
  5
8D
100
AcDbSymbolTableRecord
100
AcDbLayerTableRecord
  2
画層63
 70
    0
 62
7
  6
CONTINUOUS
  0
LAYER
  5
8E
100
AcDbSymbolTableRecord
100
AcDbLayerTableRecord
  2
画層64
 70
    0
 62
7
  6
CONTINUOUS
  0
LAYER
  5
8F
100
AcDbSymbolTableRecord
100
AcDbLayerTableRecord
  2
画層65
 70
    0
 62
7
  6
CONTINUOUS
  0
LAYER
  5
90
100
AcDbSymbolTableRecord
100
AcDbLayerTableRecord
  2
画層66
 70
    0
 62
7
  6
CONTINUOUS
  0
LAYER
  5
91
100
AcDbSymbolTableRecord
100
AcDbLayerTableRecord
  2
画層67
 70
    0
 62
7
  6
CONTINUOUS
  0
LAYER
  5
92
100
AcDbSymbolTableRecord
100
AcDbLayerTableRecord
  2
画層68
 70
    0
 62
7
  6
CONTINUOUS
  0
LAYER
  5
93
100
AcDbSymbolTableRecord
100
AcDbLayerTableRecord
  2
画層69
 70
    0
 62
7
  6
CONTINUOUS
  0
LAYER
  5
94
100
AcDbSymbolTableRecord
100
AcDbLayerTableRecord
  2
画層70
 70
    0
 62
7
  6
CONTINUOUS
  0
LAYER
  5
95
100
AcDbSymbolTableRecord
100
AcDbLayerTableRecord
  2
画層71
 70
    0
 62
7
  6
CONTINUOUS
  0
LAYER
  5
96
100
AcDbSymbolTableRecord
100
AcDbLayerTableRecord
  2
画層72
 70
    0
 62
7
  6
CONTINUOUS
  0
LAYER
  5
97
100
AcDbSymbolTableRecord
100
AcDbLayerTableRecord
  2
画層73
 70
    0
 62
7
  6
CONTINUOUS
  0
LAYER
  5
98
100
AcDbSymbolTableRecord
100
AcDbLayerTableRecord
  2
画層74
 70
    0
 62
7
  6
CONTINUOUS
  0
LAYER
  5
99
100
AcDbSymbolTableRecord
100
AcDbLayerTableRecord
  2
画層75
 70
    0
 62
7
  6
CONTINUOUS
  0
LAYER
  5
9A
100
AcDbSymbolTableRecord
100
AcDbLayerTableRecord
  2
画層76
 70
    0
 62
7
  6
CONTINUOUS
  0
LAYER
  5
9B
100
AcDbSymbolTableRecord
100
AcDbLayerTableRecord
  2
画層77
 70
    0
 62
7
  6
CONTINUOUS
  0
LAYER
  5
9C
100
AcDbSymbolTableRecord
100
AcDbLayerTableRecord
  2
画層78
 70
    0
 62
7
  6
CONTINUOUS
  0
LAYER
  5
9D
100
AcDbSymbolTableRecord
100
AcDbLayerTableRecord
  2
画層79
 70
    0
 62
7
  6
CONTINUOUS
  0
LAYER
  5
9E
100
AcDbSymbolTableRecord
100
AcDbLayerTableRecord
  2
画層80
 70
    0
 62
7
  6
CONTINUOUS
  0
LAYER
  5
9F
100
AcDbSymbolTableRecord
100
AcDbLayerTableRecord
  2
画層81
 70
    0
 62
7
  6
CONTINUOUS
  0
LAYER
  5
A0
100
AcDbSymbolTableRecord
100
AcDbLayerTableRecord
  2
画層82
 70
    0
 62
7
  6
CONTINUOUS
  0
LAYER
  5
A1
100
AcDbSymbolTableRecord
100
AcDbLayerTableRecord
  2
画層83
 70
    0
 62
7
  6
CONTINUOUS
  0
LAYER
  5
A2
100
AcDbSymbolTableRecord
100
AcDbLayerTableRecord
  2
画層84
 70
    0
 62
7
  6
CONTINUOUS
  0
LAYER
  5
A3
100
AcDbSymbolTableRecord
100
AcDbLayerTableRecord
  2
画層85
 70
    0
 62
7
  6
CONTINUOUS
  0
LAYER
  5
A4
100
AcDbSymbolTableRecord
100
AcDbLayerTableRecord
  2
画層86
 70
    0
 62
7
  6
CONTINUOUS
  0
LAYER
  5
A5
100
AcDbSymbolTableRecord
100
AcDbLayerTableRecord
  2
画層87
 70
    0
 62
7
  6
CONTINUOUS
  0
LAYER
  5
A6
100
AcDbSymbolTableRecord
100
AcDbLayerTableRecord
  2
画層88
 70
    0
 62
7
  6
CONTINUOUS
  0
LAYER
  5
A7
100
AcDbSymbolTableRecord
100
AcDbLayerTableRecord
  2
画層89
 70
    0
 62
7
  6
CONTINUOUS
  0
LAYER
  5
A8
100
AcDbSymbolTableRecord
100
AcDbLayerTableRecord
  2
画層90
 70
    0
 62
7
  6
CONTINUOUS
  0
LAYER
  5
A9
100
AcDbSymbolTableRecord
100
AcDbLayerTableRecord
  2
画層91
 70
    0
 62
7
  6
CONTINUOUS
  0
LAYER
  5
AA
100
AcDbSymbolTableRecord
100
AcDbLayerTableRecord
  2
画層92
 70
    0
 62
7
  6
CONTINUOUS
  0
LAYER
  5
AB
100
AcDbSymbolTableRecord
100
AcDbLayerTableRecord
  2
画層93
 70
    0
 62
7
  6
CONTINUOUS
  0
LAYER
  5
AC
100
AcDbSymbolTableRecord
100
AcDbLayerTableRecord
  2
画層94
 70
    0
 62
7
  6
CONTINUOUS
  0
LAYER
  5
AD
100
AcDbSymbolTableRecord
100
AcDbLayerTableRecord
  2
画層95
 70
    0
 62
7
  6
CONTINUOUS
  0
LAYER
  5
AE
100
AcDbSymbolTableRecord
100
AcDbLayerTableRecord
  2
画層96
 70
    0
 62
7
  6
CONTINUOUS
  0
LAYER
  5
AF
100
AcDbSymbolTableRecord
100
AcDbLayerTableRecord
  2
画層97
 70
    0
 62
7
  6
CONTINUOUS
  0
LAYER
  5
B0
100
AcDbSymbolTableRecord
100
AcDbLayerTableRecord
  2
画層98
 70
    0
 62
7
  6
CONTINUOUS
  0
LAYER
  5
B1
100
AcDbSymbolTableRecord
100
AcDbLayerTableRecord
  2
画層99
 70
    0
 62
7
  6
CONTINUOUS
  0
LAYER
  5
B2
100
AcDbSymbolTableRecord
100
AcDbLayerTableRecord
  2
画層100
 70
    0
 62
7
  6
CONTINUOUS
  0
LAYER
  5
B3
100
AcDbSymbolTableRecord
100
AcDbLayerTableRecord
  2
画層101
 70
    0
 62
7
  6
CONTINUOUS
  0
LAYER
  5
B4
100
AcDbSymbolTableRecord
100
AcDbLayerTableRecord
  2
画層102
 70
    0
 62
7
  6
CONTINUOUS
  0
LAYER
  5
B5
100
AcDbSymbolTableRecord
100
AcDbLayerTableRecord
  2
画層103
 70
    0
 62
7
  6
CONTINUOUS
  0
LAYER
  5
B6
100
AcDbSymbolTableRecord
100
AcDbLayerTableRecord
  2
画層104
 70
    0
 62
7
  6
CONTINUOUS
  0
LAYER
  5
B7
100
AcDbSymbolTableRecord
100
AcDbLayerTableRecord
  2
画層105
 70
    0
 62
7
  6
CONTINUOUS
  0
LAYER
  5
B8
100
AcDbSymbolTableRecord
100
AcDbLayerTableRecord
  2
画層106
 70
    0
 62
7
  6
CONTINUOUS
  0
LAYER
  5
B9
100
AcDbSymbolTableRecord
100
AcDbLayerTableRecord
  2
画層107
 70
    0
 62
7
  6
CONTINUOUS
  0
LAYER
  5
BA
100
AcDbSymbolTableRecord
100
AcDbLayerTableRecord
  2
画層108
 70
    0
 62
7
  6
CONTINUOUS
  0
LAYER
  5
BB
100
AcDbSymbolTableRecord
100
AcDbLayerTableRecord
  2
画層109
 70
    0
 62
7
  6
CONTINUOUS
  0
LAYER
  5
BC
100
AcDbSymbolTableRecord
100
AcDbLayerTableRecord
  2
画層110
 70
    0
 62
7
  6
CONTINUOUS
  0
LAYER
  5
BD
100
AcDbSymbolTableRecord
100
AcDbLayerTableRecord
  2
画層111
 70
    0
 62
7
  6
CONTINUOUS
  0
LAYER
  5
BE
100
AcDbSymbolTableRecord
100
AcDbLayerTableRecord
  2
画層112
 70
    0
 62
7
  6
CONTINUOUS
  0
LAYER
  5
BF
100
AcDbSymbolTableRecord
100
AcDbLayerTableRecord
  2
画層113
 70
    0
 62
7
  6
CONTINUOUS
  0
LAYER
  5
C0
100
AcDbSymbolTableRecord
100
AcDbLayerTableRecord
  2
画層114
 70
    0
 62
7
  6
CONTINUOUS
  0
LAYER
  5
C1
100
AcDbSymbolTableRecord
100
AcDbLayerTableRecord
  2
画層115
 70
    0
 62
7
  6
CONTINUOUS
  0
LAYER
  5
C2
100
AcDbSymbolTableRecord
100
AcDbLayerTableRecord
  2
画層116
 70
    0
 62
7
  6
CONTINUOUS
  0
LAYER
  5
C3
100
AcDbSymbolTableRecord
100
AcDbLayerTableRecord
  2
画層117
 70
    0
 62
7
  6
CONTINUOUS
  0
LAYER
  5
C4
100
AcDbSymbolTableRecord
100
AcDbLayerTableRecord
  2
画層118
 70
    0
 62
7
  6
CONTINUOUS
  0
LAYER
  5
C5
100
AcDbSymbolTableRecord
100
AcDbLayerTableRecord
  2
画層119
 70
    0
 62
7
  6
CONTINUOUS
  0
LAYER
  5
C6
100
AcDbSymbolTableRecord
100
AcDbLayerTableRecord
  2
画層120
 70
    0
 62
7
  6
CONTINUOUS
  0
LAYER
  5
C7
100
AcDbSymbolTableRecord
100
AcDbLayerTableRecord
  2
画層121
 70
    0
 62
7
  6
CONTINUOUS
  0
LAYER
  5
C8
100
AcDbSymbolTableRecord
100
AcDbLayerTableRecord
  2
画層122
 70
    0
 62
7
  6
CONTINUOUS
  0
LAYER
  5
C9
100
AcDbSymbolTableRecord
100
AcDbLayerTableRecord
  2
画層123
 70
    0
 62
7
  6
CONTINUOUS
  0
LAYER
  5
CA
100
AcDbSymbolTableRecord
100
AcDbLayerTableRecord
  2
画層124
 70
    0
 62
7
  6
CONTINUOUS
  0
LAYER
  5
CB
100
AcDbSymbolTableRecord
100
AcDbLayerTableRecord
  2
画層125
 70
    0
 62
7
  6
CONTINUOUS
  0
LAYER
  5
CC
100
AcDbSymbolTableRecord
100
AcDbLayerTableRecord
  2
画層126
 70
    0
 62
7
  6
CONTINUOUS
  0
LAYER
  5
CD
100
AcDbSymbolTableRecord
100
AcDbLayerTableRecord
  2
画層127
 70
    0
 62
7
  6
CONTINUOUS
  0
LAYER
  5
CE
100
AcDbSymbolTableRecord
100
AcDbLayerTableRecord
  2
画層128
 70
    0
 62
7
  6
CONTINUOUS
  0
LAYER
  5
CF
100
AcDbSymbolTableRecord
100
AcDbLayerTableRecord
  2
画層129
 70
    0
 62
7
  6
CONTINUOUS
  0
LAYER
  5
D0
100
AcDbSymbolTableRecord
100
AcDbLayerTableRecord
  2
画層130
 70
    0
 62
7
  6
CONTINUOUS
  0
LAYER
  5
D1
100
AcDbSymbolTableRecord
100
AcDbLayerTableRecord
  2
画層131
 70
    0
 62
7
  6
CONTINUOUS
  0
LAYER
  5
D2
100
AcDbSymbolTableRecord
100
AcDbLayerTableRecord
  2
画層132
 70
    0
 62
7
  6
CONTINUOUS
  0
LAYER
  5
D3
100
AcDbSymbolTableRecord
100
AcDbLayerTableRecord
  2
画層133
 70
    0
 62
7
  6
CONTINUOUS
  0
LAYER
  5
D4
100
AcDbSymbolTableRecord
100
AcDbLayerTableRecord
  2
画層134
 70
    0
 62
7
  6
CONTINUOUS
  0
LAYER
  5
D5
100
AcDbSymbolTableRecord
100
AcDbLayerTableRecord
  2
画層135
 70
    0
 62
7
  6
CONTINUOUS
  0
LAYER
  5
D6
100
AcDbSymbolTableRecord
100
AcDbLayerTableRecord
  2
画層136
 70
    0
 62
7
  6
CONTINUOUS
  0
LAYER
  5
D7
100
AcDbSymbolTableRecord
100
AcDbLayerTableRecord
  2
画層137
 70
    0
 62
7
  6
CONTINUOUS
  0
LAYER
  5
D8
100
AcDbSymbolTableRecord
100
AcDbLayerTableRecord
  2
画層138
 70
    0
 62
7
  6
CONTINUOUS
  0
LAYER
  5
D9
100
AcDbSymbolTableRecord
100
AcDbLayerTableRecord
  2
画層139
 70
    0
 62
7
  6
CONTINUOUS
  0
LAYER
  5
DA
100
AcDbSymbolTableRecord
100
AcDbLayerTableRecord
  2
画層140
 70
    0
 62
7
  6
CONTINUOUS
  0
LAYER
  5
DB
100
AcDbSymbolTableRecord
100
AcDbLayerTableRecord
  2
画層141
 70
    0
 62
7
  6
CONTINUOUS
  0
LAYER
  5
DC
100
AcDbSymbolTableRecord
100
AcDbLayerTableRecord
  2
画層142
 70
    0
 62
7
  6
CONTINUOUS
  0
LAYER
  5
DD
100
AcDbSymbolTableRecord
100
AcDbLayerTableRecord
  2
画層143
 70
    0
 62
7
  6
CONTINUOUS
  0
LAYER
  5
DE
100
AcDbSymbolTableRecord
100
AcDbLayerTableRecord
  2
画層144
 70
    0
 62
7
  6
CONTINUOUS
  0
LAYER
  5
DF
100
AcDbSymbolTableRecord
100
AcDbLayerTableRecord
  2
画層145
 70
    0
 62
7
  6
CONTINUOUS
  0
LAYER
  5
E0
100
AcDbSymbolTableRecord
100
AcDbLayerTableRecord
  2
画層146
 70
    0
 62
7
  6
CONTINUOUS
  0
LAYER
  5
E1
100
AcDbSymbolTableRecord
100
AcDbLayerTableRecord
  2
画層147
 70
    0
 62
7
  6
CONTINUOUS
  0
LAYER
  5
E2
100
AcDbSymbolTableRecord
100
AcDbLayerTableRecord
  2
画層148
 70
    0
 62
7
  6
CONTINUOUS
  0
LAYER
  5
E3
100
AcDbSymbolTableRecord
100
AcDbLayerTableRecord
  2
画層149
 70
    0
 62
7
  6
CONTINUOUS
  0
LAYER
  5
E4
100
AcDbSymbolTableRecord
100
AcDbLayerTableRecord
  2
画層150
 70
    0
 62
7
  6
CONTINUOUS
  0
LAYER
  5
E5
100
AcDbSymbolTableRecord
100
AcDbLayerTableRecord
  2
画層151
 70
    0
 62
7
  6
CONTINUOUS
  0
LAYER
  5
E6
100
AcDbSymbolTableRecord
100
AcDbLayerTableRecord
  2
画層152
 70
    0
 62
7
  6
CONTINUOUS
  0
LAYER
  5
E7
100
AcDbSymbolTableRecord
100
AcDbLayerTableRecord
  2
画層153
 70
    0
 62
7
  6
CONTINUOUS
  0
LAYER
  5
E8
100
AcDbSymbolTableRecord
100
AcDbLayerTableRecord
  2
画層154
 70
    0
 62
7
  6
CONTINUOUS
  0
LAYER
  5
E9
100
AcDbSymbolTableRecord
100
AcDbLayerTableRecord
  2
画層155
 70
    0
 62
7
  6
CONTINUOUS
  0
LAYER
  5
EA
100
AcDbSymbolTableRecord
100
AcDbLayerTableRecord
  2
画層156
 70
    0
 62
7
  6
CONTINUOUS
  0
LAYER
  5
EB
100
AcDbSymbolTableRecord
100
AcDbLayerTableRecord
  2
画層157
 70
    0
 62
7
  6
CONTINUOUS
  0
LAYER
  5
EC
100
AcDbSymbolTableRecord
100
AcDbLayerTableRecord
  2
画層158
 70
    0
 62
7
  6
CONTINUOUS
  0
LAYER
  5
ED
100
AcDbSymbolTableRecord
100
AcDbLayerTableRecord
  2
画層159
 70
    0
 62
7
  6
CONTINUOUS
  0
LAYER
  5
EE
100
AcDbSymbolTableRecord
100
AcDbLayerTableRecord
  2
画層160
 70
    0
 62
7
  6
CONTINUOUS
  0
LAYER
  5
EF
100
AcDbSymbolTableRecord
100
AcDbLayerTableRecord
  2
画層161
 70
    0
 62
7
  6
CONTINUOUS
  0
LAYER
  5
F0
100
AcDbSymbolTableRecord
100
AcDbLayerTableRecord
  2
画層162
 70
    0
 62
7
  6
CONTINUOUS
  0
LAYER
  5
F1
100
AcDbSymbolTableRecord
100
AcDbLayerTableRecord
  2
画層163
 70
    0
 62
7
  6
CONTINUOUS
  0
LAYER
  5
F2
100
AcDbSymbolTableRecord
100
AcDbLayerTableRecord
  2
画層164
 70
    0
 62
7
  6
CONTINUOUS
  0
LAYER
  5
F3
100
AcDbSymbolTableRecord
100
AcDbLayerTableRecord
  2
画層165
 70
    0
 62
7
  6
CONTINUOUS
  0
LAYER
  5
F4
100
AcDbSymbolTableRecord
100
AcDbLayerTableRecord
  2
画層166
 70
    0
 62
7
  6
CONTINUOUS
  0
LAYER
  5
F5
100
AcDbSymbolTableRecord
100
AcDbLayerTableRecord
  2
画層167
 70
    0
 62
7
  6
CONTINUOUS
  0
LAYER
  5
F6
100
AcDbSymbolTableRecord
100
AcDbLayerTableRecord
  2
画層168
 70
    0
 62
7
  6
CONTINUOUS
  0
LAYER
  5
F7
100
AcDbSymbolTableRecord
100
AcDbLayerTableRecord
  2
画層169
 70
    0
 62
7
  6
CONTINUOUS
  0
LAYER
  5
F8
100
AcDbSymbolTableRecord
100
AcDbLayerTableRecord
  2
画層170
 70
    0
 62
7
  6
CONTINUOUS
  0
LAYER
  5
F9
100
AcDbSymbolTableRecord
100
AcDbLayerTableRecord
  2
画層171
 70
    0
 62
7
  6
CONTINUOUS
  0
LAYER
  5
FA
100
AcDbSymbolTableRecord
100
AcDbLayerTableRecord
  2
画層172
 70
    0
 62
7
  6
CONTINUOUS
  0
LAYER
  5
FB
100
AcDbSymbolTableRecord
100
AcDbLayerTableRecord
  2
画層173
 70
    0
 62
7
  6
CONTINUOUS
  0
LAYER
  5
FC
100
AcDbSymbolTableRecord
100
AcDbLayerTableRecord
  2
画層174
 70
    0
 62
7
  6
CONTINUOUS
  0
LAYER
  5
FD
100
AcDbSymbolTableRecord
100
AcDbLayerTableRecord
  2
画層175
 70
    0
 62
7
  6
CONTINUOUS
  0
LAYER
  5
FE
100
AcDbSymbolTableRecord
100
AcDbLayerTableRecord
  2
画層176
 70
    0
 62
7
  6
CONTINUOUS
  0
LAYER
  5
FF
100
AcDbSymbolTableRecord
100
AcDbLayerTableRecord
  2
画層177
 70
    0
 62
7
  6
CONTINUOUS
  0
LAYER
  5
100
100
AcDbSymbolTableRecord
100
AcDbLayerTableRecord
  2
画層178
 70
    0
 62
7
  6
CONTINUOUS
  0
LAYER
  5
101
100
AcDbSymbolTableRecord
100
AcDbLayerTableRecord
  2
画層179
 70
    0
 62
7
  6
CONTINUOUS
  0
LAYER
  5
102
100
AcDbSymbolTableRecord
100
AcDbLayerTableRecord
  2
画層180
 70
    0
 62
7
  6
CONTINUOUS
  0
LAYER
  5
103
100
AcDbSymbolTableRecord
100
AcDbLayerTableRecord
  2
画層181
 70
    0
 62
7
  6
CONTINUOUS
  0
LAYER
  5
104
100
AcDbSymbolTableRecord
100
AcDbLayerTableRecord
  2
画層182
 70
    0
 62
7
  6
CONTINUOUS
  0
LAYER
  5
105
100
AcDbSymbolTableRecord
100
AcDbLayerTableRecord
  2
画層183
 70
    0
 62
7
  6
CONTINUOUS
  0
LAYER
  5
106
100
AcDbSymbolTableRecord
100
AcDbLayerTableRecord
  2
画層184
 70
    0
 62
7
  6
CONTINUOUS
  0
LAYER
  5
107
100
AcDbSymbolTableRecord
100
AcDbLayerTableRecord
  2
画層185
 70
    0
 62
7
  6
CONTINUOUS
  0
LAYER
  5
108
100
AcDbSymbolTableRecord
100
AcDbLayerTableRecord
  2
画層186
 70
    0
 62
7
  6
CONTINUOUS
  0
LAYER
  5
109
100
AcDbSymbolTableRecord
100
AcDbLayerTableRecord
  2
画層187
 70
    0
 62
7
  6
CONTINUOUS
  0
LAYER
  5
10A
100
AcDbSymbolTableRecord
100
AcDbLayerTableRecord
  2
画層188
 70
    0
 62
7
  6
CONTINUOUS
  0
LAYER
  5
10B
100
AcDbSymbolTableRecord
100
AcDbLayerTableRecord
  2
画層189
 70
    0
 62
7
  6
CONTINUOUS
  0
LAYER
  5
10C
100
AcDbSymbolTableRecord
100
AcDbLayerTableRecord
  2
画層190
 70
    0
 62
7
  6
CONTINUOUS
  0
LAYER
  5
10D
100
AcDbSymbolTableRecord
100
AcDbLayerTableRecord
  2
画層191
 70
    0
 62
7
  6
CONTINUOUS
  0
LAYER
  5
10E
100
AcDbSymbolTableRecord
100
AcDbLayerTableRecord
  2
画層192
 70
    0
 62
7
  6
CONTINUOUS
  0
LAYER
  5
10F
100
AcDbSymbolTableRecord
100
AcDbLayerTableRecord
  2
画層193
 70
    0
 62
7
  6
CONTINUOUS
  0
LAYER
  5
110
100
AcDbSymbolTableRecord
100
AcDbLayerTableRecord
  2
画層194
 70
    0
 62
7
  6
CONTINUOUS
  0
LAYER
  5
111
100
AcDbSymbolTableRecord
100
AcDbLayerTableRecord
  2
画層195
 70
    0
 62
7
  6
CONTINUOUS
  0
LAYER
  5
112
100
AcDbSymbolTableRecord
100
AcDbLayerTableRecord
  2
画層196
 70
    0
 62
7
  6
CONTINUOUS
  0
LAYER
  5
113
100
AcDbSymbolTableRecord
100
AcDbLayerTableRecord
  2
画層197
 70
    0
 62
7
  6
CONTINUOUS
  0
LAYER
  5
114
100
AcDbSymbolTableRecord
100
AcDbLayerTableRecord
  2
画層198
 70
    0
 62
7
  6
CONTINUOUS
  0
LAYER
  5
115
100
AcDbSymbolTableRecord
100
AcDbLayerTableRecord
  2
画層199
 70
    0
 62
7
  6
CONTINUOUS
  0
LAYER
  5
116
100
AcDbSymbolTableRecord
100
AcDbLayerTableRecord
  2
画層200
 70
    0
 62
7
  6
CONTINUOUS
  0
LAYER
  5
117
100
AcDbSymbolTableRecord
100
AcDbLayerTableRecord
  2
画層201
 70
    0
 62
7
  6
CONTINUOUS
  0
LAYER
  5
118
100
AcDbSymbolTableRecord
100
AcDbLayerTableRecord
  2
画層202
 70
    0
 62
7
  6
CONTINUOUS
  0
LAYER
  5
119
100
AcDbSymbolTableRecord
100
AcDbLayerTableRecord
  2
画層203
 70
    0
 62
7
  6
CONTINUOUS
  0
LAYER
  5
11A
100
AcDbSymbolTableRecord
100
AcDbLayerTableRecord
  2
画層204
 70
    0
 62
7
  6
CONTINUOUS
  0
LAYER
  5
11B
100
AcDbSymbolTableRecord
100
AcDbLayerTableRecord
  2
画層205
 70
    0
 62
7
  6
CONTINUOUS
  0
LAYER
  5
11C
100
AcDbSymbolTableRecord
100
AcDbLayerTableRecord
  2
画層206
 70
    0
 62
7
  6
CONTINUOUS
  0
LAYER
  5
11D
100
AcDbSymbolTableRecord
100
AcDbLayerTableRecord
  2
画層207
 70
    0
 62
7
  6
CONTINUOUS
  0
LAYER
  5
11E
100
AcDbSymbolTableRecord
100
AcDbLayerTableRecord
  2
画層208
 70
    0
 62
7
  6
CONTINUOUS
  0
LAYER
  5
11F
100
AcDbSymbolTableRecord
100
AcDbLayerTableRecord
  2
画層209
 70
    0
 62
7
  6
CONTINUOUS
  0
LAYER
  5
120
100
AcDbSymbolTableRecord
100
AcDbLayerTableRecord
  2
画層210
 70
    0
 62
7
  6
CONTINUOUS
  0
LAYER
  5
121
100
AcDbSymbolTableRecord
100
AcDbLayerTableRecord
  2
画層211
 70
    0
 62
7
  6
CONTINUOUS
  0
LAYER
  5
122
100
AcDbSymbolTableRecord
100
AcDbLayerTableRecord
  2
画層212
 70
    0
 62
7
  6
CONTINUOUS
  0
LAYER
  5
123
100
AcDbSymbolTableRecord
100
AcDbLayerTableRecord
  2
画層213
 70
    0
 62
7
  6
CONTINUOUS
  0
LAYER
  5
124
100
AcDbSymbolTableRecord
100
AcDbLayerTableRecord
  2
画層214
 70
    0
 62
7
  6
CONTINUOUS
  0
LAYER
  5
125
100
AcDbSymbolTableRecord
100
AcDbLayerTableRecord
  2
画層215
 70
    0
 62
7
  6
CONTINUOUS
  0
LAYER
  5
126
100
AcDbSymbolTableRecord
100
AcDbLayerTableRecord
  2
画層216
 70
    0
 62
7
  6
CONTINUOUS
  0
LAYER
  5
127
100
AcDbSymbolTableRecord
100
AcDbLayerTableRecord
  2
画層217
 70
    0
 62
7
  6
CONTINUOUS
  0
LAYER
  5
128
100
AcDbSymbolTableRecord
100
AcDbLayerTableRecord
  2
画層218
 70
    0
 62
7
  6
CONTINUOUS
  0
LAYER
  5
129
100
AcDbSymbolTableRecord
100
AcDbLayerTableRecord
  2
画層219
 70
    0
 62
7
  6
CONTINUOUS
  0
LAYER
  5
12A
100
AcDbSymbolTableRecord
100
AcDbLayerTableRecord
  2
画層220
 70
    0
 62
7
  6
CONTINUOUS
  0
LAYER
  5
12B
100
AcDbSymbolTableRecord
100
AcDbLayerTableRecord
  2
画層221
 70
    0
 62
7
  6
CONTINUOUS
  0
LAYER
  5
12C
100
AcDbSymbolTableRecord
100
AcDbLayerTableRecord
  2
画層222
 70
    0
 62
7
  6
CONTINUOUS
  0
LAYER
  5
12D
100
AcDbSymbolTableRecord
100
AcDbLayerTableRecord
  2
画層223
 70
    0
 62
7
  6
CONTINUOUS
  0
LAYER
  5
12E
100
AcDbSymbolTableRecord
100
AcDbLayerTableRecord
  2
画層224
 70
    0
 62
7
  6
CONTINUOUS
  0
LAYER
  5
12F
100
AcDbSymbolTableRecord
100
AcDbLayerTableRecord
  2
画層225
 70
    0
 62
7
  6
CONTINUOUS
  0
LAYER
  5
130
100
AcDbSymbolTableRecord
100
AcDbLayerTableRecord
  2
画層226
 70
    0
 62
7
  6
CONTINUOUS
  0
LAYER
  5
131
100
AcDbSymbolTableRecord
100
AcDbLayerTableRecord
  2
画層227
 70
    0
 62
7
  6
CONTINUOUS
  0
LAYER
  5
132
100
AcDbSymbolTableRecord
100
AcDbLayerTableRecord
  2
画層228
 70
    0
 62
7
  6
CONTINUOUS
  0
LAYER
  5
133
100
AcDbSymbolTableRecord
100
AcDbLayerTableRecord
  2
画層229
 70
    0
 62
7
  6
CONTINUOUS
  0
LAYER
  5
134
100
AcDbSymbolTableRecord
100
AcDbLayerTableRecord
  2
画層230
 70
    0
 62
7
  6
CONTINUOUS
  0
LAYER
  5
135
100
AcDbSymbolTableRecord
100
AcDbLayerTableRecord
  2
画層231
 70
    0
 62
7
  6
CONTINUOUS
  0
LAYER
  5
136
100
AcDbSymbolTableRecord
100
AcDbLayerTableRecord
  2
画層232
 70
    0
 62
7
  6
CONTINUOUS
  0
LAYER
  5
137
100
AcDbSymbolTableRecord
100
AcDbLayerTableRecord
  2
画層233
 70
    0
 62
7
  6
CONTINUOUS
  0
LAYER
  5
138
100
AcDbSymbolTableRecord
100
AcDbLayerTableRecord
  2
画層234
 70
    0
 62
7
  6
CONTINUOUS
  0
LAYER
  5
139
100
AcDbSymbolTableRecord
100
AcDbLayerTableRecord
  2
画層235
 70
    0
 62
7
  6
CONTINUOUS
  0
LAYER
  5
13A
100
AcDbSymbolTableRecord
100
AcDbLayerTableRecord
  2
画層236
 70
    0
 62
7
  6
CONTINUOUS
  0
LAYER
  5
13B
100
AcDbSymbolTableRecord
100
AcDbLayerTableRecord
  2
画層237
 70
    0
 62
7
  6
CONTINUOUS
  0
LAYER
  5
13C
100
AcDbSymbolTableRecord
100
AcDbLayerTableRecord
  2
画層238
 70
    0
 62
7
  6
CONTINUOUS
  0
LAYER
  5
13D
100
AcDbSymbolTableRecord
100
AcDbLayerTableRecord
  2
画層239
 70
    0
 62
7
  6
CONTINUOUS
  0
LAYER
  5
13E
100
AcDbSymbolTableRecord
100
AcDbLayerTableRecord
  2
画層240
 70
    0
 62
7
  6
CONTINUOUS
  0
LAYER
  5
13F
100
AcDbSymbolTableRecord
100
AcDbLayerTableRecord
  2
画層241
 70
    0
 62
7
  6
CONTINUOUS
  0
LAYER
  5
140
100
AcDbSymbolTableRecord
100
AcDbLayerTableRecord
  2
画層242
 70
    0
 62
7
  6
CONTINUOUS
  0
LAYER
  5
141
100
AcDbSymbolTableRecord
100
AcDbLayerTableRecord
  2
画層243
 70
    0
 62
7
  6
CONTINUOUS
  0
LAYER
  5
142
100
AcDbSymbolTableRecord
100
AcDbLayerTableRecord
  2
画層244
 70
    0
 62
7
  6
CONTINUOUS
  0
LAYER
  5
143
100
AcDbSymbolTableRecord
100
AcDbLayerTableRecord
  2
画層245
 70
    0
 62
7
  6
CONTINUOUS
  0
LAYER
  5
144
100
AcDbSymbolTableRecord
100
AcDbLayerTableRecord
  2
画層246
 70
    0
 62
7
  6
CONTINUOUS
  0
LAYER
  5
145
100
AcDbSymbolTableRecord
100
AcDbLayerTableRecord
  2
画層247
 70
    0
 62
7
  6
CONTINUOUS
  0
LAYER
  5
146
100
AcDbSymbolTableRecord
100
AcDbLayerTableRecord
  2
画層248
 70
    0
 62
7
  6
CONTINUOUS
  0
LAYER
  5
147
100
AcDbSymbolTableRecord
100
AcDbLayerTableRecord
  2
画層249
 70
    0
 62
7
  6
CONTINUOUS
  0
LAYER
  5
148
100
AcDbSymbolTableRecord
100
AcDbLayerTableRecord
  2
画層250
 70
    0
 62
7
  6
CONTINUOUS
  0
LAYER
  5
149
100
AcDbSymbolTableRecord
100
AcDbLayerTableRecord
  2
画層251
 70
    0
 62
7
  6
CONTINUOUS
  0
LAYER
  5
14A
100
AcDbSymbolTableRecord
100
AcDbLayerTableRecord
  2
画層252
 70
    0
 62
7
  6
CONTINUOUS
  0
LAYER
  5
14B
100
AcDbSymbolTableRecord
100
AcDbLayerTableRecord
  2
画層253
 70
    0
 62
7
  6
CONTINUOUS
  0
LAYER
  5
14C
100
AcDbSymbolTableRecord
100
AcDbLayerTableRecord
  2
画層254
 70
    0
 62
7
  6
CONTINUOUS
  0
LAYER
  5
14D
100
AcDbSymbolTableRecord
100
AcDbLayerTableRecord
  2
画層255
 70
    0
 62
7
  6
CONTINUOUS
  0
ENDTAB
  0
TABLE
  2
STYLE
  5
4
100
AcDbSymbolTable
 70
     1
  0
STYLE
  5
14E
100
AcDbSymbolTableRecord
100
AcDbTextStyleTableRecord
  2
Standard
 70
     0
 40
0.0
 41
1.0
 50
0.0
 71
     0
 42
3.2
  3
TXT
  4
BIGFONT
  0
STYLE
  5
14F
100
AcDbSymbolTableRecord
100
AcDbTextStyleTableRecord
  2
Font_0
 70
     0
 40
0.0
 41
1.0
 50
0.0
 71
     0
 42
3.2
  3
MS Gothic.ttf
  4

1001
ACAD
1000
MS Gothic
1071
  32817
  0
STYLE
  5
150
100
AcDbSymbolTableRecord
100
AcDbTextStyleTableRecord
  2
Font_1
 70
     0
 40
0.0
 41
1.0
 50
0.0
 71
     0
 42
3.2
  3
MS Gothic.ttf
  4

1001
ACAD
1000
@MS Gothic
1071
  32817
  0
ENDTAB
  0
TABLE
  2
VIEW
  5
5
100
AcDbSymbolTable
 70
     0
  0
ENDTAB
  0
TABLE
  2
UCS
  5
6
100
AcDbSymbolTable
 70
     0
  0
ENDTAB
  0
TABLE
  2
APPID
  5
7
100
AcDbSymbolTable
 70
     1
  0
APPID
  5
151
100
AcDbSymbolTableRecord
100
AcDbRegAppTableRecord
  2
ACAD
 70
     0
  0
ENDTAB
  0
TABLE
  2
DIMSTYLE
  5
8
100
AcDbSymbolTable
 70
     1
  0
DIMSTYLE
105
2A
100
AcDbSymbolTableRecord
100
AcDbDimStyleTableRecord
  2
STANDARD
 70
     0
  3

  4

  5

  6

  7

 40
1.0
 41
2.5
 42
2.0
 43
7.0
 44
1.25
 45
0.0
 46
0.0
 47
0.0
 48
0.0
 71
     0
 72
     0
 73
     0
 74
     0
 75
     0
 76
     0
 77
     1
 78
     0
140
2.5
141
2.5
142
0.0
143
0.0394
144
1.0
145
0.0
146
1.0
147
1.0
170
     0
171
     2
172
     0
173
     0
174
     1
175
     0
176
     0
177
     0
178
     0
270
     2
271
     2
272
     4
273
     2
274
     2
275
     0
280
     0
281
     0
282
     0
283
     1
284
     0
285
     0
286
     0
287
     3
288
     0
  0
ENDTAB
  0
TABLE
  2
BLOCK_RECORD
  5
9
100
AcDbSymbolTable
 70
     0
  0
BLOCK_RECORD
  5
152
100
AcDbSymbolTableRecord
100
AcDbBlockTableRecord
  2
*MODEL_SPACE
  0
BLOCK_RECORD
  5
153
100
AcDbSymbolTableRecord
100
AcDbBlockTableRecord
  2
*PAPER_SPACE
  0
BLOCK_RECORD
  5
154
100
AcDbSymbolTableRecord
100
AcDbBlockTableRecord
  2
0
  0
BLOCK_RECORD
  5
155
100
AcDbSymbolTableRecord
100
AcDbBlockTableRecord
  2
A4
  0
BLOCK_RECORD
  5
156
100
AcDbSymbolTableRecord
100
AcDbBlockTableRecord
  2
NOTE
  0
BLOCK_RECORD
  5
157
100
AcDbSymbolTableRecord
100
AcDbBlockTableRecord
  2
BASE
  0
BLOCK_RECORD
  5
158
100
AcDbSymbolTableRecord
100
AcDbBlockTableRecord
  2
LIST
  0
BLOCK_RECORD
  5
159
100
AcDbSymbolTableRecord
100
AcDbBlockTableRecord
  2
A4ｹﾏｮﾘ
  0
BLOCK_RECORD
  5
15A
100
AcDbSymbolTableRecord
100
AcDbBlockTableRecord
  2
JAME
  0
BLOCK_RECORD
  5
15B
100
AcDbSymbolTableRecord
100
AcDbBlockTableRecord
  2
GENAXEH
  0
BLOCK_RECORD
  5
15C
100
AcDbSymbolTableRecord
100
AcDbBlockTableRecord
  2
A$C36D836D4
  0
BLOCK_RECORD
  5
15D
100
AcDbSymbolTableRecord
100
AcDbBlockTableRecord
  2
A$C520435C5
  0
BLOCK_RECORD
  5
15E
100
AcDbSymbolTableRecord
100
AcDbBlockTableRecord
  2
A$C60F9129D
  0
BLOCK_RECORD
  5
15F
100
AcDbSymbolTableRecord
100
AcDbBlockTableRecord
  2
A
  0
BLOCK_RECORD
  5
160
100
AcDbSymbolTableRecord
100
AcDbBlockTableRecord
  2
B
  0
BLOCK_RECORD
  5
161
100
AcDbSymbolTableRecord
100
AcDbBlockTableRecord
  2
C
  0
BLOCK_RECORD
  5
162
100
AcDbSymbolTableRecord
100
AcDbBlockTableRecord
  2
D
  0
BLOCK_RECORD
  5
163
100
AcDbSymbolTableRecord
100
AcDbBlockTableRecord
  2
A4ｹﾏｮﾘ_JAME_
  0
BLOCK_RECORD
  5
164
100
AcDbSymbolTableRecord
100
AcDbBlockTableRecord
  2
A$C077967FD
  0
BLOCK_RECORD
  5
165
100
AcDbSymbolTableRecord
100
AcDbBlockTableRecord
  2
A$C54A76AFA
  0
BLOCK_RECORD
  5
166
100
AcDbSymbolTableRecord
100
AcDbBlockTableRecord
  2
A$C626A265E
  0
BLOCK_RECORD
  5
167
100
AcDbSymbolTableRecord
100
AcDbBlockTableRecord
  2
A$C5375073A
  0
BLOCK_RECORD
  5
168
100
AcDbSymbolTableRecord
100
AcDbBlockTableRecord
  2
A$C44D36A7E
  0
BLOCK_RECORD
  5
169
100
AcDbSymbolTableRecord
100
AcDbBlockTableRecord
  2
A$C628971F0
  0
BLOCK_RECORD
  5
16A
100
AcDbSymbolTableRecord
100
AcDbBlockTableRecord
  2
A$C7E4922DC
  0
BLOCK_RECORD
  5
16B
100
AcDbSymbolTableRecord
100
AcDbBlockTableRecord
  2
A$C08845AD9
  0
BLOCK_RECORD
  5
16C
100
AcDbSymbolTableRecord
100
AcDbBlockTableRecord
  2
A$C7CEE6151
  0
BLOCK_RECORD
  5
16D
100
AcDbSymbolTableRecord
100
AcDbBlockTableRecord
  2
A$C7E016531
  0
BLOCK_RECORD
  5
16E
100
AcDbSymbolTableRecord
100
AcDbBlockTableRecord
  2
A$C6FD70170
  0
BLOCK_RECORD
  5
16F
100
AcDbSymbolTableRecord
100
AcDbBlockTableRecord
  2
A$C6B324015
  0
BLOCK_RECORD
  5
170
100
AcDbSymbolTableRecord
100
AcDbBlockTableRecord
  2
A$C359D335D
  0
BLOCK_RECORD
  5
171
100
AcDbSymbolTableRecord
100
AcDbBlockTableRecord
  2
A$C209D30BE
  0
BLOCK_RECORD
  5
172
100
AcDbSymbolTableRecord
100
AcDbBlockTableRecord
  2
A$C2159161A
  0
BLOCK_RECORD
  5
173
100
AcDbSymbolTableRecord
100
AcDbBlockTableRecord
  2
A$C76372531
  0
BLOCK_RECORD
  5
174
100
AcDbSymbolTableRecord
100
AcDbBlockTableRecord
  2
A$C77676829
  0
BLOCK_RECORD
  5
175
100
AcDbSymbolTableRecord
100
AcDbBlockTableRecord
  2
A$C393A4D0F
  0
ENDTAB
  0
ENDSEC
  0
SECTION
  2
BLOCKS
  0
BLOCK
  5
177
100
AcDbEntity
  8
0
100
AcDbBlockBegin
2
*MODEL_SPACE
 70
     0
 10
0.0
 20
0.0
 30
0.0
  3
*MODEL_SPACE
  1

  0
ENDBLK
  5
178
100
AcDbEntity
  8
0
100
AcDbBlockEnd
  0
BLOCK
  5
179
100
AcDbEntity
 67
     1
  8
0
100
AcDbBlockBegin
  2
*PAPER_SPACE
 70
     0
 10
0.0
 20
0.0
 30
0.0
  3
*PAPER_SPACE
  1

  0
ENDBLK
  5
17A
100
AcDbEntity
 67
     1
  8
0
100
AcDbBlockEnd
  0
BLOCK
  5
17B
100
AcDbEntity
  8
0
100
AcDbBlockBegin
  2
0
 70
    0
 10
0
 20
0
 30
0.0
  3
0
  1

  0
LINE
  5
17C
100
AcDbEntity
  8
0
100
AcDbLine
  6
BYLAYER
 10
1
 20
1
 11
97.85
 21
1
  0
LINE
  5
17D
100
AcDbEntity
  8
0
100
AcDbLine
  6
BYLAYER
 10
1
 20
201
 11
1
 21
1
  0
LINE
  5
17E
100
AcDbEntity
  8
0
100
AcDbLine
  6
BYLAYER
 10
1
 20
1
 11
1
 21
35
  0
LINE
  5
17F
100
AcDbEntity
  8
0
100
AcDbLine
  6
BYLAYER
 10
1
 20
7
 11
290
 21
7
  0
LINE
  5
180
100
AcDbEntity
  8
0
100
AcDbLine
  6
BYLAYER
 10
1
 20
13
 11
290
 21
13
  0
LINE
  5
181
100
AcDbEntity
  8
0
100
AcDbLine
  6
BYLAYER
 10
97.85
 20
19
 11
290
 21
19
  0
LINE
  5
182
100
AcDbEntity
  8
0
100
AcDbLine
  6
BYLAYER
 10
98
 20
25
 11
290
 21
25
  0
LINE
  5
183
100
AcDbEntity
  8
0
100
AcDbLine
  6
BYLAYER
 10
98
 20
31
 11
290
 21
31
  0
LINE
  5
184
100
AcDbEntity
  8
0
100
AcDbLine
  6
BYLAYER
 10
214
 20
37
 11
214
 21
1
  0
LINE
  5
185
100
AcDbEntity
  8
0
100
AcDbLine
  6
BYLAYER
 10
233
 20
37
 11
233
 21
1
  0
LINE
  5
186
100
AcDbEntity
  8
0
100
AcDbLine
  6
BYLAYER
 10
196.025
 20
31
 11
196.025
 21
1
  0
LINE
  5
187
100
AcDbEntity
  8
0
100
AcDbLine
  6
BYLAYER
 10
196.025
 20
31
 11
290
 21
31
  0
LINE
  5
188
100
AcDbEntity
  8
0
100
AcDbLine
  6
BYLAYER
 10
196.025
 20
1
 11
290
 21
1
  0
LINE
  5
189
100
AcDbEntity
  8
0
100
AcDbLine
  6
BYLAYER
 10
196.15
 20
37
 11
196.15
 21
1
  0
LINE
  5
18A
100
AcDbEntity
  8
0
100
AcDbLine
  6
BYLAYER
 10
195.85
 20
37
 11
195.85
 21
1
  0
LINE
  5
18B
100
AcDbEntity
  8
0
100
AcDbLine
  6
BYLAYER
 10
98.15
 20
37
 11
98.15
 21
1
  0
LINE
  5
18C
100
AcDbEntity
  8
0
100
AcDbLine
  6
BYLAYER
 10
98.15
 20
31
 11
195.85
 21
31
  0
LINE
  5
18D
100
AcDbEntity
  8
0
100
AcDbLine
  6
BYLAYER
 10
98.15
 20
1
 11
195.85
 21
1
  0
LINE
  5
18E
100
AcDbEntity
  8
0
100
AcDbLine
  6
BYLAYER
 10
97.85
 20
37
 11
97.85
 21
1
  0
LINE
  5
18F
100
AcDbEntity
  8
0
100
AcDbLine
  6
BYLAYER
 10
145
 20
37
 11
145
 21
1
  0
LINE
  5
190
100
AcDbEntity
  8
0
100
AcDbLine
  6
BYLAYER
 10
115
 20
37
 11
115
 21
1
  0
LINE
  5
191
100
AcDbEntity
  8
0
100
AcDbLine
  6
BYLAYER
 10
164
 20
37
 11
164
 21
1
  0
LINE
  5
192
100
AcDbEntity
  8
0
100
AcDbLine
  6
BYLAYER
 10
49
 20
13
 11
49
 21
1
  0
LINE
  5
193
100
AcDbEntity
  8
0
100
AcDbLine
  6
BYLAYER
 10
14
 20
13
 11
14
 21
1
  0
LINE
  5
194
100
AcDbEntity
  8
0
100
AcDbLine
  6
BYLAYER
 10
63
 20
13
 11
63
 21
1
  0
TEXT
  5
195
100
AcDbEntity
  8
0
100
AcDbText
  6
BYLAYER
 10
3
 20
7.72940914028269
 40
3
  1
TEL
  7
Font_0
100
AcDbText
  0
TEXT
  5
196
100
AcDbEntity
  8
0
100
AcDbText
  6
BYLAYER
 10
51
 20
7.91176142535337
 40
3
  1
FAX
  7
Font_0
100
AcDbText
  0
TEXT
  5
197
100
AcDbEntity
  8
0
100
AcDbText
  6
BYLAYER
 10
16.5400336288223
 20
8.09411371042404
 40
3
  1
(04)3322627
  7
Font_0
100
AcDbText
  0
TEXT
  5
198
100
AcDbEntity
  8
0
100
AcDbText
  6
BYLAYER
 10
67
 20
8.09411371042404
 40
3
  1
(04)3322629
  7
Font_0
100
AcDbText
  0
LINE
  5
199
100
AcDbEntity
  8
0
100
AcDbLine
  6
BYLAYER
 10
1
 20
37
 11
290
 21
37
  0
TEXT
  5
19A
100
AcDbEntity
  8
0
100
AcDbText
  6
BYLAYER
 10
40.6536662502908
 20
8.06055328395253
 40
3
  1
~8
  7
Font_0
100
AcDbText
  0
TEXT
  5
19B
100
AcDbEntity
  8
0
100
AcDbText
  6
BYLAYER
 10
99.7036913346956
 20
32.2639399057443
 40
4
  1
･D ｺﾞ
  7
Font_0
100
AcDbText
  0
TEXT
  5
19C
100
AcDbEntity
  8
0
100
AcDbText
  6
BYLAYER
 10
99.7036913346956
 20
25.6992573518645
 40
4
  1
ｮﾖ ｹ�
  7
Font_0
100
AcDbText
  0
TEXT
  5
19D
100
AcDbEntity
  8
0
100
AcDbText
  6
BYLAYER
 10
99.8861871848885
 20
19.8639838602288
 40
4
  1
ﾃｸ ｹﾏ
  7
Font_0
100
AcDbText
  0
TEXT
  5
19E
100
AcDbEntity
  8
0
100
AcDbText
  6
BYLAYER
 10
99.8861871848885
 20
13.8463581030321
 40
4
  1
ｾ� ｺﾘ
  7
Font_0
100
AcDbText
  0
TEXT
  5
19F
100
AcDbEntity
  8
0
100
AcDbText
  6
BYLAYER
 10
100.068683035081
 20
7.82873284267693
 40
4
  1
ｫ~ ｦW
  7
Font_0
100
AcDbText
  0
TEXT
  5
1A0
100
AcDbEntity
  8
0
100
AcDbText
  6
BYLAYER
 10
100.068683035081
 20
1.99345935104124
 40
4
  1
ｹﾏ ｸｹ
  7
Font_0
100
AcDbText
  0
TEXT
  5
1A1
100
AcDbEntity
  8
0
100
AcDbText
  6
BYLAYER
 10
146.605123404095
 20
31.8992353746223
 40
4
  1
ｧ� ｽ�
  7
Font_0
100
AcDbText
  0
TEXT
  5
1A2
100
AcDbEntity
  8
0
100
AcDbText
  6
BYLAYER
 10
146.605123404095
 20
25.8816096174256
 40
4
  1
､� ｨﾒ
  7
Font_0
100
AcDbText
  0
TEXT
  5
1A3
100
AcDbEntity
  8
0
100
AcDbText
  6
BYLAYER
 10
146.787619254287
 20
20.0463361257899
 40
4
  1
ｼﾆ ｶq
  7
Font_0
100
AcDbText
  0
TEXT
  5
1A4
100
AcDbEntity
  8
0
100
AcDbText
  6
BYLAYER
 10
146.97011510448
 20
14.0287103685931
 40
4
  1
ｳ� ｦ�
  7
Font_0
100
AcDbText
  0
TEXT
  5
1A5
100
AcDbEntity
  8
0
100
AcDbText
  6
BYLAYER
 10
146.422627553902
 20
8.01108510823795
 40
4
  1
ｪ揵ｱｳBｲz
  7
Font_0
100
AcDbText
  0
TEXT
  5
1A6
100
AcDbEntity
  8
0
100
AcDbText
  6
BYLAYER
 10
146.605123404095
 20
2.17581161660226
 40
4
  1
ｻsｹﾏ､魘ﾁ
  7
Font_0
100
AcDbText
  0
TEXT
  5
1A7
100
AcDbEntity
  8
0
100
AcDbText
  6
BYLAYER
 10
197.77841370095
 20
32.2399819360484
 40
4
  1
､� ｴﾁ
  7
Font_0
100
AcDbText
  0
TEXT
  5
1A8
100
AcDbEntity
  8
0
100
AcDbText
  6
BYLAYER
 10
215.423238216157
 20
32.0275605512105
 40
4
  1
ｭt
  7
Font_0
100
AcDbText
  0
TEXT
  5
1A9
100
AcDbEntity
  8
0
100
AcDbText
  6
BYLAYER
 10
221.375709026727
 20
31.815139655317
 40
4
  1
ｳd
  7
Font_0
100
AcDbText
  0
TEXT
  5
1AA
100
AcDbEntity
  8
0
100
AcDbText
  6
BYLAYER
 10
227.328179837297
 20
31.815139655317
 40
4
  1
､H
  7
Font_0
100
AcDbText
  0
TEXT
  5
1AB
100
AcDbEntity
  8
0
100
AcDbText
  6
BYLAYER
 10
239.020533541933
 20
32.0275605512105
 40
4
  1
ｧ�
  7
Font_0
100
AcDbText
  0
TEXT
  5
1AC
100
AcDbEntity
  8
0
100
AcDbText
  6
BYLAYER
 10
251.98841615305
 20
32.0275605512105
 40
4
  1
ｧ�
  7
Font_0
100
AcDbText
  0
TEXT
  5
1AD
100
AcDbEntity
  8
0
100
AcDbText
  6
BYLAYER
 10
264.531122227431
 20
32.0275605512105
 40
4
  1
､ｺ
  7
Font_0
100
AcDbText
  0
TEXT
  5
1AE
100
AcDbEntity
  8
0
100
AcDbText
  6
BYLAYER
 10
276.436064552298
 20
31.815139655317
 40
4
  1
ｮe
  7
Font_0
100
AcDbText
  0
TEXT
  5
1AF
100
AcDbEntity
  8
0
100
AcDbText
  6
BYLAYER
 10
23.0468952754036
 20
24.3731292136772
 40
7
  1
ｫﾘｷﾔ､uｷ~ｪﾑ･ｳｭｭ､ｽ･q
  7
Font_0
100
AcDbText
  0
TEXT
  5
1B0
100
AcDbEntity
  8
0
100
AcDbText
  6
BYLAYER
 10
22.2780828500217
 20
15.9228468305838
 40
3
  1
CHIEN YU INDUSTRIAL CO.,LTD.
  7
Font_0
100
AcDbText
  0
CIRCLE
  5
1B1
100
AcDbEntity
  8
0
100
AcDbCircle
  6
BYLAYER
 10
11.1054905349494
 20
25.350263158651
 40
9.36463111331499
  0
CIRCLE
  5
1B2
100
AcDbEntity
  8
0
100
AcDbCircle
  6
BYLAYER
 10
11.1054905349494
 20
25.350263158651
 40
7.62237416200057
  0
ARC
  5
1B3
100
AcDbEntity
  8
0
100
AcDbCircle
  6
BYLAYER
 10
11.1054905349494
 20
25.350263158651
 40
4.41008790801462
100
AcDbArc
 50
90
 51
0
  0
LINE
  5
1B4
100
AcDbEntity
  8
0
100
AcDbLine
  6
BYLAYER
 10
11.1054905349494
 20
29.7603510666656
 11
16.2233703294355
 21
29.7603510666656
  0
LINE
  5
1B5
100
AcDbEntity
  8
0
100
AcDbLine
  6
BYLAYER
 10
15.515578442964
 20
25.350263158651
 11
16.4411524483498
 21
25.350263158651
  0
TEXT
  5
1B6
100
AcDbEntity
  8
0
100
AcDbText
  6
BYLAYER
 10
8.49210581170386
 20
22.8477388856442
 40
5
  1
Y
  7
Font_0
100
AcDbText
  0
ARC
  5
1B7
100
AcDbEntity
  8
0
100
AcDbCircle
  6
BYLAYER
 10
11.5745216067836
 20
33.8983997393573
 40
0.704372460813671
100
AcDbArc
 50
83.8529806316668
 51
239.250071636948
  0
ARC
  5
1B8
100
AcDbEntity
  8
0
100
AcDbCircle
  6
BYLAYER
 10
7.23761506796891
 20
32.9876821284788
 40
0.704372460813671
100
AcDbArc
 50
113.852980631667
 51
269.250071636948
  0
ARC
  5
1B9
100
AcDbEntity
  8
0
100
AcDbCircle
  6
BYLAYER
 10
3.93710263695578
 20
30.0305242723769
 40
0.704372460813671
100
AcDbArc
 50
143.852980631667
 51
299.250071636948
  0
ARC
  5
1BA
100
AcDbEntity
  8
0
100
AcDbCircle
  6
BYLAYER
 10
2.55735395424305
 20
25.8192942304852
 40
0.704372460813671
100
AcDbArc
 50
173.852980631667
 51
329.250071636948
  0
ARC
  5
1BB
100
AcDbEntity
  8
0
100
AcDbCircle
  6
BYLAYER
 10
3.46807156512152
 20
21.4823876916705
 40
0.704372460813671
100
AcDbArc
 50
203.852980631667
 51
359.250071636948
  0
ARC
  5
1BC
100
AcDbEntity
  8
0
100
AcDbCircle
  6
BYLAYER
 10
6.42522942122351
 20
18.1818752606574
 40
0.704372460813671
100
AcDbArc
 50
233.852980631667
 51
29.2500716369476
  0
ARC
  5
1BD
100
AcDbEntity
  8
0
100
AcDbCircle
  6
BYLAYER
 10
10.6364594631151
 20
16.8021265779447
 40
0.704372460813671
100
AcDbArc
 50
263.852980631667
 51
59.2500716369476
  0
ARC
  5
1BE
100
AcDbEntity
  8
0
100
AcDbCircle
  6
BYLAYER
 10
14.9733660019298
 20
17.7128441888231
 40
0.704372460813671
100
AcDbArc
 50
293.852980631667
 51
89.2500716369476
  0
ARC
  5
1BF
100
AcDbEntity
  8
0
100
AcDbCircle
  6
BYLAYER
 10
18.273878432943
 20
20.6700020449251
 40
0.704372460813671
100
AcDbArc
 50
323.852980631667
 51
119.250071636948
  0
ARC
  5
1C0
100
AcDbEntity
  8
0
100
AcDbCircle
  6
BYLAYER
 10
19.6536271156557
 20
24.8812320868167
 40
0.704372460813671
100
AcDbArc
 50
353.852980631667
 51
149.250071636948
  0
ARC
  5
1C1
100
AcDbEntity
  8
0
100
AcDbCircle
  6
BYLAYER
 10
18.7429095047772
 20
29.2181386256314
 40
0.704372460813671
100
AcDbArc
 50
23.8529806316668
 51
179.250071636948
  0
ARC
  5
1C2
100
AcDbEntity
  8
0
100
AcDbCircle
  6
BYLAYER
 10
15.7857516486752
 20
32.5186510566446
 40
0.704372460813671
100
AcDbArc
 50
53.8529806316668
 51
209.250071636948
  0
LINE
  5
1C3
100
AcDbEntity
  8
0
100
AcDbLine
  6
BYLAYER
 10
1
 20
201
 11
290
 21
201
  0
LINE
  5
1C4
100
AcDbEntity
  8
0
100
AcDbLine
  6
BYLAYER
 10
290
 20
201
 11
290
 21
1
  0
ENDBLK
  5
1C5
100
AcDbEntity
  8
0
 67
     1
100
AcDbBlockEnd
  0
BLOCK
  5
1C6
100
AcDbEntity
  8
0
100
AcDbBlockBegin
  2
A4
 70
    0
 10
0
 20
0
 30
0.0
  3
A4
  1

  0
TEXT
  5
1C7
100
AcDbEntity
  8
0
100
AcDbText
  6
BYLAYER
 10
121.243373757434
 20
22.64898098486
 40
4.8
  1
ｿ� ｪ｢ ｵo
  7
Font_0
100
AcDbText
  0
TEXT
  5
1C8
100
AcDbEntity
  8
0
100
AcDbText
  6
BYLAYER
 10
175.643149157513
 20
16.5268633951276
 40
4.8
  1
M/M
  7
Font_0
100
AcDbText
  0
INSERT
  5
1C9
100
AcDbEntity
  8
0
100
AcDbBlockReference
  6
CONTINUOUS
  2
0
 10
2.77414193339833
 20
3.05830958210858
 30
0.0
  0
ENDBLK
  5
1CA
100
AcDbEntity
  8
0
 67
     1
100
AcDbBlockEnd
  0
BLOCK
  5
1CB
100
AcDbEntity
  8
0
100
AcDbBlockBegin
  2
NOTE
 70
    0
 10
0
 20
0
 30
0.0
  3
NOTE
  1

  0
LINE
  5
1CC
100
AcDbEntity
  8
0
100
AcDbLine
  6
BYLAYER
 10
0
 20
48
 11
244.5
 21
48
  0
LINE
  5
1CD
100
AcDbEntity
  8
0
100
AcDbLine
  6
BYLAYER
 10
0
 20
42
 11
244.5
 21
42
  0
LINE
  5
1CE
100
AcDbEntity
  8
0
100
AcDbLine
  6
BYLAYER
 10
0
 20
36
 11
244.5
 21
36
  0
LINE
  5
1CF
100
AcDbEntity
  8
0
100
AcDbLine
  6
BYLAYER
 10
0
 20
30
 11
244.5
 21
30
  0
LINE
  5
1D0
100
AcDbEntity
  8
0
100
AcDbLine
  6
BYLAYER
 10
0
 20
24
 11
244.5
 21
24
  0
LINE
  5
1D1
100
AcDbEntity
  8
0
100
AcDbLine
  6
BYLAYER
 10
0
 20
18
 11
244.5
 21
18
  0
LINE
  5
1D2
100
AcDbEntity
  8
0
100
AcDbLine
  6
BYLAYER
 10
0
 20
12
 11
244.5
 21
12
  0
LINE
  5
1D3
100
AcDbEntity
  8
0
100
AcDbLine
  6
BYLAYER
 10
0
 20
6
 11
244.5
 21
6
  0
LINE
  5
1D4
100
AcDbEntity
  8
0
100
AcDbLine
  6
BYLAYER
 62
3
 10
196.307106781187
 20
0.707106781186553
 11
211.192893218814
 21
0.707106781186553
  0
LINE
  5
1D5
100
AcDbEntity
  8
0
100
AcDbLine
  6
BYLAYER
 62
3
 10
196.307106781187
 20
6.70710678118655
 11
211.192893218814
 21
6.70710678118655
  0
LINE
  5
1D6
100
AcDbEntity
  8
0
100
AcDbLine
  6
BYLAYER
 62
3
 10
196.307106781187
 20
12.7071067811866
 11
211.192893218814
 21
12.7071067811866
  0
LINE
  5
1D7
100
AcDbEntity
  8
0
100
AcDbLine
  6
BYLAYER
 62
3
 10
196.307106781187
 20
18.7071067811866
 11
211.192893218814
 21
18.7071067811866
  0
LINE
  5
1D8
100
AcDbEntity
  8
0
100
AcDbLine
  6
BYLAYER
 62
3
 10
196.307106781187
 20
24.7071067811866
 11
211.192893218814
 21
24.7071067811866
  0
LINE
  5
1D9
100
AcDbEntity
  8
0
100
AcDbLine
  6
BYLAYER
 62
3
 10
196.307106781187
 20
30.7071067811865
 11
211.192893218814
 21
30.7071067811865
  0
LINE
  5
1DA
100
AcDbEntity
  8
0
100
AcDbLine
  6
BYLAYER
 62
3
 10
196.307106781187
 20
36.7071067811866
 11
211.192893218814
 21
36.7071067811866
  0
LINE
  5
1DB
100
AcDbEntity
  8
0
100
AcDbLine
  6
BYLAYER
 62
3
 10
65.9071067811866
 20
0.707106781186553
 11
80.7928932188135
 21
0.707106781186553
  0
LINE
  5
1DC
100
AcDbEntity
  8
0
100
AcDbLine
  6
BYLAYER
 62
3
 10
65.9071067811866
 20
6.70710678118655
 11
80.7928932188135
 21
6.70710678118655
  0
LINE
  5
1DD
100
AcDbEntity
  8
0
100
AcDbLine
  6
BYLAYER
 62
3
 10
65.9071067811866
 20
12.7071067811866
 11
80.7928932188135
 21
12.7071067811866
  0
LINE
  5
1DE
100
AcDbEntity
  8
0
100
AcDbLine
  6
BYLAYER
 62
3
 10
65.9071067811866
 20
18.7071067811866
 11
80.7928932188135
 21
18.7071067811866
  0
LINE
  5
1DF
100
AcDbEntity
  8
0
100
AcDbLine
  6
BYLAYER
 62
3
 10
65.9071067811866
 20
24.7071067811866
 11
80.7928932188135
 21
24.7071067811866
  0
LINE
  5
1E0
100
AcDbEntity
  8
0
100
AcDbLine
  6
BYLAYER
 62
3
 10
65.9071067811866
 20
30.7071067811865
 11
80.7928932188135
 21
30.7071067811865
  0
LINE
  5
1E1
100
AcDbEntity
  8
0
100
AcDbLine
  6
BYLAYER
 62
3
 10
65.9071067811866
 20
36.7071067811866
 11
80.7928932188135
 21
36.7071067811866
  0
LINE
  5
1E2
100
AcDbEntity
  8
0
100
AcDbLine
  6
BYLAYER
 10
65.2
 20
48
 11
65.2
 21
0
  0
LINE
  5
1E3
100
AcDbEntity
  8
0
100
AcDbLine
  6
BYLAYER
 10
32.6
 20
48
 11
32.6
 21
0
  0
LINE
  5
1E4
100
AcDbEntity
  8
0
100
AcDbLine
  6
BYLAYER
 10
16.3
 20
48
 11
16.3
 21
0
  0
LINE
  5
1E5
100
AcDbEntity
  8
0
100
AcDbLine
  6
BYLAYER
 10
48.9
 20
48
 11
48.9
 21
0
  0
LINE
  5
1E6
100
AcDbEntity
  8
0
100
AcDbLine
  6
BYLAYER
 62
3
 10
0.707106781186548
 20
0.707106781186553
 11
15.5928932188134
 21
0.707106781186553
  0
LINE
  5
1E7
100
AcDbEntity
  8
0
100
AcDbLine
  6
BYLAYER
 62
3
 10
0.707106781186548
 20
6.70710678118655
 11
15.5928932188134
 21
6.70710678118655
  0
LINE
  5
1E8
100
AcDbEntity
  8
0
100
AcDbLine
  6
BYLAYER
 62
3
 10
0.707106781186548
 20
12.7071067811866
 11
15.5928932188134
 21
12.7071067811866
  0
LINE
  5
1E9
100
AcDbEntity
  8
0
100
AcDbLine
  6
BYLAYER
 62
3
 10
0.707106781186548
 20
18.7071067811866
 11
15.5928932188134
 21
18.7071067811866
  0
LINE
  5
1EA
100
AcDbEntity
  8
0
100
AcDbLine
  6
BYLAYER
 62
3
 10
33.3071067811865
 20
0.707106781186553
 11
48.1928932188135
 21
0.707106781186553
  0
LINE
  5
1EB
100
AcDbEntity
  8
0
100
AcDbLine
  6
BYLAYER
 62
3
 10
33.3071067811865
 20
6.70710678118655
 11
48.1928932188135
 21
6.70710678118655
  0
LINE
  5
1EC
100
AcDbEntity
  8
0
100
AcDbLine
  6
BYLAYER
 62
3
 10
33.3071067811865
 20
12.7071067811866
 11
48.1928932188135
 21
12.7071067811866
  0
LINE
  5
1ED
100
AcDbEntity
  8
0
100
AcDbLine
  6
BYLAYER
 62
3
 10
33.3071067811865
 20
18.7071067811866
 11
48.1928932188135
 21
18.7071067811866
  0
LINE
  5
1EE
100
AcDbEntity
  8
0
100
AcDbLine
  6
BYLAYER
 62
3
 10
17.0071067811865
 20
0.707106781186553
 11
31.8928932188135
 21
0.707106781186553
  0
LINE
  5
1EF
100
AcDbEntity
  8
0
100
AcDbLine
  6
BYLAYER
 62
3
 10
17.0071067811865
 20
6.70710678118655
 11
31.8928932188135
 21
6.70710678118655
  0
LINE
  5
1F0
100
AcDbEntity
  8
0
100
AcDbLine
  6
BYLAYER
 62
3
 10
17.0071067811865
 20
12.7071067811866
 11
31.8928932188135
 21
12.7071067811866
  0
LINE
  5
1F1
100
AcDbEntity
  8
0
100
AcDbLine
  6
BYLAYER
 62
3
 10
17.0071067811865
 20
18.7071067811866
 11
31.8928932188135
 21
18.7071067811866
  0
LINE
  5
1F2
100
AcDbEntity
  8
0
100
AcDbLine
  6
BYLAYER
 62
3
 10
49.6071067811866
 20
0.707106781186553
 11
64.4928932188135
 21
0.707106781186553
  0
LINE
  5
1F3
100
AcDbEntity
  8
0
100
AcDbLine
  6
BYLAYER
 62
3
 10
49.6071067811866
 20
6.70710678118655
 11
64.4928932188135
 21
6.70710678118655
  0
LINE
  5
1F4
100
AcDbEntity
  8
0
100
AcDbLine
  6
BYLAYER
 62
3
 10
49.6071067811866
 20
12.7071067811866
 11
64.4928932188135
 21
12.7071067811866
  0
LINE
  5
1F5
100
AcDbEntity
  8
0
100
AcDbLine
  6
BYLAYER
 62
3
 10
49.6071067811866
 20
18.7071067811866
 11
64.4928932188135
 21
18.7071067811866
  0
LINE
  5
1F6
100
AcDbEntity
  8
0
100
AcDbLine
  6
BYLAYER
 62
3
 10
0.707106781186548
 20
24.7071067811866
 11
15.5928932188134
 21
24.7071067811866
  0
LINE
  5
1F7
100
AcDbEntity
  8
0
100
AcDbLine
  6
BYLAYER
 62
3
 10
0.707106781186548
 20
30.7071067811865
 11
15.5928932188134
 21
30.7071067811865
  0
LINE
  5
1F8
100
AcDbEntity
  8
0
100
AcDbLine
  6
BYLAYER
 62
3
 10
0.707106781186548
 20
36.7071067811866
 11
15.5928932188134
 21
36.7071067811866
  0
TEXT
  5
1F9
100
AcDbEntity
  8
0
100
AcDbText
  6
BYLAYER
 10
5.67126064773777
 20
43.5
 40
3
  1
､u･O
  7
Font_0
100
AcDbText
  0
LINE
  5
1FA
100
AcDbEntity
  8
0
100
AcDbLine
  6
BYLAYER
 62
3
 10
33.3071067811865
 20
24.7071067811866
 11
48.1928932188135
 21
24.7071067811866
  0
LINE
  5
1FB
100
AcDbEntity
  8
0
100
AcDbLine
  6
BYLAYER
 62
3
 10
33.3071067811865
 20
30.7071067811865
 11
48.1928932188135
 21
30.7071067811865
  0
LINE
  5
1FC
100
AcDbEntity
  8
0
100
AcDbLine
  6
BYLAYER
 62
3
 10
33.3071067811865
 20
36.7071067811866
 11
48.1928932188135
 21
36.7071067811866
  0
LINE
  5
1FD
100
AcDbEntity
  8
0
100
AcDbLine
  6
BYLAYER
 62
3
 10
17.0071067811865
 20
24.7071067811866
 11
31.8928932188135
 21
24.7071067811866
  0
LINE
  5
1FE
100
AcDbEntity
  8
0
100
AcDbLine
  6
BYLAYER
 62
3
 10
17.0071067811865
 20
30.7071067811865
 11
31.8928932188135
 21
30.7071067811865
  0
LINE
  5
1FF
100
AcDbEntity
  8
0
100
AcDbLine
  6
BYLAYER
 62
3
 10
17.0071067811865
 20
36.7071067811866
 11
31.8928932188135
 21
36.7071067811866
  0
TEXT
  5
200
100
AcDbEntity
  8
0
100
AcDbText
  6
BYLAYER
 10
21.3781148184937
 20
43.5
 40
3
  1
ｽsｸｹ
  7
Font_0
100
AcDbText
  0
TEXT
  5
201
100
AcDbEntity
  8
0
100
AcDbText
  6
BYLAYER
 10
39.5
 20
43.5
 40
3
  1
A
  7
Font_0
100
AcDbText
  0
LINE
  5
202
100
AcDbEntity
  8
0
100
AcDbLine
  6
BYLAYER
 62
3
 10
49.6071067811866
 20
24.7071067811866
 11
64.4928932188135
 21
24.7071067811866
  0
LINE
  5
203
100
AcDbEntity
  8
0
100
AcDbLine
  6
BYLAYER
 62
3
 10
49.6071067811866
 20
30.7071067811865
 11
64.4928932188135
 21
30.7071067811865
  0
LINE
  5
204
100
AcDbEntity
  8
0
100
AcDbLine
  6
BYLAYER
 62
3
 10
49.6071067811866
 20
36.7071067811866
 11
64.4928932188135
 21
36.7071067811866
  0
TEXT
  5
205
100
AcDbEntity
  8
0
100
AcDbText
  6
BYLAYER
 10
56
 20
43.5
 40
3
  1
B
  7
Font_0
100
AcDbText
  0
TEXT
  5
206
100
AcDbEntity
  8
0
100
AcDbText
  6
BYLAYER
 10
72.5
 20
43.5
 40
3
  1
C
  7
Font_0
100
AcDbText
  0
LINE
  5
207
100
AcDbEntity
  8
0
100
AcDbLine
  6
BYLAYER
 10
163
 20
48
 11
163
 21
0
  0
LINE
  5
208
100
AcDbEntity
  8
0
100
AcDbLine
  6
BYLAYER
 10
146.7
 20
48
 11
146.7
 21
0
  0
LINE
  5
209
100
AcDbEntity
  8
0
100
AcDbLine
  6
BYLAYER
 10
179.3
 20
48
 11
179.3
 21
0
  0
LINE
  5
20A
100
AcDbEntity
  8
0
100
AcDbLine
  6
BYLAYER
 10
195.6
 20
48
 11
195.6
 21
0
  0
LINE
  5
20B
100
AcDbEntity
  8
0
100
AcDbLine
  6
BYLAYER
 10
81.5
 20
48
 11
81.5
 21
0
  0
LINE
  5
20C
100
AcDbEntity
  8
0
100
AcDbLine
  6
BYLAYER
 10
114.1
 20
48
 11
114.1
 21
0
  0
LINE
  5
20D
100
AcDbEntity
  8
0
100
AcDbLine
  6
BYLAYER
 10
97.8
 20
48
 11
97.8
 21
0
  0
LINE
  5
20E
100
AcDbEntity
  8
0
100
AcDbLine
  6
BYLAYER
 10
130.4
 20
48
 11
130.4
 21
0
  0
LINE
  5
20F
100
AcDbEntity
  8
0
100
AcDbLine
  6
BYLAYER
 62
3
 10
131.107106781186
 20
0.707106781186553
 11
145.992893218813
 21
0.707106781186553
  0
LINE
  5
210
100
AcDbEntity
  8
0
100
AcDbLine
  6
BYLAYER
 62
3
 10
131.107106781186
 20
6.70710678118655
 11
145.992893218813
 21
6.70710678118655
  0
LINE
  5
211
100
AcDbEntity
  8
0
100
AcDbLine
  6
BYLAYER
 62
3
 10
131.107106781186
 20
12.7071067811866
 11
145.992893218813
 21
12.7071067811866
  0
LINE
  5
212
100
AcDbEntity
  8
0
100
AcDbLine
  6
BYLAYER
 62
3
 10
131.107106781186
 20
18.7071067811866
 11
145.992893218813
 21
18.7071067811866
  0
LINE
  5
213
100
AcDbEntity
  8
0
100
AcDbLine
  6
BYLAYER
 62
3
 10
98.5071067811866
 20
0.707106781186553
 11
113.392893218813
 21
0.707106781186553
  0
LINE
  5
214
100
AcDbEntity
  8
0
100
AcDbLine
  6
BYLAYER
 62
3
 10
98.5071067811866
 20
6.70710678118655
 11
113.392893218813
 21
6.70710678118655
  0
LINE
  5
215
100
AcDbEntity
  8
0
100
AcDbLine
  6
BYLAYER
 62
3
 10
98.5071067811866
 20
12.7071067811866
 11
113.392893218813
 21
12.7071067811866
  0
LINE
  5
216
100
AcDbEntity
  8
0
100
AcDbLine
  6
BYLAYER
 62
3
 10
98.5071067811866
 20
18.7071067811866
 11
113.392893218813
 21
18.7071067811866
  0
LINE
  5
217
100
AcDbEntity
  8
0
100
AcDbLine
  6
BYLAYER
 62
3
 10
82.2071067811865
 20
0.707106781186553
 11
97.0928932188135
 21
0.707106781186553
  0
LINE
  5
218
100
AcDbEntity
  8
0
100
AcDbLine
  6
BYLAYER
 62
3
 10
82.2071067811865
 20
6.70710678118655
 11
97.0928932188135
 21
6.70710678118655
  0
LINE
  5
219
100
AcDbEntity
  8
0
100
AcDbLine
  6
BYLAYER
 62
3
 10
82.2071067811865
 20
12.7071067811866
 11
97.0928932188135
 21
12.7071067811866
  0
LINE
  5
21A
100
AcDbEntity
  8
0
100
AcDbLine
  6
BYLAYER
 62
3
 10
82.2071067811865
 20
18.7071067811866
 11
97.0928932188135
 21
18.7071067811866
  0
LINE
  5
21B
100
AcDbEntity
  8
0
100
AcDbLine
  6
BYLAYER
 62
3
 10
114.807106781187
 20
0.707106781186553
 11
129.692893218813
 21
0.707106781186553
  0
LINE
  5
21C
100
AcDbEntity
  8
0
100
AcDbLine
  6
BYLAYER
 62
3
 10
114.807106781187
 20
6.70710678118655
 11
129.692893218813
 21
6.70710678118655
  0
LINE
  5
21D
100
AcDbEntity
  8
0
100
AcDbLine
  6
BYLAYER
 62
3
 10
114.807106781187
 20
12.7071067811866
 11
129.692893218813
 21
12.7071067811866
  0
LINE
  5
21E
100
AcDbEntity
  8
0
100
AcDbLine
  6
BYLAYER
 62
3
 10
114.807106781187
 20
18.7071067811866
 11
129.692893218813
 21
18.7071067811866
  0
LINE
  5
21F
100
AcDbEntity
  8
0
100
AcDbLine
  6
BYLAYER
 62
3
 10
163.707106781186
 20
0.707106781186553
 11
178.592893218813
 21
0.707106781186553
  0
LINE
  5
220
100
AcDbEntity
  8
0
100
AcDbLine
  6
BYLAYER
 62
3
 10
163.707106781186
 20
6.70710678118655
 11
178.592893218813
 21
6.70710678118655
  0
LINE
  5
221
100
AcDbEntity
  8
0
100
AcDbLine
  6
BYLAYER
 62
3
 10
163.707106781186
 20
12.7071067811866
 11
178.592893218813
 21
12.7071067811866
  0
LINE
  5
222
100
AcDbEntity
  8
0
100
AcDbLine
  6
BYLAYER
 62
3
 10
163.707106781186
 20
18.7071067811866
 11
178.592893218813
 21
18.7071067811866
  0
LINE
  5
223
100
AcDbEntity
  8
0
100
AcDbLine
  6
BYLAYER
 62
3
 10
147.407106781187
 20
0.707106781186553
 11
162.292893218814
 21
0.707106781186553
  0
LINE
  5
224
100
AcDbEntity
  8
0
100
AcDbLine
  6
BYLAYER
 62
3
 10
147.407106781187
 20
6.70710678118655
 11
162.292893218814
 21
6.70710678118655
  0
LINE
  5
225
100
AcDbEntity
  8
0
100
AcDbLine
  6
BYLAYER
 62
3
 10
147.407106781187
 20
12.7071067811866
 11
162.292893218814
 21
12.7071067811866
  0
LINE
  5
226
100
AcDbEntity
  8
0
100
AcDbLine
  6
BYLAYER
 62
3
 10
147.407106781187
 20
18.7071067811866
 11
162.292893218814
 21
18.7071067811866
  0
LINE
  5
227
100
AcDbEntity
  8
0
100
AcDbLine
  6
BYLAYER
 62
3
 10
180.007106781186
 20
0.707106781186553
 11
194.892893218813
 21
0.707106781186553
  0
LINE
  5
228
100
AcDbEntity
  8
0
100
AcDbLine
  6
BYLAYER
 62
3
 10
180.007106781186
 20
6.70710678118655
 11
194.892893218813
 21
6.70710678118655
  0
LINE
  5
229
100
AcDbEntity
  8
0
100
AcDbLine
  6
BYLAYER
 62
3
 10
180.007106781186
 20
12.7071067811866
 11
194.892893218813
 21
12.7071067811866
  0
LINE
  5
22A
100
AcDbEntity
  8
0
100
AcDbLine
  6
BYLAYER
 62
3
 10
180.007106781186
 20
18.7071067811866
 11
194.892893218813
 21
18.7071067811866
  0
LINE
  5
22B
100
AcDbEntity
  8
0
100
AcDbLine
  6
BYLAYER
 62
3
 10
131.107106781186
 20
24.7071067811866
 11
145.992893218813
 21
24.7071067811866
  0
LINE
  5
22C
100
AcDbEntity
  8
0
100
AcDbLine
  6
BYLAYER
 62
3
 10
131.107106781186
 20
30.7071067811865
 11
145.992893218813
 21
30.7071067811865
  0
LINE
  5
22D
100
AcDbEntity
  8
0
100
AcDbLine
  6
BYLAYER
 62
3
 10
131.107106781186
 20
36.7071067811866
 11
145.992893218813
 21
36.7071067811866
  0
LINE
  5
22E
100
AcDbEntity
  8
0
100
AcDbLine
  6
BYLAYER
 62
3
 10
98.5071067811866
 20
24.7071067811866
 11
113.392893218813
 21
24.7071067811866
  0
LINE
  5
22F
100
AcDbEntity
  8
0
100
AcDbLine
  6
BYLAYER
 62
3
 10
98.5071067811866
 20
30.7071067811865
 11
113.392893218813
 21
30.7071067811865
  0
LINE
  5
230
100
AcDbEntity
  8
0
100
AcDbLine
  6
BYLAYER
 62
3
 10
98.5071067811866
 20
36.7071067811866
 11
113.392893218813
 21
36.7071067811866
  0
LINE
  5
231
100
AcDbEntity
  8
0
100
AcDbLine
  6
BYLAYER
 62
3
 10
82.2071067811865
 20
24.7071067811866
 11
97.0928932188135
 21
24.7071067811866
  0
LINE
  5
232
100
AcDbEntity
  8
0
100
AcDbLine
  6
BYLAYER
 62
3
 10
82.2071067811865
 20
30.7071067811865
 11
97.0928932188135
 21
30.7071067811865
  0
LINE
  5
233
100
AcDbEntity
  8
0
100
AcDbLine
  6
BYLAYER
 62
3
 10
82.2071067811865
 20
36.7071067811866
 11
97.0928932188135
 21
36.7071067811866
  0
TEXT
  5
234
100
AcDbEntity
  8
0
100
AcDbText
  6
BYLAYER
 10
89
 20
43.5
 40
3
  1
D
  7
Font_0
100
AcDbText
  0
TEXT
  5
235
100
AcDbEntity
  8
0
100
AcDbText
  6
BYLAYER
 10
105.3
 20
43.5
 40
3
  1
E
  7
Font_0
100
AcDbText
  0
LINE
  5
236
100
AcDbEntity
  8
0
100
AcDbLine
  6
BYLAYER
 62
3
 10
114.807106781187
 20
24.7071067811866
 11
129.692893218813
 21
24.7071067811866
  0
LINE
  5
237
100
AcDbEntity
  8
0
100
AcDbLine
  6
BYLAYER
 62
3
 10
114.807106781187
 20
30.7071067811865
 11
129.692893218813
 21
30.7071067811865
  0
LINE
  5
238
100
AcDbEntity
  8
0
100
AcDbLine
  6
BYLAYER
 62
3
 10
114.807106781187
 20
36.7071067811866
 11
129.692893218813
 21
36.7071067811866
  0
TEXT
  5
239
100
AcDbEntity
  8
0
100
AcDbText
  6
BYLAYER
 10
121.8
 20
43.5
 40
3
  1
F
  7
Font_0
100
AcDbText
  0
TEXT
  5
23A
100
AcDbEntity
  8
0
100
AcDbText
  6
BYLAYER
 10
137.8
 20
43.5
 40
3
  1
G
  7
Font_0
100
AcDbText
  0
LINE
  5
23B
100
AcDbEntity
  8
0
100
AcDbLine
  6
BYLAYER
 62
3
 10
163.707106781186
 20
24.7071067811866
 11
178.592893218813
 21
24.7071067811866
  0
LINE
  5
23C
100
AcDbEntity
  8
0
100
AcDbLine
  6
BYLAYER
 62
3
 10
163.707106781186
 20
30.7071067811865
 11
178.592893218813
 21
30.7071067811865
  0
LINE
  5
23D
100
AcDbEntity
  8
0
100
AcDbLine
  6
BYLAYER
 62
3
 10
163.707106781186
 20
36.7071067811866
 11
178.592893218813
 21
36.7071067811866
  0
LINE
  5
23E
100
AcDbEntity
  8
0
100
AcDbLine
  6
BYLAYER
 62
3
 10
147.407106781187
 20
24.7071067811866
 11
162.292893218814
 21
24.7071067811866
  0
LINE
  5
23F
100
AcDbEntity
  8
0
100
AcDbLine
  6
BYLAYER
 62
3
 10
147.407106781187
 20
30.7071067811865
 11
162.292893218814
 21
30.7071067811865
  0
LINE
  5
240
100
AcDbEntity
  8
0
100
AcDbLine
  6
BYLAYER
 62
3
 10
147.407106781187
 20
36.7071067811866
 11
162.292893218814
 21
36.7071067811866
  0
TEXT
  5
241
100
AcDbEntity
  8
0
100
AcDbText
  6
BYLAYER
 10
153.5
 20
43.5
 40
3
  1
H
  7
Font_0
100
AcDbText
  0
TEXT
  5
242
100
AcDbEntity
  8
0
100
AcDbText
  6
BYLAYER
 10
171.5
 20
43.5
 40
3
  1
I
  7
Font_0
100
AcDbText
  0
LINE
  5
243
100
AcDbEntity
  8
0
100
AcDbLine
  6
BYLAYER
 62
3
 10
180.007106781186
 20
24.7071067811866
 11
194.892893218813
 21
24.7071067811866
  0
LINE
  5
244
100
AcDbEntity
  8
0
100
AcDbLine
  6
BYLAYER
 62
3
 10
180.007106781186
 20
30.7071067811865
 11
194.892893218813
 21
30.7071067811865
  0
LINE
  5
245
100
AcDbEntity
  8
0
100
AcDbLine
  6
BYLAYER
 62
3
 10
180.007106781186
 20
36.7071067811866
 11
194.892893218813
 21
36.7071067811866
  0
TEXT
  5
246
100
AcDbEntity
  8
0
100
AcDbText
  6
BYLAYER
 10
186.6
 20
43.5
 40
3
  1
J
  7
Font_0
100
AcDbText
  0
TEXT
  5
247
100
AcDbEntity
  8
0
100
AcDbText
  6
BYLAYER
 10
202.5
 20
43.5
 40
3
  1
K
  7
Font_0
100
AcDbText
  0
LINE
  5
248
100
AcDbEntity
  8
0
100
AcDbLine
  6
BYLAYER
 10
244.5
 20
48
 11
244.5
 21
0
  0
LINE
  5
249
100
AcDbEntity
  8
0
100
AcDbLine
  6
BYLAYER
 10
211.9
 20
48
 11
211.9
 21
0
  0
LINE
  5
24A
100
AcDbEntity
  8
0
100
AcDbLine
  6
BYLAYER
 10
228.2
 20
48
 11
228.2
 21
0
  0
LINE
  5
24B
100
AcDbEntity
  8
0
100
AcDbLine
  6
BYLAYER
 62
3
 10
228.907106781187
 20
0.707106781186553
 11
243.792893218814
 21
0.707106781186553
  0
LINE
  5
24C
100
AcDbEntity
  8
0
100
AcDbLine
  6
BYLAYER
 62
3
 10
228.907106781187
 20
6.70710678118655
 11
243.792893218814
 21
6.70710678118655
  0
LINE
  5
24D
100
AcDbEntity
  8
0
100
AcDbLine
  6
BYLAYER
 62
3
 10
228.907106781187
 20
12.7071067811866
 11
243.792893218814
 21
12.7071067811866
  0
LINE
  5
24E
100
AcDbEntity
  8
0
100
AcDbLine
  6
BYLAYER
 62
3
 10
228.907106781187
 20
18.7071067811866
 11
243.792893218814
 21
18.7071067811866
  0
LINE
  5
24F
100
AcDbEntity
  8
0
100
AcDbLine
  6
BYLAYER
 62
3
 10
212.607106781186
 20
0.707106781186553
 11
227.492893218814
 21
0.707106781186553
  0
LINE
  5
250
100
AcDbEntity
  8
0
100
AcDbLine
  6
BYLAYER
 62
3
 10
212.607106781186
 20
6.70710678118655
 11
227.492893218814
 21
6.70710678118655
  0
LINE
  5
251
100
AcDbEntity
  8
0
100
AcDbLine
  6
BYLAYER
 62
3
 10
212.607106781186
 20
12.7071067811866
 11
227.492893218814
 21
12.7071067811866
  0
LINE
  5
252
100
AcDbEntity
  8
0
100
AcDbLine
  6
BYLAYER
 62
3
 10
212.607106781186
 20
18.7071067811866
 11
227.492893218814
 21
18.7071067811866
  0
LINE
  5
253
100
AcDbEntity
  8
0
100
AcDbLine
  6
BYLAYER
 62
3
 10
228.907106781187
 20
24.7071067811866
 11
243.792893218814
 21
24.7071067811866
  0
LINE
  5
254
100
AcDbEntity
  8
0
100
AcDbLine
  6
BYLAYER
 62
3
 10
228.907106781187
 20
30.7071067811865
 11
243.792893218814
 21
30.7071067811865
  0
LINE
  5
255
100
AcDbEntity
  8
0
100
AcDbLine
  6
BYLAYER
 62
3
 10
228.907106781187
 20
36.7071067811866
 11
243.792893218814
 21
36.7071067811866
  0
LINE
  5
256
100
AcDbEntity
  8
0
100
AcDbLine
  6
BYLAYER
 62
3
 10
212.607106781186
 20
24.7071067811866
 11
227.492893218814
 21
24.7071067811866
  0
LINE
  5
257
100
AcDbEntity
  8
0
100
AcDbLine
  6
BYLAYER
 62
3
 10
212.607106781186
 20
30.7071067811865
 11
227.492893218814
 21
30.7071067811865
  0
LINE
  5
258
100
AcDbEntity
  8
0
100
AcDbLine
  6
BYLAYER
 62
3
 10
212.607106781186
 20
36.7071067811866
 11
227.492893218814
 21
36.7071067811866
  0
TEXT
  5
259
100
AcDbEntity
  8
0
100
AcDbText
  6
BYLAYER
 10
219
 20
43.5
 40
3
  1
L
  7
Font_0
100
AcDbText
  0
TEXT
  5
25A
100
AcDbEntity
  8
0
100
AcDbText
  6
BYLAYER
 10
233.270544856686
 20
43.5
 40
3
  1
ｫﾈ､�
  7
Font_0
100
AcDbText
  0
ENDBLK
  5
25B
100
AcDbEntity
  8
0
 67
     1
100
AcDbBlockEnd
  0
BLOCK
  5
25C
100
AcDbEntity
  8
0
100
AcDbBlockBegin
  2
BASE
 70
    0
 10
0
 20
0
 30
0.0
  3
BASE
  1

  0
LINE
  5
25D
100
AcDbEntity
  8
0
100
AcDbLine
  6
BYLAYER
 10
0
 20
36
 11
278.4
 21
36
  0
LINE
  5
25E
100
AcDbEntity
  8
0
100
AcDbLine
  6
BYLAYER
 10
0
 20
12
 11
278.4
 21
12
  0
LINE
  5
25F
100
AcDbEntity
  8
0
100
AcDbLine
  6
BYLAYER
 10
0
 20
6
 11
278.4
 21
6
  0
LINE
  5
260
100
AcDbEntity
  8
0
100
AcDbLine
  6
BYLAYER
 10
0
 20
0
 11
278.4
 21
0
  0
LINE
  5
261
100
AcDbEntity
  8
0
100
AcDbLine
  6
BYLAYER
 10
278.4
 20
186
 11
0
 21
186
  0
LINE
  5
262
100
AcDbEntity
  8
0
100
AcDbLine
  6
BYLAYER
 10
96.85
 20
30
 11
278.4
 21
30
  0
LINE
  5
263
100
AcDbEntity
  8
0
100
AcDbLine
  6
BYLAYER
 10
96.85
 20
24
 11
278.4
 21
24
  0
LINE
  5
264
100
AcDbEntity
  8
0
100
AcDbLine
  6
BYLAYER
 10
96.85
 20
18
 11
278.4
 21
18
  0
LINE
  5
265
100
AcDbEntity
  8
0
100
AcDbLine
  6
BYLAYER
 10
0
 20
0
 11
0
 21
186
  0
TEXT
  5
266
100
AcDbEntity
  8
0
100
AcDbText
  6
BYLAYER
 10
22.1680110084321
 20
15.7553550725962
 40
2.8
  1
CAM YORK INDUSTRIAL CO.,LTD.
  7
Font_0
100
AcDbText
  0
TEXT
  5
267
100
AcDbEntity
  8
0
100
AcDbText
  6
BYLAYER
 10
22.0468952754036
 20
26
 40
7
  1
ｫﾘｷﾔ､uｷ~ｪﾑ･ｳｭｭ､ｽ･q
  7
Font_0
100
AcDbText
  0
TEXT
  5
268
100
AcDbEntity
  8
0
100
AcDbText
  6
BYLAYER
 10
63.8643398403977
 20
7.09411371042404
 40
2.8
  1
(04)3322629
  7
Font_0
100
AcDbText
  0
LINE
  5
269
100
AcDbEntity
  8
0
100
AcDbLine
  6
BYLAYER
 10
10.1054905349494
 20
28.7603510666656
 11
15.2233703294355
 21
28.7603510666656
  0
CIRCLE
  5
26A
100
AcDbEntity
  8
0
100
AcDbCircle
  6
BYLAYER
 10
10.1054905349494
 20
24.350263158651
 40
9.36463111331499
  0
CIRCLE
  5
26B
100
AcDbEntity
  8
0
100
AcDbCircle
  6
BYLAYER
 10
10.1054905349494
 20
24.350263158651
 40
7.62237416200057
  0
ARC
  5
26C
100
AcDbEntity
  8
0
100
AcDbCircle
  6
BYLAYER
 10
10.1054905349494
 20
24.350263158651
 40
4.41008790801462
100
AcDbArc
 50
90
 51
0
  0
LINE
  5
26D
100
AcDbEntity
  8
0
100
AcDbLine
  6
BYLAYER
 10
13
 20
12
 11
13
 21
0
  0
TEXT
  5
26E
100
AcDbEntity
  8
0
100
AcDbText
  6
BYLAYER
 10
2.6
 20
7.3
 40
3
  1
TEL
  7
Font_0
100
AcDbText
  0
TEXT
  5
26F
100
AcDbEntity
  8
0
100
AcDbText
  6
BYLAYER
 10
3.5
 20
1.5
 40
3
  1
ｳﾆｵ�
  7
Font_0
 72
1
 11
6.5
 21
3
100
AcDbText
 73
2
  0
ARC
  5
270
100
AcDbEntity
  8
0
100
AcDbCircle
  6
BYLAYER
 10
10.5745216067836
 20
32.8983997393573
 40
0.704372460813671
100
AcDbArc
 50
83.8529806316668
 51
239.250071636948
  0
ARC
  5
271
100
AcDbEntity
  8
0
100
AcDbCircle
  6
BYLAYER
 10
6.23761506796892
 20
31.9876821284788
 40
0.704372460813671
100
AcDbArc
 50
113.852980631667
 51
269.250071636948
  0
ARC
  5
272
100
AcDbEntity
  8
0
100
AcDbCircle
  6
BYLAYER
 10
2.46807156512152
 20
20.4823876916705
 40
0.704372460813671
100
AcDbArc
 50
203.852980631667
 51
359.250071636948
  0
ARC
  5
273
100
AcDbEntity
  8
0
100
AcDbCircle
  6
BYLAYER
 10
9.63645946311512
 20
15.8021265779447
 40
0.704372460813671
100
AcDbArc
 50
263.852980631667
 51
59.2500716369476
  0
ARC
  5
274
100
AcDbEntity
  8
0
100
AcDbCircle
  6
BYLAYER
 10
5.4252294212235
 20
17.1818752606574
 40
0.704372460813671
100
AcDbArc
 50
233.852980631667
 51
29.2500716369476
  0
ARC
  5
275
100
AcDbEntity
  8
0
100
AcDbCircle
  6
BYLAYER
 10
1.55735395424306
 20
24.8192942304852
 40
0.704372460813671
100
AcDbArc
 50
173.852980631667
 51
329.250071636948
  0
ARC
  5
276
100
AcDbEntity
  8
0
100
AcDbCircle
  6
BYLAYER
 10
2.93710263695578
 20
29.0305242723768
 40
0.704372460813671
100
AcDbArc
 50
143.852980631667
 51
299.250071636948
  0
TEXT
  5
277
100
AcDbEntity
  8
0
100
AcDbText
  6
BYLAYER
 10
7.49210581170385
 20
21.8477388856442
 40
5
  1
Y
  7
Font_0
100
AcDbText
  0
TEXT
  5
278
100
AcDbEntity
  8
0
100
AcDbText
  6
BYLAYER
 10
42.3478047909238
 20
7.2
 40
2.8
  1
~8
  7
Font_0
100
AcDbText
  0
TEXT
  5
279
100
AcDbEntity
  8
0
100
AcDbText
  6
BYLAYER
 10
13.8764304985659
 20
7.2
 40
2.8
  1
(04)3322627
  7
Font_0
100
AcDbText
  0
TEXT
  5
27A
100
AcDbEntity
  8
0
100
AcDbText
  6
BYLAYER
 10
51
 20
7.2
 40
3
  1
FAX
  7
Font_0
100
AcDbText
  0
LINE
  5
27B
100
AcDbEntity
  8
0
100
AcDbLine
  6
BYLAYER
 10
48
 20
12
 11
48
 21
6
  0
LINE
  5
27C
100
AcDbEntity
  8
0
100
AcDbLine
  6
BYLAYER
 10
62
 20
12
 11
62
 21
6
  0
ARC
  5
27D
100
AcDbEntity
  8
0
100
AcDbCircle
  6
BYLAYER
 10
14.7857516486752
 20
31.5186510566446
 40
0.704372460813671
100
AcDbArc
 50
53.8529806316668
 51
209.250071636948
  0
ARC
  5
27E
100
AcDbEntity
  8
0
100
AcDbCircle
  6
BYLAYER
 10
17.273878432943
 20
19.6700020449251
 40
0.704372460813671
100
AcDbArc
 50
323.852980631667
 51
119.250071636948
  0
ARC
  5
27F
100
AcDbEntity
  8
0
100
AcDbCircle
  6
BYLAYER
 10
13.9733660019298
 20
16.7128441888231
 40
0.704372460813671
100
AcDbArc
 50
293.852980631667
 51
89.2500716369476
  0
LINE
  5
280
100
AcDbEntity
  8
0
100
AcDbLine
  6
BYLAYER
 10
14.515578442964
 20
24.350263158651
 11
15.4411524483498
 21
24.350263158651
  0
ARC
  5
281
100
AcDbEntity
  8
0
100
AcDbCircle
  6
BYLAYER
 10
18.6536271156557
 20
23.8812320868167
 40
0.704372460813671
100
AcDbArc
 50
353.852980631667
 51
149.250071636948
  0
ARC
  5
282
100
AcDbEntity
  8
0
100
AcDbCircle
  6
BYLAYER
 10
17.7429095047772
 20
28.2181386256314
 40
0.704372460813671
100
AcDbArc
 50
23.8529806316668
 51
179.250071636948
  0
TEXT
  5
283
100
AcDbEntity
  8
0
100
AcDbText
  6
BYLAYER
 10
100.4
 20
7.4
 40
3
  1
ｫ~ ｦW
  7
Font_0
100
AcDbText
  0
LINE
  5
284
100
AcDbEntity
  8
0
100
AcDbLine
  6
BYLAYER
 10
144
 20
36
 11
144
 21
0
  0
LINE
  5
285
100
AcDbEntity
  8
0
100
AcDbLine
  6
BYLAYER
 10
114
 20
36
 11
114
 21
0
  0
LINE
  5
286
100
AcDbEntity
  8
0
100
AcDbLine
  6
BYLAYER
 10
97.15
 20
36
 11
97.15
 21
0
  0
LINE
  5
287
100
AcDbEntity
  8
0
100
AcDbLine
  6
BYLAYER
 10
96.85
 20
36
 11
96.85
 21
0
  0
TEXT
  5
288
100
AcDbEntity
  8
0
100
AcDbText
  6
BYLAYER
 10
100.4
 20
1.6
 40
3
  1
ｹﾏ ｸｹ
  7
Font_0
100
AcDbText
  0
TEXT
  5
289
100
AcDbEntity
  8
0
100
AcDbText
  6
BYLAYER
 10
100.4
 20
31.6
 40
3
  1
･D ｺﾞ
  7
Font_0
100
AcDbText
  0
TEXT
  5
28A
100
AcDbEntity
  8
0
100
AcDbText
  6
BYLAYER
 10
100.4
 20
19.6
 40
3
  1
ﾃｸ ｹﾏ
  7
Font_0
100
AcDbText
  0
TEXT
  5
28B
100
AcDbEntity
  8
0
100
AcDbText
  6
BYLAYER
 10
100.4
 20
13.8
 40
3
  1
ｾ� ｺﾘ
  7
Font_0
100
AcDbText
  0
TEXT
  5
28C
100
AcDbEntity
  8
0
100
AcDbText
  6
BYLAYER
 10
100.4
 20
25.4
 40
3
  1
ｮﾖ ｹ�
  7
Font_0
100
AcDbText
  0
LINE
  5
28D
100
AcDbEntity
  8
0
100
AcDbLine
  6
BYLAYER
 10
195.15
 20
36
 11
195.15
 21
0
  0
LINE
  5
28E
100
AcDbEntity
  8
0
100
AcDbLine
  6
BYLAYER
 10
194.85
 20
36
 11
194.85
 21
0
  0
LINE
  5
28F
100
AcDbEntity
  8
0
100
AcDbLine
  6
BYLAYER
 10
195.025
 20
36
 11
195.025
 21
0
  0
LINE
  5
290
100
AcDbEntity
  8
0
100
AcDbLine
  6
BYLAYER
 10
163
 20
36
 11
163
 21
0
  0
TEXT
  5
291
100
AcDbEntity
  8
0
100
AcDbText
  6
BYLAYER
 10
146.967830348543
 20
7.5
 40
3
  1
ｪ揵ｱｳBｲz
  7
Font_0
100
AcDbText
  0
TEXT
  5
292
100
AcDbEntity
  8
0
100
AcDbText
  6
BYLAYER
 10
146.967830348543
 20
1.5
 40
3
  1
ｻsｹﾏ､魘ﾁ
  7
Font_0
100
AcDbText
  0
TEXT
  5
293
100
AcDbEntity
  8
0
100
AcDbText
  6
BYLAYER
 10
148.5
 20
31.5
 40
3
  1
ｧ� ｽ�
  7
Font_0
100
AcDbText
  0
TEXT
  5
294
100
AcDbEntity
  8
0
100
AcDbText
  6
BYLAYER
 10
148.5
 20
19.5
 40
3
  1
ｼﾆ ｶq
  7
Font_0
100
AcDbText
  0
TEXT
  5
295
100
AcDbEntity
  8
0
100
AcDbText
  6
BYLAYER
 10
148.5
 20
13.5
 40
3
  1
ｳ� ｦ�
  7
Font_0
100
AcDbText
  0
TEXT
  5
296
100
AcDbEntity
  8
0
100
AcDbText
  6
BYLAYER
 10
148.5
 20
25.5
 40
3
  1
､� ｨﾒ
  7
Font_0
100
AcDbText
  0
TEXT
  5
297
100
AcDbEntity
  8
0
100
AcDbText
  6
BYLAYER
 10
200.830454348633
 20
31.5
 40
3
  1
､魘ﾁ
  7
Font_0
100
AcDbText
  0
LINE
  5
298
100
AcDbEntity
  8
0
100
AcDbLine
  6
BYLAYER
 10
278.4
 20
186
 11
278.4
 21
0
  0
LINE
  5
299
100
AcDbEntity
  8
0
100
AcDbLine
  6
BYLAYER
 10
269.7178125
 20
135.285
 11
269.7178125
 21
151.27125
  0
LINE
  5
29A
100
AcDbEntity
  8
0
100
AcDbLine
  6
BYLAYER
 10
261.035625
 20
135.285
 11
261.035625
 21
151.27125
  0
LINE
  5
29B
100
AcDbEntity
  8
0
100
AcDbLine
  6
BYLAYER
 10
252.3534375
 20
135.285
 11
252.3534375
 21
151.27125
  0
LINE
  5
29C
100
AcDbEntity
  8
0
100
AcDbLine
  6
BYLAYER
 10
243.67125
 20
135.285
 11
243.67125
 21
180.4875
  0
LINE
  5
29D
100
AcDbEntity
  8
0
100
AcDbLine
  6
BYLAYER
 10
221.07
 20
135.285
 11
221.07
 21
180.4875
  0
LINE
  5
29E
100
AcDbEntity
  8
0
100
AcDbLine
  6
BYLAYER
 10
216.66
 20
135.285
 11
216.66
 21
186
  0
LINE
  5
29F
100
AcDbEntity
  8
0
100
AcDbLine
  6
BYLAYER
 10
213
 20
36
 11
213
 21
0
  0
LINE
  5
2A0
100
AcDbEntity
  8
0
100
AcDbLine
  6
BYLAYER
 10
232
 20
36
 11
232
 21
0
  0
TEXT
  5
2A1
100
AcDbEntity
  8
0
100
AcDbText
  6
BYLAYER
 10
235
 20
31.5
 40
3
  1
ｧ�   ｧ�   ､ｺ   ｮe
  7
Font_0
100
AcDbText
  0
TEXT
  5
2A2
100
AcDbEntity
  8
0
100
AcDbText
  6
BYLAYER
 10
218.659856969007
 20
31.5
 40
3
  1
ｭtｳd､H
  7
Font_0
100
AcDbText
  0
LINE
  5
2A3
100
AcDbEntity
  8
0
100
AcDbLine
  6
BYLAYER
 10
278.4
 20
139.695
 11
221.07
 21
139.695
  0
LINE
  5
2A4
100
AcDbEntity
  8
0
100
AcDbLine
  6
BYLAYER
 10
278.4
 20
135.285
 11
216.66
 21
135.285
  0
TEXT
  5
2A5
100
AcDbEntity
  8
0
100
AcDbText
  6
BYLAYER
 10
246.15416478566
 20
128.207003496756
 40
2
  1
projection ｲﾄ､Tｨ､ｧ�ｼv
  7
Font_0
100
AcDbText
  0
LINE
  5
2A6
100
AcDbEntity
  8
0
100
AcDbLine
  6
BYLAYER
 10
278.4
 20
113.78625
 11
243.67125
 21
113.78625
  0
TEXT
  5
2A7
100
AcDbEntity
  8
0
100
AcDbText
  6
BYLAYER
 10
271.4339125
 20
144.733125
 40
1.5
  1
100･H､W
  7
Font_0
 72
1
 11
274.0589125
 21
145.483125
100
AcDbText
 73
2
  0
TEXT
  5
2A8
100
AcDbEntity
  8
0
100
AcDbText
  6
BYLAYER
 10
272.1839125
 20
136.74
 40
1.5
  1
±10'
  7
Font_0
 72
1
 11
274.0589125
 21
137.49
100
AcDbText
 73
2
  0
MTEXT
  5
2A9
100
AcDbEntity
  8
0
100
AcDbMText
 10
232.37065
 20
145.483125
 40
2
 41
  0.0
  1
､ｽｺﾙ､ﾘ､o (ｪﾗ)\Pｧｨｦｨｨ､､ｧｵuﾃ荀@､�
 71
5
  7
Font_0
  0
TEXT
  5
2AA
100
AcDbEntity
  8
0
100
AcDbText
  6
BYLAYER
 10
217.365
 20
147.778125
 40
3
  1
ｪｽｨ､ｫﾗ
  7
Font_1
 50
270
 11
218.865
 21
147.778125
100
AcDbText
 73
2
  0
TEXT
  5
2AB
100
AcDbEntity
  8
0
100
AcDbText
  6
BYLAYER
 10
227.87065
 20
135.99
 40
3
  1
ｨ､ｫﾗｮt
  7
Font_0
 72
1
 11
232.37065
 21
137.49
100
AcDbText
 73
2
  0
LINE
  5
2AC
100
AcDbEntity
  8
0
100
AcDbLine
  6
BYLAYER
 10
254.802068029839
 20
115.173423624616
 11
254.802068029839
 21
126.198423624616
  0
LINE
  5
2AD
100
AcDbEntity
  8
0
100
AcDbLine
  6
BYLAYER
 10
243.67125
 20
113.78625
 11
243.67125
 21
135.285
  0
CIRCLE
  5
2AE
100
AcDbEntity
  8
0
100
AcDbCircle
  6
BYLAYER
 10
254.802068029839
 20
120.685923624616
 40
4.41
  0
LINE
  5
2AF
100
AcDbEntity
  8
0
100
AcDbLine
  6
BYLAYER
 10
249.289568029839
 20
120.685923624616
 11
260.314568029839
 21
120.685923624616
  0
CIRCLE
  5
2B0
100
AcDbEntity
  8
0
100
AcDbCircle
  6
BYLAYER
 10
254.802068029839
 20
120.685923624616
 40
2.205
  0
LINE
  5
2B1
100
AcDbEntity
  8
0
100
AcDbLine
  6
BYLAYER
 10
263.194180551461
 20
120.685923624616
 11
274.770430551461
 21
120.685923624616
  0
LWPOLYLINE
  5
2B2
100
AcDbEntity
  8
0
100
AcDbPolyline
  6
BYLAYER
370
0
 90
     4
 70
     1
 10
264.296680551461
  20
118.480923624616
 10
273.667930551461
  20
116.275923624616
 10
273.667930551461
  20
125.095923624616
 10
264.296680551461
  20
122.890923624616
  0
TEXT
  5
2B3
100
AcDbEntity
  8
0
100
AcDbText
  6
BYLAYER
 10
245.828721587618
 20
131.605971951227
 40
2
  1
Third angle
  7
Font_0
100
AcDbText
  0
MTEXT
  5
2B4
100
AcDbEntity
  8
0
100
AcDbMText
 10
256.6945375
 20
145.483125
 40
1.5
 41
  0.0
  1
10･H､W\P50･H､U
 71
5
  7
Font_0
  0
TEXT
  5
2B5
100
AcDbEntity
  8
0
100
AcDbText
  6
BYLAYER
 10
246.13735
 20
136.74
 40
1.5
  1
±1°
  7
Font_0
 72
1
 11
248.01235
 21
137.49
100
AcDbText
 73
2
  0
TEXT
  5
2B6
100
AcDbEntity
  8
0
100
AcDbText
  6
BYLAYER
 10
254.8195375
 20
136.74
 40
1.5
  1
±30'
  7
Font_0
 72
1
 11
256.6945375
 21
137.49
100
AcDbText
 73
2
  0
TEXT
  5
2B7
100
AcDbEntity
  8
0
100
AcDbText
  6
BYLAYER
 10
245.76235
 20
144.733125
 40
1.5
  1
10･H､U
  7
Font_0
 72
1
 11
248.01235
 21
145.483125
100
AcDbText
 73
2
  0
TEXT
  5
2B8
100
AcDbEntity
  8
0
100
AcDbText
  6
BYLAYER
 10
263.501725
 20
136.74
 40
1.5
  1
±20'
  7
Font_0
 72
1
 11
265.376725
 21
137.49
100
AcDbText
 73
2
  0
MTEXT
  5
2B9
100
AcDbEntity
  8
0
100
AcDbMText
 10
265.376725
 20
145.483125
 40
1.5
 41
  0.0
  1
50･H､W\P100･H､U
 71
5
  7
Font_0
  0
LINE
  5
2BA
100
AcDbEntity
  8
0
100
AcDbLine
  6
BYLAYER
 10
221.07
 20
155.68125
 11
278.4
 21
155.68125
  0
LINE
  5
2BB
100
AcDbEntity
  8
0
100
AcDbLine
  6
BYLAYER
 10
221.07
 20
160.09125
 11
278.4
 21
160.09125
  0
LINE
  5
2BC
100
AcDbEntity
  8
0
100
AcDbLine
  6
BYLAYER
 10
221.07
 20
164.50125
 11
278.4
 21
164.50125
  0
LINE
  5
2BD
100
AcDbEntity
  8
0
100
AcDbLine
  6
BYLAYER
 10
221.07
 20
168.91125
 11
278.4
 21
168.91125
  0
LINE
  5
2BE
100
AcDbEntity
  8
0
100
AcDbLine
  6
BYLAYER
 10
221.07
 20
173.32125
 11
278.4
 21
173.32125
  0
LINE
  5
2BF
100
AcDbEntity
  8
0
100
AcDbLine
  6
BYLAYER
 10
216.66
 20
151.27125
 11
278.4
 21
151.27125
  0
LINE
  5
2C0
100
AcDbEntity
  8
0
100
AcDbLine
  6
BYLAYER
 10
216.66
 20
180.4875
 11
278.4
 21
180.4875
  0
TEXT
  5
2C1
100
AcDbEntity
  8
0
100
AcDbText
  6
BYLAYER
 10
269.1119
 20
175.154375
 40
3.5
  1
ｲﾊｯﾅ
  7
Font_0
 72
1
 11
272.6119
 21
176.904375
100
AcDbText
 73
2
  0
LINE
  5
2C2
100
AcDbEntity
  8
0
100
AcDbLine
  6
BYLAYER
 10
243.67125
 20
173.32125
 11
232.06971689676
 21
180.4875
  0
TEXT
  5
2C3
100
AcDbEntity
  8
0
100
AcDbText
  6
BYLAYER
 10
230.03
 20
181.49375
 40
3.5
  1
ｦｨ ｫ~ ､ｧ ｴｶ ｳq ､ｽ ｮt
  7
Font_0
 72
1
 11
247.53
 21
183.24375
100
AcDbText
 73
2
  0
TEXT
  5
2C4
100
AcDbEntity
  8
0
100
AcDbText
  6
BYLAYER
 10
228.24565
 20
170.36625
 40
1.5
  1
1･H､W~4･H､U
  7
Font_0
 72
1
 11
232.37065
 21
171.11625
100
AcDbText
 73
2
  0
TEXT
  5
2C5
100
AcDbEntity
  8
0
100
AcDbText
  6
BYLAYER
 10
227.49565
 20
161.54625
 40
1.5
  1
16･H､W~63･H､U
  7
Font_0
 72
1
 11
232.37065
 21
162.29625
100
AcDbText
 73
2
  0
TEXT
  5
2C6
100
AcDbEntity
  8
0
100
AcDbText
  6
BYLAYER
 10
227.12065
 20
157.13625
 40
1.5
  1
63･H､W~250･H､U
  7
Font_0
 72
1
 11
232.37065
 21
157.88625
100
AcDbText
 73
2
  0
TEXT
  5
2C7
100
AcDbEntity
  8
0
100
AcDbText
  6
BYLAYER
 10
226.37065
 20
152.72625
 40
1.5
  1
250･H､W~1000･H､U
  7
Font_0
 72
1
 11
232.37065
 21
153.47625
100
AcDbText
 73
2
  0
MTEXT
  5
2C8
100
AcDbEntity
  8
0
100
AcDbMText
 10
218.865
 20
168.879375
 40
3
 41
  0.0
  1
ｪﾗ
 71
4
  7
Font_1
 11
-1.83690953073357E-16
 21
-1
  0
TEXT
  5
2C9
100
AcDbEntity
  8
0
100
AcDbText
  6
BYLAYER
 10
227.87065
 20
165.95625
 40
1.5
  1
4･H､W~16･H､U
  7
Font_0
 72
1
 11
232.37065
 21
166.70625
100
AcDbText
 73
2
  0
TEXT
  5
2CA
100
AcDbEntity
  8
0
100
AcDbText
  6
BYLAYER
 10
221.354797302298
 20
174.015263609177
 40
1.7
  1
､ｽｺﾙ､ﾘ､oｹｺ､ﾀm/m
  7
Font_0
100
AcDbText
  0
TEXT
  5
2CB
100
AcDbEntity
  8
0
100
AcDbText
  6
BYLAYER
 10
237.865638127741
 20
177.454836298923
 40
1.7
  1
ｵ･ｯﾅ
  7
Font_0
100
AcDbText
  0
LINE
  5
2CC
100
AcDbEntity
  8
0
100
AcDbLine
  6
BYLAYER
 10
266.82375
 20
151.27125
 11
266.82375
 21
180.4875
  0
LINE
  5
2CD
100
AcDbEntity
  8
0
100
AcDbLine
  6
BYLAYER
 10
255.2475
 20
151.27125
 11
255.2475
 21
180.4875
  0
TEXT
  5
2CE
100
AcDbEntity
  8
0
100
AcDbText
  6
BYLAYER
 10
247.2094
 20
170.36625
 40
1.5
  1
±0.05
  7
Font_0
 72
1
 11
249.4594
 21
171.11625
100
AcDbText
 73
2
  0
TEXT
  5
2CF
100
AcDbEntity
  8
0
100
AcDbText
  6
BYLAYER
 10
258.78565
 20
170.36625
 40
1.5
  1
±0.10
  7
Font_0
 72
1
 11
261.03565
 21
171.11625
100
AcDbText
 73
2
  0
TEXT
  5
2D0
100
AcDbEntity
  8
0
100
AcDbText
  6
BYLAYER
 10
270.3619
 20
170.36625
 40
1.5
  1
±0.30
  7
Font_0
 72
1
 11
272.6119
 21
171.11625
100
AcDbText
 73
2
  0
TEXT
  5
2D1
100
AcDbEntity
  8
0
100
AcDbText
  6
BYLAYER
 10
258.78565
 20
165.95625
 40
1.5
  1
±0.20
  7
Font_0
 72
1
 11
261.03565
 21
166.70625
100
AcDbText
 73
2
  0
TEXT
  5
2D2
100
AcDbEntity
  8
0
100
AcDbText
  6
BYLAYER
 10
258.78565
 20
161.54625
 40
1.5
  1
±0.30
  7
Font_0
 72
1
 11
261.03565
 21
162.29625
100
AcDbText
 73
2
  0
TEXT
  5
2D3
100
AcDbEntity
  8
0
100
AcDbText
  6
BYLAYER
 10
258.78565
 20
157.13625
 40
1.5
  1
±0.50
  7
Font_0
 72
1
 11
261.03565
 21
157.88625
100
AcDbText
 73
2
  0
TEXT
  5
2D4
100
AcDbEntity
  8
0
100
AcDbText
  6
BYLAYER
 10
258.78565
 20
152.72625
 40
1.5
  1
±0.80
  7
Font_0
 72
1
 11
261.03565
 21
153.47625
100
AcDbText
 73
2
  0
TEXT
  5
2D5
100
AcDbEntity
  8
0
100
AcDbText
  6
BYLAYER
 10
247.2094
 20
157.13625
 40
1.5
  1
±0.20
  7
Font_0
 72
1
 11
249.4594
 21
157.88625
100
AcDbText
 73
2
  0
TEXT
  5
2D6
100
AcDbEntity
  8
0
100
AcDbText
  6
BYLAYER
 10
247.2094
 20
152.72625
 40
1.5
  1
±0.30
  7
Font_0
 72
1
 11
249.4594
 21
153.47625
100
AcDbText
 73
2
  0
TEXT
  5
2D7
100
AcDbEntity
  8
0
100
AcDbText
  6
BYLAYER
 10
247.2094
 20
165.95625
 40
1.5
  1
±0.07
  7
Font_0
 72
1
 11
249.4594
 21
166.70625
100
AcDbText
 73
2
  0
TEXT
  5
2D8
100
AcDbEntity
  8
0
100
AcDbText
  6
BYLAYER
 10
247.2094
 20
161.54625
 40
1.5
  1
±0.10
  7
Font_0
 72
1
 11
249.4594
 21
162.29625
100
AcDbText
 73
2
  0
TEXT
  5
2D9
100
AcDbEntity
  8
0
100
AcDbText
  6
BYLAYER
 10
270.3619
 20
152.72625
 40
1.5
  1
±2.00
  7
Font_0
 72
1
 11
272.6119
 21
153.47625
100
AcDbText
 73
2
  0
TEXT
  5
2DA
100
AcDbEntity
  8
0
100
AcDbText
  6
BYLAYER
 10
270.3619
 20
157.13625
 40
1.5
  1
±1.20
  7
Font_0
 72
1
 11
272.6119
 21
157.88625
100
AcDbText
 73
2
  0
TEXT
  5
2DB
100
AcDbEntity
  8
0
100
AcDbText
  6
BYLAYER
 10
270.3619
 20
161.54625
 40
1.5
  1
±0.70
  7
Font_0
 72
1
 11
272.6119
 21
162.29625
100
AcDbText
 73
2
  0
TEXT
  5
2DC
100
AcDbEntity
  8
0
100
AcDbText
  6
BYLAYER
 10
270.3619
 20
165.95625
 40
1.5
  1
±0.50
  7
Font_0
 72
1
 11
272.6119
 21
166.70625
100
AcDbText
 73
2
  0
TEXT
  5
2DD
100
AcDbEntity
  8
0
100
AcDbText
  6
BYLAYER
 10
257.5356
 20
175.154375
 40
3.5
  1
､､ｯﾅ
  7
Font_0
 72
1
 11
261.0356
 21
176.904375
100
AcDbText
 73
2
  0
TEXT
  5
2DE
100
AcDbEntity
  8
0
100
AcDbText
  6
BYLAYER
 10
245.9594
 20
175.154375
 40
3.5
  1
ｲﾓｯﾅ
  7
Font_0
 72
1
 11
249.4594
 21
176.904375
100
AcDbText
 73
2
  0
ENDBLK
  5
2DF
100
AcDbEntity
  8
0
 67
     1
100
AcDbBlockEnd
  0
BLOCK
  5
2E0
100
AcDbEntity
  8
0
100
AcDbBlockBegin
  2
LIST
 70
    0
 10
0
 20
0
 30
0.0
  3
LIST
  1

  0
LINE
  5
2E1
100
AcDbEntity
  8
TEXT
100
AcDbLine
  6
BYLAYER
 10
-2.84E-14
 20
48
 11
83.2499999999999
 21
48
  0
LINE
  5
2E2
100
AcDbEntity
  8
TEXT
100
AcDbLine
  6
BYLAYER
 10
-2.84E-14
 20
42
 11
83.2499999999999
 21
42
  0
LINE
  5
2E3
100
AcDbEntity
  8
TEXT
100
AcDbLine
  6
BYLAYER
 10
-2.84E-14
 20
36
 11
83.2499999999999
 21
36
  0
LINE
  5
2E4
100
AcDbEntity
  8
TEXT
100
AcDbLine
  6
BYLAYER
 10
-2.84E-14
 20
30
 11
83.2499999999999
 21
30
  0
LINE
  5
2E5
100
AcDbEntity
  8
TEXT
100
AcDbLine
  6
BYLAYER
 10
-2.84E-14
 20
24
 11
83.2499999999999
 21
24
  0
LINE
  5
2E6
100
AcDbEntity
  8
TEXT
100
AcDbLine
  6
BYLAYER
 10
-2.84E-14
 20
18
 11
83.2499999999999
 21
18
  0
LINE
  5
2E7
100
AcDbEntity
  8
TEXT
100
AcDbLine
  6
BYLAYER
 10
-2.84E-14
 20
12
 11
83.2499999999999
 21
12
  0
LINE
  5
2E8
100
AcDbEntity
  8
TEXT
100
AcDbLine
  6
BYLAYER
 10
-2.84E-14
 20
5.99999999999997
 11
83.2499999999999
 21
6
  0
TEXT
  5
2E9
100
AcDbEntity
  8
TEXT
100
AcDbText
  6
BYLAYER
 10
8.82499999999999
 20
18.7071067811865
 40
3.5
  1
C
  7
Font_0
 72
1
 11
9.69999999999999
 21
18.7071067811865
100
AcDbText
  0
LINE
  5
2EA
100
AcDbEntity
  8
TEXT
100
AcDbLine
  6
BYLAYER
 10
0
 20
48
 11
0
 21
0
  0
TEXT
  5
2EB
100
AcDbEntity
  8
TEXT
100
AcDbText
  6
BYLAYER
 10
8.82499999999999
 20
6.70710678118655
 40
3.5
  1
A
  7
Font_0
 72
1
 11
9.69999999999999
 21
6.70710678118655
100
AcDbText
  0
TEXT
  5
2EC
100
AcDbEntity
  8
TEXT
100
AcDbText
  6
BYLAYER
 10
6.49999999999997
 20
0.707106781186553
 40
3.5
  1
ｶｵｦｸ
  7
Font_0
 72
1
 11
9.99999999999997
 21
0.707106781186553
100
AcDbText
  0
TEXT
  5
2ED
100
AcDbEntity
  8
TEXT
100
AcDbText
  6
BYLAYER
 10
8.82499999999999
 20
12.7071067811866
 40
3.5
  1
B
  7
Font_0
 72
1
 11
9.69999999999999
 21
12.7071067811866
100
AcDbText
  0
TEXT
  5
2EE
100
AcDbEntity
  8
TEXT
100
AcDbText
  6
BYLAYER
 10
8.82499999999999
 20
42.7071067811866
 40
3.5
  1
G
  7
Font_0
 72
1
 11
9.69999999999999
 21
42.7071067811866
100
AcDbText
  0
TEXT
  5
2EF
100
AcDbEntity
  8
TEXT
100
AcDbText
  6
BYLAYER
 10
8.82499999999999
 20
30.7071067811865
 40
3.5
  1
E
  7
Font_0
 72
1
 11
9.69999999999999
 21
30.7071067811865
100
AcDbText
  0
TEXT
  5
2F0
100
AcDbEntity
  8
TEXT
100
AcDbText
  6
BYLAYER
 10
8.82499999999999
 20
24.7071067811866
 40
3.5
  1
D
  7
Font_0
 72
1
 11
9.69999999999999
 21
24.7071067811866
100
AcDbText
  0
TEXT
  5
2F1
100
AcDbEntity
  8
TEXT
100
AcDbText
  6
BYLAYER
 10
8.82499999999999
 20
36.7071067811866
 40
3.5
  1
F
  7
Font_0
 72
1
 11
9.69999999999999
 21
36.7071067811866
100
AcDbText
  0
TEXT
  5
2F2
100
AcDbEntity
  8
TEXT
100
AcDbText
  6
BYLAYER
 10
77.3935238436447
 20
18.7071067811866
 40
3.5
  1
1
  7
Font_0
 72
1
 11
78.2685238436447
 21
18.7071067811866
100
AcDbText
  0
TEXT
  5
2F3
100
AcDbEntity
  8
TEXT
100
AcDbText
  6
BYLAYER
 10
20.7
 20
18.7071067811866
 40
3.5
  1
A
  7
Font_0
100
AcDbText
  0
LINE
  5
2F4
100
AcDbEntity
  8
TEXT
100
AcDbLine
  6
BYLAYER
 10
73.8870476872896
 20
48
 11
73.8870476872896
 21
-1.42E-14
  0
LINE
  5
2F5
100
AcDbEntity
  8
TEXT
100
AcDbLine
  6
BYLAYER
 10
20
 20
48
 11
20
 21
0
  0
TEXT
  5
2F6
100
AcDbEntity
  8
TEXT
100
AcDbText
  6
BYLAYER
 10
75.0685238436447
 20
0.707106781186553
 40
3.5
  1
ｼﾆｶq
  7
Font_0
 72
1
 11
78.5685238436447
 21
0.707106781186553
100
AcDbText
  0
TEXT
  5
2F7
100
AcDbEntity
  8
TEXT
100
AcDbText
  6
BYLAYER
 10
37.4837220734968
 20
0.707106781186553
 40
3.5
  1
ｹﾏ       ｸｹ
  7
Font_0
 72
1
 11
47.1087220734968
 21
0.707106781186553
100
AcDbText
  0
TEXT
  5
2F8
100
AcDbEntity
  8
TEXT
100
AcDbText
  6
BYLAYER
 10
20.7
 20
6.70710678118656
 40
3.5
  1
A
  7
Font_0
100
AcDbText
  0
TEXT
  5
2F9
100
AcDbEntity
  8
TEXT
100
AcDbText
  6
BYLAYER
 10
20.7
 20
12.7071067811866
 40
3.5
  1
A
  7
Font_0
100
AcDbText
  0
TEXT
  5
2FA
100
AcDbEntity
  8
TEXT
100
AcDbText
  6
BYLAYER
 10
77.3935238436447
 20
6.70710678118656
 40
3.5
  1
1
  7
Font_0
 72
1
 11
78.2685238436447
 21
6.70710678118656
100
AcDbText
  0
TEXT
  5
2FB
100
AcDbEntity
  8
TEXT
100
AcDbText
  6
BYLAYER
 10
77.3935238436447
 20
12.7071067811866
 40
3.5
  1
1
  7
Font_0
 72
1
 11
78.2685238436447
 21
12.7071067811866
100
AcDbText
  0
TEXT
  5
2FC
100
AcDbEntity
  8
TEXT
100
AcDbText
  6
BYLAYER
 10
20.7
 20
42.7071067811866
 40
3.5
  1
A
  7
Font_0
100
AcDbText
  0
TEXT
  5
2FD
100
AcDbEntity
  8
TEXT
100
AcDbText
  6
BYLAYER
 10
20.7
 20
30.7071067811865
 40
3.5
  1
A
  7
Font_0
100
AcDbText
  0
TEXT
  5
2FE
100
AcDbEntity
  8
TEXT
100
AcDbText
  6
BYLAYER
 10
20.7
 20
24.7071067811866
 40
3.5
  1
A
  7
Font_0
100
AcDbText
  0
TEXT
  5
2FF
100
AcDbEntity
  8
TEXT
100
AcDbText
  6
BYLAYER
 10
20.7
 20
36.7071067811866
 40
3.5
  1
A
  7
Font_0
100
AcDbText
  0
TEXT
  5
300
100
AcDbEntity
  8
TEXT
100
AcDbText
  6
BYLAYER
 10
77.3935238436447
 20
42.7071067811866
 40
3.5
  1
1
  7
Font_0
 72
1
 11
78.2685238436447
 21
42.7071067811866
100
AcDbText
  0
TEXT
  5
301
100
AcDbEntity
  8
TEXT
100
AcDbText
  6
BYLAYER
 10
77.3935238436447
 20
30.7071067811865
 40
3.5
  1
1
  7
Font_0
 72
1
 11
78.2685238436447
 21
30.7071067811865
100
AcDbText
  0
TEXT
  5
302
100
AcDbEntity
  8
TEXT
100
AcDbText
  6
BYLAYER
 10
77.3935238436447
 20
24.7071067811866
 40
3.5
  1
1
  7
Font_0
 72
1
 11
78.2685238436447
 21
24.7071067811866
100
AcDbText
  0
TEXT
  5
303
100
AcDbEntity
  8
TEXT
100
AcDbText
  6
BYLAYER
 10
77.3935238436447
 20
36.7071067811866
 40
3.5
  1
1
  7
Font_0
 72
1
 11
78.2685238436447
 21
36.7071067811866
100
AcDbText
  0
ENDBLK
  5
304
100
AcDbEntity
  8
0
 67
     1
100
AcDbBlockEnd
  0
BLOCK
  5
305
100
AcDbEntity
  8
0
100
AcDbBlockBegin
  2
A4ｹﾏｮﾘ
 70
    0
 10
0
 20
0
 30
0.0
  3
A4ｹﾏｮﾘ
  1

  0
POINT
  5
306
100
AcDbEntity
  8
7475A
100
AcDbPoint
 10
289
 20
0
  0
LINE
  5
307
100
AcDbEntity
  8
0
100
AcDbLine
  6
BYLAYER
 10
0
 20
12
 11
278.4
 21
12
  0
LINE
  5
308
100
AcDbEntity
  8
0
100
AcDbLine
  6
BYLAYER
 10
0
 20
6
 11
278.4
 21
6
  0
LINE
  5
309
100
AcDbEntity
  8
0
100
AcDbLine
  6
BYLAYER
 10
96.85
 20
30
 11
278.4
 21
30
  0
LINE
  5
30A
100
AcDbEntity
  8
0
100
AcDbLine
  6
BYLAYER
 10
96.85
 20
24
 11
278.4
 21
24
  0
LINE
  5
30B
100
AcDbEntity
  8
0
100
AcDbLine
  6
BYLAYER
 10
96.85
 20
18
 11
278.4
 21
18
  0
TEXT
  5
30C
100
AcDbEntity
  8
0
100
AcDbText
  6
BYLAYER
 10
22.1680110084321
 20
15.7553550725962
 40
2.8
  1
CAM YORK INDUSTRIAL CO.,LTD.
  7
Font_0
100
AcDbText
  0
TEXT
  5
30D
100
AcDbEntity
  8
0
100
AcDbText
  6
BYLAYER
 10
22.0468952754036
 20
26
 40
7
  1
ｫﾘｷﾔ､uｷ~ｪﾑ･ｳｭｭ､ｽ･q
  7
Font_0
100
AcDbText
  0
TEXT
  5
30E
100
AcDbEntity
  8
0
100
AcDbText
  6
BYLAYER
 10
63.8643398403977
 20
7.09411371042404
 40
2.8
  1
(04)3322629
  7
Font_0
100
AcDbText
  0
LINE
  5
30F
100
AcDbEntity
  8
0
100
AcDbLine
  6
BYLAYER
 10
10.1054905349494
 20
28.7603510666656
 11
15.2233703294355
 21
28.7603510666656
  0
CIRCLE
  5
310
100
AcDbEntity
  8
0
100
AcDbCircle
  6
BYLAYER
 10
10.1054905349494
 20
24.350263158651
 40
9.36463111331499
  0
CIRCLE
  5
311
100
AcDbEntity
  8
0
100
AcDbCircle
  6
BYLAYER
 10
10.1054905349494
 20
24.350263158651
 40
7.62237416200057
  0
ARC
  5
312
100
AcDbEntity
  8
0
100
AcDbCircle
  6
BYLAYER
 10
10.1054905349494
 20
24.350263158651
 40
4.41008790801462
100
AcDbArc
 50
90
 51
0
  0
LINE
  5
313
100
AcDbEntity
  8
0
100
AcDbLine
  6
BYLAYER
 10
13
 20
12
 11
13
 21
0
  0
TEXT
  5
314
100
AcDbEntity
  8
0
100
AcDbText
  6
BYLAYER
 10
2.6
 20
7.3
 40
3
  1
TEL
  7
Font_0
100
AcDbText
  0
TEXT
  5
315
100
AcDbEntity
  8
0
100
AcDbText
  6
BYLAYER
 10
3.5
 20
1.5
 40
3
  1
ｳﾆｵ�
  7
Font_0
 72
1
 11
6.5
 21
3
100
AcDbText
 73
2
  0
ARC
  5
316
100
AcDbEntity
  8
0
100
AcDbCircle
  6
BYLAYER
 10
10.5745216067836
 20
32.8983997393573
 40
0.704372460813671
100
AcDbArc
 50
83.8529806316668
 51
239.250071636948
  0
ARC
  5
317
100
AcDbEntity
  8
0
100
AcDbCircle
  6
BYLAYER
 10
6.23761506796892
 20
31.9876821284788
 40
0.704372460813671
100
AcDbArc
 50
113.852980631667
 51
269.250071636948
  0
ARC
  5
318
100
AcDbEntity
  8
0
100
AcDbCircle
  6
BYLAYER
 10
2.46807156512152
 20
20.4823876916705
 40
0.704372460813671
100
AcDbArc
 50
203.852980631667
 51
359.250071636948
  0
ARC
  5
319
100
AcDbEntity
  8
0
100
AcDbCircle
  6
BYLAYER
 10
9.63645946311512
 20
15.8021265779447
 40
0.704372460813671
100
AcDbArc
 50
263.852980631667
 51
59.2500716369476
  0
ARC
  5
31A
100
AcDbEntity
  8
0
100
AcDbCircle
  6
BYLAYER
 10
5.4252294212235
 20
17.1818752606574
 40
0.704372460813671
100
AcDbArc
 50
233.852980631667
 51
29.2500716369476
  0
ARC
  5
31B
100
AcDbEntity
  8
0
100
AcDbCircle
  6
BYLAYER
 10
1.55735395424306
 20
24.8192942304852
 40
0.704372460813671
100
AcDbArc
 50
173.852980631667
 51
329.250071636948
  0
ARC
  5
31C
100
AcDbEntity
  8
0
100
AcDbCircle
  6
BYLAYER
 10
2.93710263695578
 20
29.0305242723768
 40
0.704372460813671
100
AcDbArc
 50
143.852980631667
 51
299.250071636948
  0
TEXT
  5
31D
100
AcDbEntity
  8
0
100
AcDbText
  6
BYLAYER
 10
7.49210581170385
 20
21.8477388856442
 40
5
  1
Y
  7
Font_0
100
AcDbText
  0
TEXT
  5
31E
100
AcDbEntity
  8
0
100
AcDbText
  6
BYLAYER
 10
42.3478047909238
 20
7.2
 40
2.8
  1
~8
  7
Font_0
100
AcDbText
  0
TEXT
  5
31F
100
AcDbEntity
  8
0
100
AcDbText
  6
BYLAYER
 10
13.8764304985659
 20
7.2
 40
2.8
  1
(04)3322627
  7
Font_0
100
AcDbText
  0
TEXT
  5
320
100
AcDbEntity
  8
0
100
AcDbText
  6
BYLAYER
 10
51
 20
7.2
 40
3
  1
FAX
  7
Font_0
100
AcDbText
  0
LINE
  5
321
100
AcDbEntity
  8
0
100
AcDbLine
  6
BYLAYER
 10
48
 20
12
 11
48
 21
6
  0
LINE
  5
322
100
AcDbEntity
  8
0
100
AcDbLine
  6
BYLAYER
 10
62
 20
12
 11
62
 21
6
  0
ARC
  5
323
100
AcDbEntity
  8
0
100
AcDbCircle
  6
BYLAYER
 10
14.7857516486752
 20
31.5186510566446
 40
0.704372460813671
100
AcDbArc
 50
53.8529806316668
 51
209.250071636948
  0
ARC
  5
324
100
AcDbEntity
  8
0
100
AcDbCircle
  6
BYLAYER
 10
17.273878432943
 20
19.6700020449251
 40
0.704372460813671
100
AcDbArc
 50
323.852980631667
 51
119.250071636948
  0
ARC
  5
325
100
AcDbEntity
  8
0
100
AcDbCircle
  6
BYLAYER
 10
13.9733660019298
 20
16.7128441888231
 40
0.704372460813671
100
AcDbArc
 50
293.852980631667
 51
89.2500716369476
  0
LINE
  5
326
100
AcDbEntity
  8
0
100
AcDbLine
  6
BYLAYER
 10
14.515578442964
 20
24.350263158651
 11
15.4411524483498
 21
24.350263158651
  0
ARC
  5
327
100
AcDbEntity
  8
0
100
AcDbCircle
  6
BYLAYER
 10
18.6536271156557
 20
23.8812320868167
 40
0.704372460813671
100
AcDbArc
 50
353.852980631667
 51
149.250071636948
  0
ARC
  5
328
100
AcDbEntity
  8
0
100
AcDbCircle
  6
BYLAYER
 10
17.7429095047772
 20
28.2181386256314
 40
0.704372460813671
100
AcDbArc
 50
23.8529806316668
 51
179.250071636948
  0
TEXT
  5
329
100
AcDbEntity
  8
0
100
AcDbText
  6
BYLAYER
 10
100.4
 20
7.4
 40
3
  1
ｫ~ ｦW
  7
Font_0
100
AcDbText
  0
LINE
  5
32A
100
AcDbEntity
  8
0
100
AcDbLine
  6
BYLAYER
 10
144
 20
36
 11
144
 21
0
  0
LINE
  5
32B
100
AcDbEntity
  8
0
100
AcDbLine
  6
BYLAYER
 10
114
 20
36
 11
114
 21
0
  0
TEXT
  5
32C
100
AcDbEntity
  8
0
100
AcDbText
  6
BYLAYER
 10
100.4
 20
1.6
 40
3
  1
ｹﾏ ｸｹ
  7
Font_0
100
AcDbText
  0
TEXT
  5
32D
100
AcDbEntity
  8
0
100
AcDbText
  6
BYLAYER
 10
100.4
 20
31.6
 40
3
  1
･D ｺﾞ
  7
Font_0
100
AcDbText
  0
TEXT
  5
32E
100
AcDbEntity
  8
0
100
AcDbText
  6
BYLAYER
 10
100.4
 20
19.6
 40
3
  1
ﾃｸ ｹﾏ
  7
Font_0
100
AcDbText
  0
TEXT
  5
32F
100
AcDbEntity
  8
0
100
AcDbText
  6
BYLAYER
 10
100.4
 20
13.8
 40
3
  1
ｾ� ｺﾘ
  7
Font_0
100
AcDbText
  0
TEXT
  5
330
100
AcDbEntity
  8
0
100
AcDbText
  6
BYLAYER
 10
100.4
 20
25.4
 40
3
  1
ｮﾖ ｹ�
  7
Font_0
100
AcDbText
  0
LINE
  5
331
100
AcDbEntity
  8
0
100
AcDbLine
  6
BYLAYER
 10
163
 20
36
 11
163
 21
0
  0
TEXT
  5
332
100
AcDbEntity
  8
0
100
AcDbText
  6
BYLAYER
 10
146.967830348543
 20
7.5
 40
3
  1
ｪ揵ｱｳBｲz
  7
Font_0
100
AcDbText
  0
TEXT
  5
333
100
AcDbEntity
  8
0
100
AcDbText
  6
BYLAYER
 10
146.967830348543
 20
1.5
 40
3
  1
ｻsｹﾏ､魘ﾁ
  7
Font_0
100
AcDbText
  0
TEXT
  5
334
100
AcDbEntity
  8
0
100
AcDbText
  6
BYLAYER
 10
148.5
 20
31.5
 40
3
  1
ｧ� ｽ�
  7
Font_0
100
AcDbText
  0
TEXT
  5
335
100
AcDbEntity
  8
0
100
AcDbText
  6
BYLAYER
 10
148.5
 20
19.5
 40
3
  1
ｼﾆ ｶq
  7
Font_0
100
AcDbText
  0
TEXT
  5
336
100
AcDbEntity
  8
0
100
AcDbText
  6
BYLAYER
 10
148.5
 20
13.5
 40
3
  1
ｳ� ｦ�
  7
Font_0
100
AcDbText
  0
TEXT
  5
337
100
AcDbEntity
  8
0
100
AcDbText
  6
BYLAYER
 10
148.5
 20
25.5
 40
3
  1
､� ｨﾒ
  7
Font_0
100
AcDbText
  0
TEXT
  5
338
100
AcDbEntity
  8
0
100
AcDbText
  6
BYLAYER
 10
200.830454348633
 20
31.5
 40
3
  1
､魘ﾁ
  7
Font_0
100
AcDbText
  0
LINE
  5
339
100
AcDbEntity
  8
0
100
AcDbLine
  6
BYLAYER
 10
269.7178125
 20
135.285
 11
269.7178125
 21
151.27125
  0
LINE
  5
33A
100
AcDbEntity
  8
0
100
AcDbLine
  6
BYLAYER
 10
261.035625
 20
135.285
 11
261.035625
 21
151.27125
  0
LINE
  5
33B
100
AcDbEntity
  8
0
100
AcDbLine
  6
BYLAYER
 10
252.3534375
 20
135.285
 11
252.3534375
 21
151.27125
  0
LINE
  5
33C
100
AcDbEntity
  8
0
100
AcDbLine
  6
BYLAYER
 10
243.67125
 20
135.285
 11
243.67125
 21
180.4875
  0
LINE
  5
33D
100
AcDbEntity
  8
0
100
AcDbLine
  6
BYLAYER
 10
221.07
 20
135.285
 11
221.07
 21
180.4875
  0
LINE
  5
33E
100
AcDbEntity
  8
0
100
AcDbLine
  6
BYLAYER
 10
216.66
 20
135.285
 11
216.66
 21
186
  0
LINE
  5
33F
100
AcDbEntity
  8
0
100
AcDbLine
  6
BYLAYER
 10
213
 20
36
 11
213
 21
0
  0
LINE
  5
340
100
AcDbEntity
  8
0
100
AcDbLine
  6
BYLAYER
 10
232
 20
36
 11
232
 21
0
  0
TEXT
  5
341
100
AcDbEntity
  8
0
100
AcDbText
  6
BYLAYER
 10
235
 20
31.5
 40
3
  1
ｧ�   ｧ�   ､ｺ   ｮe
  7
Font_0
100
AcDbText
  0
TEXT
  5
342
100
AcDbEntity
  8
0
100
AcDbText
  6
BYLAYER
 10
218.659856969007
 20
31.5
 40
3
  1
ｭtｳd､H
  7
Font_0
100
AcDbText
  0
LINE
  5
343
100
AcDbEntity
  8
0
100
AcDbLine
  6
BYLAYER
 10
278.4
 20
139.695
 11
221.07
 21
139.695
  0
LINE
  5
344
100
AcDbEntity
  8
0
100
AcDbLine
  6
BYLAYER
 10
278.4
 20
135.285
 11
216.66
 21
135.285
  0
TEXT
  5
345
100
AcDbEntity
  8
0
100
AcDbText
  6
BYLAYER
 10
246.15416478566
 20
128.207003496756
 40
2
  1
projection ｲﾄ､Tｨ､ｧ�ｼv
  7
Font_0
100
AcDbText
  0
LINE
  5
346
100
AcDbEntity
  8
0
100
AcDbLine
  6
BYLAYER
 10
278.4
 20
113.78625
 11
243.67125
 21
113.78625
  0
TEXT
  5
347
100
AcDbEntity
  8
0
100
AcDbText
  6
BYLAYER
 10
271.4339125
 20
144.733125
 40
1.5
  1
100･H､W
  7
Font_0
 72
1
 11
274.0589125
 21
145.483125
100
AcDbText
 73
2
  0
TEXT
  5
348
100
AcDbEntity
  8
0
100
AcDbText
  6
BYLAYER
 10
272.1839125
 20
136.74
 40
1.5
  1
±10'
  7
Font_0
 72
1
 11
274.0589125
 21
137.49
100
AcDbText
 73
2
  0
MTEXT
  5
349
100
AcDbEntity
  8
0
100
AcDbMText
 10
232.37065
 20
145.483125
 40
2
 41
  0.0
  1
､ｽｺﾙ､ﾘ､o (ｪﾗ)\Pｧｨｦｨｨ､､ｧｵuﾃ荀@､�
 71
5
  7
Font_0
  0
TEXT
  5
34A
100
AcDbEntity
  8
0
100
AcDbText
  6
BYLAYER
 10
217.365
 20
147.778125
 40
3
  1
ｪｽｨ､ｫﾗ
  7
Font_1
 50
270
 11
218.865
 21
147.778125
100
AcDbText
 73
2
  0
TEXT
  5
34B
100
AcDbEntity
  8
0
100
AcDbText
  6
BYLAYER
 10
227.87065
 20
135.99
 40
3
  1
ｨ､ｫﾗｮt
  7
Font_0
 72
1
 11
232.37065
 21
137.49
100
AcDbText
 73
2
  0
LINE
  5
34C
100
AcDbEntity
  8
0
100
AcDbLine
  6
BYLAYER
 10
254.802068029839
 20
115.173423624616
 11
254.802068029839
 21
126.198423624616
  0
LINE
  5
34D
100
AcDbEntity
  8
0
100
AcDbLine
  6
BYLAYER
 10
243.67125
 20
113.78625
 11
243.67125
 21
135.285
  0
CIRCLE
  5
34E
100
AcDbEntity
  8
0
100
AcDbCircle
  6
BYLAYER
 10
254.802068029839
 20
120.685923624616
 40
4.41
  0
LINE
  5
34F
100
AcDbEntity
  8
0
100
AcDbLine
  6
BYLAYER
 10
249.289568029839
 20
120.685923624616
 11
260.314568029839
 21
120.685923624616
  0
CIRCLE
  5
350
100
AcDbEntity
  8
0
100
AcDbCircle
  6
BYLAYER
 10
254.802068029839
 20
120.685923624616
 40
2.205
  0
LINE
  5
351
100
AcDbEntity
  8
0
100
AcDbLine
  6
BYLAYER
 10
263.194180551461
 20
120.685923624616
 11
274.770430551461
 21
120.685923624616
  0
LWPOLYLINE
  5
352
100
AcDbEntity
  8
0
100
AcDbPolyline
  6
BYLAYER
370
0
 90
     4
 70
     1
 10
264.296680551461
  20
118.480923624616
 10
273.667930551461
  20
116.275923624616
 10
273.667930551461
  20
125.095923624616
 10
264.296680551461
  20
122.890923624616
  0
TEXT
  5
353
100
AcDbEntity
  8
0
100
AcDbText
  6
BYLAYER
 10
245.828721587618
 20
131.605971951227
 40
2
  1
Third angle
  7
Font_0
100
AcDbText
  0
MTEXT
  5
354
100
AcDbEntity
  8
0
100
AcDbMText
 10
256.6945375
 20
145.483125
 40
1.5
 41
  0.0
  1
10･H､W\P50･H､U
 71
5
  7
Font_0
  0
TEXT
  5
355
100
AcDbEntity
  8
0
100
AcDbText
  6
BYLAYER
 10
246.13735
 20
136.74
 40
1.5
  1
±1°
  7
Font_0
 72
1
 11
248.01235
 21
137.49
100
AcDbText
 73
2
  0
TEXT
  5
356
100
AcDbEntity
  8
0
100
AcDbText
  6
BYLAYER
 10
254.8195375
 20
136.74
 40
1.5
  1
±30'
  7
Font_0
 72
1
 11
256.6945375
 21
137.49
100
AcDbText
 73
2
  0
TEXT
  5
357
100
AcDbEntity
  8
0
100
AcDbText
  6
BYLAYER
 10
245.76235
 20
144.733125
 40
1.5
  1
10･H､U
  7
Font_0
 72
1
 11
248.01235
 21
145.483125
100
AcDbText
 73
2
  0
TEXT
  5
358
100
AcDbEntity
  8
0
100
AcDbText
  6
BYLAYER
 10
263.501725
 20
136.74
 40
1.5
  1
±20'
  7
Font_0
 72
1
 11
265.376725
 21
137.49
100
AcDbText
 73
2
  0
MTEXT
  5
359
100
AcDbEntity
  8
0
100
AcDbMText
 10
265.376725
 20
145.483125
 40
1.5
 41
  0.0
  1
50･H､W\P100･H､U
 71
5
  7
Font_0
  0
LINE
  5
35A
100
AcDbEntity
  8
0
100
AcDbLine
  6
BYLAYER
 10
221.07
 20
155.68125
 11
278.4
 21
155.68125
  0
LINE
  5
35B
100
AcDbEntity
  8
0
100
AcDbLine
  6
BYLAYER
 10
221.07
 20
160.09125
 11
278.4
 21
160.09125
  0
LINE
  5
35C
100
AcDbEntity
  8
0
100
AcDbLine
  6
BYLAYER
 10
221.07
 20
164.50125
 11
278.4
 21
164.50125
  0
LINE
  5
35D
100
AcDbEntity
  8
0
100
AcDbLine
  6
BYLAYER
 10
221.07
 20
168.91125
 11
278.4
 21
168.91125
  0
LINE
  5
35E
100
AcDbEntity
  8
0
100
AcDbLine
  6
BYLAYER
 10
221.07
 20
173.32125
 11
278.4
 21
173.32125
  0
LINE
  5
35F
100
AcDbEntity
  8
0
100
AcDbLine
  6
BYLAYER
 10
216.66
 20
151.27125
 11
278.4
 21
151.27125
  0
LINE
  5
360
100
AcDbEntity
  8
0
100
AcDbLine
  6
BYLAYER
 10
216.66
 20
180.4875
 11
278.4
 21
180.4875
  0
TEXT
  5
361
100
AcDbEntity
  8
0
100
AcDbText
  6
BYLAYER
 10
269.1119
 20
175.154375
 40
3.5
  1
ｲﾊｯﾅ
  7
Font_0
 72
1
 11
272.6119
 21
176.904375
100
AcDbText
 73
2
  0
LINE
  5
362
100
AcDbEntity
  8
0
100
AcDbLine
  6
BYLAYER
 10
243.67125
 20
173.32125
 11
232.06971689676
 21
180.4875
  0
TEXT
  5
363
100
AcDbEntity
  8
0
100
AcDbText
  6
BYLAYER
 10
230.03
 20
181.49375
 40
3.5
  1
ｦｨ ｫ~ ､ｧ ｴｶ ｳq ､ｽ ｮt
  7
Font_0
 72
1
 11
247.53
 21
183.24375
100
AcDbText
 73
2
  0
TEXT
  5
364
100
AcDbEntity
  8
0
100
AcDbText
  6
BYLAYER
 10
228.24565
 20
170.36625
 40
1.5
  1
1･H､W~4･H､U
  7
Font_0
 72
1
 11
232.37065
 21
171.11625
100
AcDbText
 73
2
  0
TEXT
  5
365
100
AcDbEntity
  8
0
100
AcDbText
  6
BYLAYER
 10
227.49565
 20
161.54625
 40
1.5
  1
16･H､W~63･H､U
  7
Font_0
 72
1
 11
232.37065
 21
162.29625
100
AcDbText
 73
2
  0
TEXT
  5
366
100
AcDbEntity
  8
0
100
AcDbText
  6
BYLAYER
 10
227.12065
 20
157.13625
 40
1.5
  1
63･H､W~250･H､U
  7
Font_0
 72
1
 11
232.37065
 21
157.88625
100
AcDbText
 73
2
  0
TEXT
  5
367
100
AcDbEntity
  8
0
100
AcDbText
  6
BYLAYER
 10
226.37065
 20
152.72625
 40
1.5
  1
250･H､W~1000･H､U
  7
Font_0
 72
1
 11
232.37065
 21
153.47625
100
AcDbText
 73
2
  0
MTEXT
  5
368
100
AcDbEntity
  8
0
100
AcDbMText
 10
218.865
 20
168.879375
 40
3
 41
  0.0
  1
ｪﾗ
 71
4
  7
Font_1
 11
-1.83690953073357E-16
 21
-1
  0
TEXT
  5
369
100
AcDbEntity
  8
0
100
AcDbText
  6
BYLAYER
 10
227.87065
 20
165.95625
 40
1.5
  1
4･H､W~16･H､U
  7
Font_0
 72
1
 11
232.37065
 21
166.70625
100
AcDbText
 73
2
  0
TEXT
  5
36A
100
AcDbEntity
  8
0
100
AcDbText
  6
BYLAYER
 10
221.354797302298
 20
174.015263609177
 40
1.7
  1
､ｽｺﾙ､ﾘ､oｹｺ､ﾀm/m
  7
Font_0
100
AcDbText
  0
TEXT
  5
36B
100
AcDbEntity
  8
0
100
AcDbText
  6
BYLAYER
 10
237.865638127741
 20
177.454836298923
 40
1.7
  1
ｵ･ｯﾅ
  7
Font_0
100
AcDbText
  0
LINE
  5
36C
100
AcDbEntity
  8
0
100
AcDbLine
  6
BYLAYER
 10
266.82375
 20
151.27125
 11
266.82375
 21
180.4875
  0
LINE
  5
36D
100
AcDbEntity
  8
0
100
AcDbLine
  6
BYLAYER
 10
255.2475
 20
151.27125
 11
255.2475
 21
180.4875
  0
TEXT
  5
36E
100
AcDbEntity
  8
0
100
AcDbText
  6
BYLAYER
 10
247.2094
 20
170.36625
 40
1.5
  1
±0.05
  7
Font_0
 72
1
 11
249.4594
 21
171.11625
100
AcDbText
 73
2
  0
TEXT
  5
36F
100
AcDbEntity
  8
0
100
AcDbText
  6
BYLAYER
 10
258.78565
 20
170.36625
 40
1.5
  1
±0.10
  7
Font_0
 72
1
 11
261.03565
 21
171.11625
100
AcDbText
 73
2
  0
TEXT
  5
370
100
AcDbEntity
  8
0
100
AcDbText
  6
BYLAYER
 10
270.3619
 20
170.36625
 40
1.5
  1
±0.30
  7
Font_0
 72
1
 11
272.6119
 21
171.11625
100
AcDbText
 73
2
  0
TEXT
  5
371
100
AcDbEntity
  8
0
100
AcDbText
  6
BYLAYER
 10
258.78565
 20
165.95625
 40
1.5
  1
±0.20
  7
Font_0
 72
1
 11
261.03565
 21
166.70625
100
AcDbText
 73
2
  0
TEXT
  5
372
100
AcDbEntity
  8
0
100
AcDbText
  6
BYLAYER
 10
258.78565
 20
161.54625
 40
1.5
  1
±0.30
  7
Font_0
 72
1
 11
261.03565
 21
162.29625
100
AcDbText
 73
2
  0
TEXT
  5
373
100
AcDbEntity
  8
0
100
AcDbText
  6
BYLAYER
 10
258.78565
 20
157.13625
 40
1.5
  1
±0.50
  7
Font_0
 72
1
 11
261.03565
 21
157.88625
100
AcDbText
 73
2
  0
TEXT
  5
374
100
AcDbEntity
  8
0
100
AcDbText
  6
BYLAYER
 10
258.78565
 20
152.72625
 40
1.5
  1
±0.80
  7
Font_0
 72
1
 11
261.03565
 21
153.47625
100
AcDbText
 73
2
  0
TEXT
  5
375
100
AcDbEntity
  8
0
100
AcDbText
  6
BYLAYER
 10
247.2094
 20
157.13625
 40
1.5
  1
±0.20
  7
Font_0
 72
1
 11
249.4594
 21
157.88625
100
AcDbText
 73
2
  0
TEXT
  5
376
100
AcDbEntity
  8
0
100
AcDbText
  6
BYLAYER
 10
247.2094
 20
152.72625
 40
1.5
  1
±0.30
  7
Font_0
 72
1
 11
249.4594
 21
153.47625
100
AcDbText
 73
2
  0
TEXT
  5
377
100
AcDbEntity
  8
0
100
AcDbText
  6
BYLAYER
 10
247.2094
 20
165.95625
 40
1.5
  1
±0.07
  7
Font_0
 72
1
 11
249.4594
 21
166.70625
100
AcDbText
 73
2
  0
TEXT
  5
378
100
AcDbEntity
  8
0
100
AcDbText
  6
BYLAYER
 10
247.2094
 20
161.54625
 40
1.5
  1
±0.10
  7
Font_0
 72
1
 11
249.4594
 21
162.29625
100
AcDbText
 73
2
  0
TEXT
  5
379
100
AcDbEntity
  8
0
100
AcDbText
  6
BYLAYER
 10
270.3619
 20
152.72625
 40
1.5
  1
±2.00
  7
Font_0
 72
1
 11
272.6119
 21
153.47625
100
AcDbText
 73
2
  0
TEXT
  5
37A
100
AcDbEntity
  8
0
100
AcDbText
  6
BYLAYER
 10
270.3619
 20
157.13625
 40
1.5
  1
±1.20
  7
Font_0
 72
1
 11
272.6119
 21
157.88625
100
AcDbText
 73
2
  0
TEXT
  5
37B
100
AcDbEntity
  8
0
100
AcDbText
  6
BYLAYER
 10
270.3619
 20
161.54625
 40
1.5
  1
±0.70
  7
Font_0
 72
1
 11
272.6119
 21
162.29625
100
AcDbText
 73
2
  0
TEXT
  5
37C
100
AcDbEntity
  8
0
100
AcDbText
  6
BYLAYER
 10
270.3619
 20
165.95625
 40
1.5
  1
±0.50
  7
Font_0
 72
1
 11
272.6119
 21
166.70625
100
AcDbText
 73
2
  0
TEXT
  5
37D
100
AcDbEntity
  8
0
100
AcDbText
  6
BYLAYER
 10
257.5356
 20
175.154375
 40
3.5
  1
､､ｯﾅ
  7
Font_0
 72
1
 11
261.0356
 21
176.904375
100
AcDbText
 73
2
  0
TEXT
  5
37E
100
AcDbEntity
  8
0
100
AcDbText
  6
BYLAYER
 10
245.9594
 20
175.154375
 40
3.5
  1
ｲﾓｯﾅ
  7
Font_0
 72
1
 11
249.4594
 21
176.904375
100
AcDbText
 73
2
  0
LWPOLYLINE
  5
37F
100
AcDbEntity
  8
0
100
AcDbPolyline
  6
BYLAYER
370
20
 90
     4
 70
     1
 10
0
  20
0
 10
0
  20
186
 10
278.4
  20
186
 10
278.4
  20
0
  0
LWPOLYLINE
  5
380
100
AcDbEntity
  8
0
100
AcDbPolyline
  6
BYLAYER
370
20
 90
     2
 10
0
  20
36
 10
278.4
  20
36
  0
LWPOLYLINE
  5
381
100
AcDbEntity
  8
0
100
AcDbPolyline
  6
BYLAYER
370
20
 90
     2
 10
195.15
  20
36
 10
195.15
  20
0
  0
LWPOLYLINE
  5
382
100
AcDbEntity
  8
0
100
AcDbPolyline
  6
BYLAYER
370
20
 90
     2
 10
96.85
  20
36
 10
96.85
  20
0
  0
ENDBLK
  5
383
100
AcDbEntity
  8
0
 67
     1
100
AcDbBlockEnd
  0
BLOCK
  5
384
100
AcDbEntity
  8
0
100
AcDbBlockBegin
  2
JAME
 70
    0
 10
0
 20
0
 30
0.0
  3
JAME
  1

  0
TEXT
  5
385
100
AcDbEntity
  8
0
100
AcDbText
  6
BYLAYER
 10
200.830454348633
 20
31.5
 40
3
  1
､魘ﾁ
  7
Font_0
100
AcDbText
  0
LINE
  5
386
100
AcDbEntity
  8
0
100
AcDbLine
  6
BYLAYER
 10
0
 20
12
 11
278.4
 21
12
  0
LINE
  5
387
100
AcDbEntity
  8
0
100
AcDbLine
  6
BYLAYER
 10
0
 20
6
 11
278.4
 21
6
  0
LINE
  5
388
100
AcDbEntity
  8
0
100
AcDbLine
  6
BYLAYER
 10
0
 20
0
 11
278.4
 21
0
  0
LINE
  5
389
100
AcDbEntity
  8
0
100
AcDbLine
  6
BYLAYER
 10
96.85
 20
30
 11
278.4
 21
30
  0
LINE
  5
38A
100
AcDbEntity
  8
0
100
AcDbLine
  6
BYLAYER
 10
96.85
 20
24
 11
278.4
 21
24
  0
LINE
  5
38B
100
AcDbEntity
  8
0
100
AcDbLine
  6
BYLAYER
 10
96.85
 20
18
 11
278.4
 21
18
  0
LWPOLYLINE
  5
38C
100
AcDbEntity
  8
0
100
AcDbPolyline
  6
BYLAYER
370
0
 90
     2
 70
     1
 10
0
  20
36
 10
278.4
  20
36
  0
LWPOLYLINE
  5
38D
100
AcDbEntity
  8
0
100
AcDbPolyline
  6
BYLAYER
 90
     2
 70
     1
 10
278.4
  20
186
 10
0
  20
186
  0
LINE
  5
38E
100
AcDbEntity
  8
0
100
AcDbLine
  6
BYLAYER
 10
0
 20
0
 11
0
 21
186
  0
TEXT
  5
38F
100
AcDbEntity
  8
0
100
AcDbText
  6
BYLAYER
 10
63.8643398403977
 20
7.09411371042404
 40
2.8
  1
(04)23322629
  7
Font_0
100
AcDbText
  0
TEXT
  5
390
100
AcDbEntity
  8
0
100
AcDbText
  6
BYLAYER
 10
22.1680110084321
 20
15.7553550725962
 40
2.8
  1
CAM YORK INDUSTRIAL CO.,LTD.
  7
Font_0
100
AcDbText
  0
TEXT
  5
391
100
AcDbEntity
  8
0
100
AcDbText
  6
BYLAYER
 10
22.0468952754036
 20
26
 40
7
  1
ｫﾘｷﾔ､uｷ~ｪﾑ･ｳｭｭ､ｽ･q
  7
Font_0
100
AcDbText
  0
ARC
  5
392
100
AcDbEntity
  8
0
100
AcDbCircle
  6
BYLAYER
 10
5.4252294212235
 20
17.1818752606574
 40
0.704372460813671
100
AcDbArc
 50
233.852980631667
 51
29.2500716369477
  0
TEXT
  5
393
100
AcDbEntity
  8
0
100
AcDbText
  6
BYLAYER
 10
3.5
 20
1.5
 40
3
  1
ｳﾆｵ�
  7
Font_0
 72
1
 11
6.5
 21
3
100
AcDbText
 73
2
  0
TEXT
  5
394
100
AcDbEntity
  8
0
100
AcDbText
  6
BYLAYER
 10
2.6
 20
7.3
 40
3
  1
TEL
  7
Font_0
100
AcDbText
  0
ARC
  5
395
100
AcDbEntity
  8
0
100
AcDbCircle
  6
BYLAYER
 10
10.1054905349494
 20
24.350263158651
 40
4.41008790801462
100
AcDbArc
 50
90
 51
0
  0
CIRCLE
  5
396
100
AcDbEntity
  8
0
100
AcDbCircle
  6
BYLAYER
 10
10.1054905349494
 20
24.350263158651
 40
7.62237416200057
  0
CIRCLE
  5
397
100
AcDbEntity
  8
0
100
AcDbCircle
  6
BYLAYER
 10
10.1054905349494
 20
24.350263158651
 40
9.36463111331499
  0
ARC
  5
398
100
AcDbEntity
  8
0
100
AcDbCircle
  6
BYLAYER
 10
6.23761506796892
 20
31.9876821284788
 40
0.704372460813671
100
AcDbArc
 50
113.852980631667
 51
269.250071636948
  0
ARC
  5
399
100
AcDbEntity
  8
0
100
AcDbCircle
  6
BYLAYER
 10
2.46807156512152
 20
20.4823876916705
 40
0.704372460813671
100
AcDbArc
 50
203.852980631667
 51
359.250071636948
  0
ARC
  5
39A
100
AcDbEntity
  8
0
100
AcDbCircle
  6
BYLAYER
 10
1.55735395424306
 20
24.8192942304852
 40
0.704372460813671
100
AcDbArc
 50
173.852980631667
 51
329.250071636948
  0
ARC
  5
39B
100
AcDbEntity
  8
0
100
AcDbCircle
  6
BYLAYER
 10
2.93710263695578
 20
29.0305242723768
 40
0.704372460813671
100
AcDbArc
 50
143.852980631667
 51
299.250071636948
  0
LINE
  5
39C
100
AcDbEntity
  8
0
100
AcDbLine
  6
BYLAYER
 10
62
 20
12
 11
62
 21
6
  0
TEXT
  5
39D
100
AcDbEntity
  8
0
100
AcDbText
  6
BYLAYER
 10
51.8
 20
7.2
 40
3
  1
FAX
  7
Font_0
100
AcDbText
  0
LINE
  5
39E
100
AcDbEntity
  8
0
100
AcDbLine
  6
BYLAYER
 10
49.4
 20
12
 11
49.4
 21
6
  0
TEXT
  5
39F
100
AcDbEntity
  8
0
100
AcDbText
  6
BYLAYER
 10
43.3478047909238
 20
7.2
 40
2.8
  1
~8
  7
Font_0
100
AcDbText
  0
LINE
  5
3A0
100
AcDbEntity
  8
0
100
AcDbLine
  6
BYLAYER
 10
11.8
 20
12
 11
11.8
 21
0
  0
TEXT
  5
3A1
100
AcDbEntity
  8
0
100
AcDbText
  6
BYLAYER
 10
12.8764304985659
 20
7.2
 40
2.8
  1
(04)23322627
  7
Font_0
100
AcDbText
  0
ARC
  5
3A2
100
AcDbEntity
  8
0
100
AcDbCircle
  6
BYLAYER
 10
14.7857516486752
 20
31.5186510566446
 40
0.704372460813671
100
AcDbArc
 50
53.8529806316668
 51
209.250071636948
  0
ARC
  5
3A3
100
AcDbEntity
  8
0
100
AcDbCircle
  6
BYLAYER
 10
10.5745216067836
 20
32.8983997393573
 40
0.704372460813671
100
AcDbArc
 50
83.8529806316668
 51
239.250071636948
  0
ARC
  5
3A4
100
AcDbEntity
  8
0
100
AcDbCircle
  6
BYLAYER
 10
13.9733660019298
 20
16.7128441888231
 40
0.704372460813671
100
AcDbArc
 50
293.852980631667
 51
89.2500716369476
  0
ARC
  5
3A5
100
AcDbEntity
  8
0
100
AcDbCircle
  6
BYLAYER
 10
9.63645946311512
 20
15.8021265779447
 40
0.704372460813671
100
AcDbArc
 50
263.852980631667
 51
59.2500716369476
  0
ARC
  5
3A6
100
AcDbEntity
  8
0
100
AcDbCircle
  6
BYLAYER
 10
17.273878432943
 20
19.6700020449251
 40
0.704372460813671
100
AcDbArc
 50
323.852980631667
 51
119.250071636948
  0
LINE
  5
3A7
100
AcDbEntity
  8
0
100
AcDbLine
  6
BYLAYER
 10
14.515578442964
 20
24.350263158651
 11
15.4411524483498
 21
24.350263158651
  0
LINE
  5
3A8
100
AcDbEntity
  8
0
100
AcDbLine
  6
BYLAYER
 10
10.1054905349494
 20
28.7603510666656
 11
15.2233703294355
 21
28.7603510666656
  0
TEXT
  5
3A9
100
AcDbEntity
  8
0
100
AcDbText
  6
BYLAYER
 10
7.49210581170385
 20
21.8477388856442
 40
5
  1
Y
  7
Font_0
100
AcDbText
  0
ARC
  5
3AA
100
AcDbEntity
  8
0
100
AcDbCircle
  6
BYLAYER
 10
18.6536271156557
 20
23.8812320868167
 40
0.704372460813671
100
AcDbArc
 50
353.852980631667
 51
149.250071636947
  0
ARC
  5
3AB
100
AcDbEntity
  8
0
100
AcDbCircle
  6
BYLAYER
 10
17.7429095047772
 20
28.2181386256314
 40
0.704372460813671
100
AcDbArc
 50
23.8529806316668
 51
179.250071636948
  0
LINE
  5
3AC
100
AcDbEntity
  8
0
100
AcDbLine
  6
BYLAYER
 10
114
 20
36
 11
114
 21
0
  0
TEXT
  5
3AD
100
AcDbEntity
  8
0
100
AcDbText
  6
BYLAYER
 10
100.4
 20
7.4
 40
3
  1
ｫ~ ｦW
  7
Font_0
100
AcDbText
  0
LINE
  5
3AE
100
AcDbEntity
  8
0
100
AcDbLine
  6
BYLAYER
 10
97.15
 20
36
 11
97.15
 21
0
  0
LINE
  5
3AF
100
AcDbEntity
  8
0
100
AcDbLine
  6
BYLAYER
 10
96.85
 20
36
 11
96.85
 21
0
  0
LWPOLYLINE
  5
3B0
100
AcDbEntity
  8
0
100
AcDbPolyline
  6
BYLAYER
370
0
 90
     4
 10
96.85
  20
36
 10
96.85
  20
0
 10
97.15
  20
0
 10
97.15
  20
36
  0
TEXT
  5
3B1
100
AcDbEntity
  8
0
100
AcDbText
  6
BYLAYER
 10
100.4
 20
1.6
 40
3
  1
ｹﾏ ｸｹ
  7
Font_0
100
AcDbText
  0
TEXT
  5
3B2
100
AcDbEntity
  8
0
100
AcDbText
  6
BYLAYER
 10
100.4
 20
31.6
 40
3
  1
･D ｺﾞ
  7
Font_0
100
AcDbText
  0
TEXT
  5
3B3
100
AcDbEntity
  8
0
100
AcDbText
  6
BYLAYER
 10
100.4
 20
19.6
 40
3
  1
ﾃｸ ｹﾏ
  7
Font_0
100
AcDbText
  0
TEXT
  5
3B4
100
AcDbEntity
  8
0
100
AcDbText
  6
BYLAYER
 10
100.4
 20
25.4
 40
3
  1
ｮﾖ ｹ�
  7
Font_0
100
AcDbText
  0
TEXT
  5
3B5
100
AcDbEntity
  8
0
100
AcDbText
  6
BYLAYER
 10
100.316862435203
 20
13.8
 40
3
  1
ｾ� ｺﾘ
  7
Font_0
100
AcDbText
  0
LINE
  5
3B6
100
AcDbEntity
  8
0
100
AcDbLine
  6
BYLAYER
 10
195.15
 20
36
 11
195.15
 21
0
  0
LINE
  5
3B7
100
AcDbEntity
  8
0
100
AcDbLine
  6
BYLAYER
 10
194.85
 20
36
 11
194.85
 21
0
  0
LINE
  5
3B8
100
AcDbEntity
  8
0
100
AcDbLine
  6
BYLAYER
 10
195.025
 20
36
 11
195.025
 21
0
  0
TEXT
  5
3B9
100
AcDbEntity
  8
0
100
AcDbText
  6
BYLAYER
 10
146.967830348543
 20
7.5
 40
3
  1
ｻsｹﾏ､魘ﾁ
  7
Font_0
100
AcDbText
  0
LINE
  5
3BA
100
AcDbEntity
  8
0
100
AcDbLine
  6
BYLAYER
 10
163
 20
36
 11
163
 21
0
  0
LINE
  5
3BB
100
AcDbEntity
  8
0
100
AcDbLine
  6
BYLAYER
 10
144
 20
36
 11
144
 21
0
  0
TEXT
  5
3BC
100
AcDbEntity
  8
0
100
AcDbText
  6
BYLAYER
 10
147.076922819997
 20
1.5
 40
3
  1
ｹqｸ｣ｽsｸｹ
  7
Font_0
100
AcDbText
  0
TEXT
  5
3BD
100
AcDbEntity
  8
0
100
AcDbText
  6
BYLAYER
 10
148.5
 20
31.5
 40
3
  1
ｧ� ｽ�
  7
Font_0
100
AcDbText
  0
TEXT
  5
3BE
100
AcDbEntity
  8
0
100
AcDbText
  6
BYLAYER
 10
148.5
 20
25.5
 40
3
  1
ｼﾆ ｶq
  7
Font_0
100
AcDbText
  0
TEXT
  5
3BF
100
AcDbEntity
  8
0
100
AcDbText
  6
BYLAYER
 10
148.5
 20
19.5
 40
3
  1
ｳ� ｦ�
  7
Font_0
100
AcDbText
  0
TEXT
  5
3C0
100
AcDbEntity
  8
0
100
AcDbText
  6
BYLAYER
 10
146.967830348543
 20
13.5
 40
3
  1
ｪ揵ｱｳBｲz
  7
Font_0
100
AcDbText
  0
LINE
  5
3C1
100
AcDbEntity
  8
0
100
AcDbLine
  6
BYLAYER
 10
278.4
 20
186
 11
278.4
 21
0
  0
TEXT
  5
3C2
100
AcDbEntity
  8
0
100
AcDbText
  6
BYLAYER
 10
235
 20
31.5
 40
3
  1
ｧ�   ｧ�   ､ｺ   ｮe
  7
Font_0
100
AcDbText
  0
LINE
  5
3C3
100
AcDbEntity
  8
0
100
AcDbLine
  6
BYLAYER
 10
232
 20
36
 11
232
 21
0
  0
LINE
  5
3C4
100
AcDbEntity
  8
0
100
AcDbLine
  6
BYLAYER
 10
213
 20
36
 11
213
 21
0
  0
TEXT
  5
3C5
100
AcDbEntity
  8
0
100
AcDbText
  6
BYLAYER
 10
218.659856969007
 20
31.5
 40
3
  1
ｭtｳd､H
  7
Font_0
100
AcDbText
  0
ENDBLK
  5
3C6
100
AcDbEntity
  8
0
 67
     1
100
AcDbBlockEnd
  0
BLOCK
  5
3C7
100
AcDbEntity
  8
0
100
AcDbBlockBegin
  2
GENAXEH
 70
    0
 10
0
 20
0
 30
0.0
  3
GENAXEH
  1

  0
LINE
  5
3C8
100
AcDbEntity
  8
0
100
AcDbLine
  6
BYLAYER
 10
-1
 20
0
 11
1
 21
0
  0
ENDBLK
  5
3C9
100
AcDbEntity
  8
0
 67
     1
100
AcDbBlockEnd
  0
BLOCK
  5
3CA
100
AcDbEntity
  8
0
100
AcDbBlockBegin
  2
A$C36D836D4
 70
    0
 10
0
 20
0
 30
0.0
  3
A$C36D836D4
  1

  0
LINE
  5
3CB
100
AcDbEntity
  8
BASE
100
AcDbLine
  6
BYLAYER
 10
-156.592114756201
 20
-85.2890618578437
 11
-73.3421147562014
 21
-85.2890618578437
  0
LINE
  5
3CC
100
AcDbEntity
  8
BASE
100
AcDbLine
  6
BYLAYER
 10
-156.592114756201
 20
-91.2890618578437
 11
-73.3421147562014
 21
-91.2890618578437
  0
LINE
  5
3CD
100
AcDbEntity
  8
BASE
100
AcDbLine
  6
BYLAYER
 10
-156.592114756201
 20
-97.2890618578437
 11
-73.3421147562014
 21
-97.2890618578437
  0
LINE
  5
3CE
100
AcDbEntity
  8
BASE
100
AcDbLine
  6
BYLAYER
 10
-156.592114756201
 20
-103.289061857844
 11
-73.3421147562014
 21
-103.289061857844
  0
LINE
  5
3CF
100
AcDbEntity
  8
BASE
100
AcDbLine
  6
BYLAYER
 10
-156.592114756201
 20
-109.289061857844
 11
-73.3421147562014
 21
-109.289061857844
  0
LINE
  5
3D0
100
AcDbEntity
  8
BASE
100
AcDbLine
  6
BYLAYER
 10
-156.592114756201
 20
-115.289061857844
 11
-73.3421147562014
 21
-115.289061857844
  0
LINE
  5
3D1
100
AcDbEntity
  8
BASE
100
AcDbLine
  6
BYLAYER
 10
-156.592114756201
 20
-121.289061857844
 11
-73.3421147562014
 21
-121.289061857844
  0
LINE
  5
3D2
100
AcDbEntity
  8
BASE
100
AcDbLine
  6
BYLAYER
 10
-156.592114756201
 20
-127.289061857844
 11
-73.3421147562014
 21
-127.289061857844
  0
LINE
  5
3D3
100
AcDbEntity
  8
BASE
100
AcDbLine
  6
BYLAYER
 10
-146.592114756201
 20
-85.2890618578437
 11
-146.592114756201
 21
-133.289061857844
  0
LINE
  5
3D4
100
AcDbEntity
  8
BASE
100
AcDbLine
  6
BYLAYER
 10
-156.592114756201
 20
-85.2890618578437
 11
-156.592114756201
 21
-133.289061857844
  0
LINE
  5
3D5
100
AcDbEntity
  8
BASE
100
AcDbLine
  6
BYLAYER
 10
-136.592114756201
 20
-85.2890618578437
 11
-136.592114756201
 21
-133.289061857844
  0
TEXT
  5
3D6
100
AcDbEntity
  8
BASE
100
AcDbText
  6
BYLAYER
 10
-152.287315422519
 20
-120.581955076657
 40
3.5
  1
B
  7
Font_0
 72
1
 11
-151.412315422519
 21
-120.581955076657
100
AcDbText
  0
TEXT
  5
3D7
100
AcDbEntity
  8
BASE
100
AcDbText
  6
BYLAYER
 10
-154.338363967876
 20
-132.581955076657
 40
3.5
  1
ｶｵｦｸ
  7
Font_0
 72
1
 11
-150.838363967876
 21
-132.581955076657
100
AcDbText
  0
TEXT
  5
3D8
100
AcDbEntity
  8
BASE
100
AcDbText
  6
BYLAYER
 10
-151.961433062886
 20
-126.581955076657
 40
3.5
  1
A
  7
Font_0
 72
1
 11
-151.086433062886
 21
-126.581955076657
100
AcDbText
  0
TEXT
  5
3D9
100
AcDbEntity
  8
0
100
AcDbText
  6
BYLAYER
 10
-125.857609278239
 20
-132.019757538773
 40
3.5
  1
ｹﾏ
  7
Font_0
 11
-125.857609278239
 21
-128.519757538773
100
AcDbText
 73
3
  0
TEXT
  5
3DA
100
AcDbEntity
  8
0
100
AcDbText
  6
BYLAYER
 10
-112.160031551964
 20
-132.156603581708
 40
3.5
  1
ｸｹ
  7
Font_0
 11
-112.160031551964
 21
-128.656603581708
100
AcDbText
 73
3
  0
TEXT
  5
3DB
100
AcDbEntity
  8
BASE
100
AcDbText
  6
BYLAYER
 10
-152.150339695197
 20
-114.581955076657
 40
3.5
  1
C
  7
Font_0
 72
1
 11
-151.275339695197
 21
-114.581955076657
100
AcDbText
  0
LINE
  5
3DC
100
AcDbEntity
  8
BASE
100
AcDbLine
  6
BYLAYER
 10
-92.7050670689118
 20
-85.2890618578437
 11
-92.7050670689118
 21
-133.289061857844
  0
LINE
  5
3DD
100
AcDbEntity
  8
BASE
100
AcDbLine
  6
BYLAYER
 10
-82.7050670689118
 20
-85.2890618578437
 11
-82.7050670689118
 21
-133.289061857844
  0
TEXT
  5
3DE
100
AcDbEntity
  8
0
100
AcDbText
  6
BYLAYER
 10
-91.2050670689118
 20
-132.72329119719
 40
3.5
  1
ｪｩ･ｻ
  7
Font_0
 72
1
 11
-87.7050670689118
 21
-130.97329119719
100
AcDbText
 73
2
  0
TEXT
  5
3DF
100
AcDbEntity
  8
BASE
100
AcDbText
  6
BYLAYER
 10
-81.5235909125566
 20
-132.581955076657
 40
3.5
  1
ｼﾆｶq
  7
Font_0
 72
1
 11
-78.0235909125566
 21
-132.581955076657
100
AcDbText
  0
TEXT
  5
3E0
100
AcDbEntity
  8
BASE
100
AcDbText
  6
BYLAYER
 10
-79.1985909125566
 20
-126.581955076657
 40
3.5
  1
1
  7
Font_0
 72
1
 11
-78.3235909125566
 21
-126.581955076657
100
AcDbText
  0
TEXT
  5
3E1
100
AcDbEntity
  8
BASE
100
AcDbText
  6
BYLAYER
 10
-79.1985909125566
 20
-120.581955076657
 40
3.5
  1
1
  7
Font_0
 72
1
 11
-78.3235909125566
 21
-120.581955076657
100
AcDbText
  0
TEXT
  5
3E2
100
AcDbEntity
  8
BASE
100
AcDbText
  6
BYLAYER
 10
-79.1985909125566
 20
-114.581955076657
 40
3.5
  1
1
  7
Font_0
 72
1
 11
-78.3235909125566
 21
-114.581955076657
100
AcDbText
  0
ENDBLK
  5
3E3
100
AcDbEntity
  8
0
 67
     1
100
AcDbBlockEnd
  0
BLOCK
  5
3E4
100
AcDbEntity
  8
0
100
AcDbBlockBegin
  2
A$C520435C5
 70
    0
 10
0
 20
0
 30
0.0
  3
A$C520435C5
  1

  0
LINE
  5
3E5
100
AcDbEntity
  8
CEN
100
AcDbLine
  6
BYLAYER
 10
42.4999999576461
 20
37.5000000875314
 11
42.4999999576461
 21
8.75313617E-8
  0
CIRCLE
  5
3E6
100
AcDbEntity
  8
BASE
100
AcDbCircle
  6
BYLAYER
 10
42.4999999576461
 20
42.5000000875313
 40
31.25
  0
CIRCLE
  5
3E7
100
AcDbEntity
  8
BASE
100
AcDbCircle
  6
BYLAYER
 10
42.4999999576461
 20
42.5000000875313
 40
8
  0
CIRCLE
  5
3E8
100
AcDbEntity
  8
BASE
100
AcDbCircle
  6
BYLAYER
 10
42.4999999576461
 20
42.5000000875313
 40
25.5
  0
CIRCLE
  5
3E9
100
AcDbEntity
  8
BASE
100
AcDbCircle
  6
BYLAYER
 10
42.4999999576461
 20
42.5000000875313
 40
28.5
  0
CIRCLE
  5
3EA
100
AcDbEntity
  8
BASE
100
AcDbCircle
  6
BYLAYER
 10
42.4999999576461
 20
42.5000000875313
 40
16.25
  0
CIRCLE
  5
3EB
100
AcDbEntity
  8
BASE
100
AcDbCircle
  6
BYLAYER
 10
42.4999999576461
 20
42.5000000875313
 40
14
  0
LINE
  5
3EC
100
AcDbEntity
  8
CEN
100
AcDbLine
  6
BYLAYER
 10
47.4999999576461
 20
42.5000000875313
 11
84.9999999576461
 21
42.5000000875313
  0
LINE
  5
3ED
100
AcDbEntity
  8
CEN
100
AcDbLine
  6
BYLAYER
 10
42.4999999576461
 20
47.5000000875313
 11
42.4999999576461
 21
85.0000000875314
  0
LINE
  5
3EE
100
AcDbEntity
  8
CEN
100
AcDbLine
  6
BYLAYER
 10
37.4999999576461
 20
42.5000000875313
 11
-4.23538893E-8
 21
42.5000000875313
  0
LINE
  5
3EF
100
AcDbEntity
  8
HIDDEN
100
AcDbLine
  6
BYLAYER
 10
40.4999999576461
 20
50.2459667799462
 11
40.4999999576461
 21
44.7360680650312
  0
LINE
  5
3F0
100
AcDbEntity
  8
HIDDEN
100
AcDbLine
  6
BYLAYER
 10
44.4999999576461
 20
50.2459667799462
 11
44.4999999576461
 21
44.7360680650312
  0
LINE
  5
3F1
100
AcDbEntity
  8
HIDDEN
100
AcDbLine
  6
BYLAYER
 10
41.2999999576461
 20
50.4094880608454
 11
41.2999999576461
 21
45.2495455045049
  0
LINE
  5
3F2
100
AcDbEntity
  8
HIDDEN
100
AcDbLine
  6
BYLAYER
 10
43.6999999576461
 20
50.4094880608454
 11
43.6999999576461
 21
45.2495455045049
  0
LINE
  5
3F3
100
AcDbEntity
  8
CEN
100
AcDbLine
  6
BYLAYER
 10
42.4999999576461
 20
40.0000000875313
 11
42.4999999576461
 21
45.0000000875313
  0
CIRCLE
  5
3F4
100
AcDbEntity
  8
BASE
100
AcDbCircle
  6
BYLAYER
 10
42.4999999576461
 20
42.5000000875313
 40
3
  0
LINE
  5
3F5
100
AcDbEntity
  8
CEN
100
AcDbLine
  6
BYLAYER
 10
39.9999999576461
 20
42.5000000875313
 11
44.9999999576461
 21
42.5000000875313
  0
ENDBLK
  5
3F6
100
AcDbEntity
  8
0
 67
     1
100
AcDbBlockEnd
  0
BLOCK
  5
3F7
100
AcDbEntity
  8
0
100
AcDbBlockBegin
  2
A$C60F9129D
 70
    0
 10
0
 20
0
 30
0.0
  3
A$C60F9129D
  1

  0
LINE
  5
3F8
100
AcDbEntity
  8
BASE
100
AcDbLine
  6
BYLAYER
 10
56.8497610654588
 20
24.5009881171584
 11
72.8497610654588
 21
24.5009881171584
  0
LINE
  5
3F9
100
AcDbEntity
  8
BASE
100
AcDbLine
  6
BYLAYER
 10
56.8497610654588
 20
31.5009881171584
 11
72.8497610654588
 21
31.5009881171584
  0
LINE
  5
3FA
100
AcDbEntity
  8
BASE
100
AcDbLine
  6
BYLAYER
 10
56.8497610654588
 20
6.50098811715838
 11
72.8497610654588
 21
6.50098811715838
  0
LINE
  5
3FB
100
AcDbEntity
  8
HIDDEN
100
AcDbLine
  6
BYLAYER
 10
56.8497610654588
 20
13.5009881171584
 11
72.8497610654588
 21
13.5009881171584
  0
LINE
  5
3FC
100
AcDbEntity
  8
DIM
100
AcDbLine
  6
BYLAYER
 62
0
370
  -2
 10
52.3497610654587
 20
10.5745178828921
 11
52.3497610654587
 21
4.15013925290424
  0
LINE
  5
3FD
100
AcDbEntity
  8
DIM
100
AcDbLine
  6
BYLAYER
 62
0
370
  -2
 10
56.3497610654587
 20
9.93848811715834
 11
56.3497610654587
 21
4.15013925290424
  0
LINE
  5
3FE
100
AcDbEntity
  8
DIM
100
AcDbLine
  6
BYLAYER
 62
0
370
  -2
 10
52.5297610654587
 20
4.33013925290423
 11
56.1697610654587
 21
4.33013925290423
  0
LINE
  5
3FF
100
AcDbEntity
  8
DIM
100
AcDbLine
  6
BYLAYER
 62
0
370
  -2
 10
56.3497610654587
 20
4.33013925290423
 11
88.2797610654587
 21
4.33013925290423
  0
SOLID
  5
400
100
AcDbEntity
  8
DIM
100
AcDbTrace
 10
52.3497610654587
 20
4.33013925290423
 30
0.0
 11
52.5297610654587
 21
4.30013925290423
 31
0.0
 12
52.5297610654587
 22
4.36013925290423
 32
0.0
 13
52.5297610654587
 23
4.36013925290423
 33
0.0
  0
SOLID
  5
401
100
AcDbEntity
  8
DIM
100
AcDbTrace
 10
56.1697610654587
 20
4.36013925290423
 30
0.0
 11
56.1697610654587
 21
4.30013925290423
 31
0.0
 12
56.3497610654587
 22
4.33013925290423
 32
0.0
 13
56.3497610654587
 23
4.33013925290423
 33
0.0
  0
TEXT
  5
402
100
AcDbEntity
  8
DIM
 62
0
100
AcDbText
  6
BYLAYER
 62
0
 10
88.8497610654587
 20
4.24013925290423
 40
0.18
  1
4.0000
  7
Font_0
 72
1
 11
89.1197610654587
 21
4.33013925290423
100
AcDbText
 73
2
  0
LINE
  5
403
100
AcDbEntity
  8
DIM
100
AcDbLine
  6
BYLAYER
 62
0
370
  -2
 10
52.3497610654587
 20
10.4384881171583
 11
52.3497610654587
 21
4.76934530979634E-7
  0
LINE
  5
404
100
AcDbEntity
  8
DIM
100
AcDbLine
  6
BYLAYER
 62
0
370
  -2
 10
73.3497610654587
 20
6.93848811715834
 11
73.3497610654587
 21
4.76934530979634E-7
  0
LINE
  5
405
100
AcDbEntity
  8
DIM
100
AcDbLine
  6
BYLAYER
 62
0
370
  -2
 10
52.5297610654587
 20
0.180000476934524
 11
62.3097610654587
 21
0.180000476934524
  0
LINE
  5
406
100
AcDbEntity
  8
DIM
100
AcDbLine
  6
BYLAYER
 62
0
370
  -2
 10
73.1697610654587
 20
0.180000476934524
 11
63.3897610654587
 21
0.180000476934524
  0
SOLID
  5
407
100
AcDbEntity
  8
DIM
100
AcDbTrace
 10
52.3497610654587
 20
0.180000476934524
 30
0.0
 11
52.5297610654587
 21
0.150000476934522
 31
0.0
 12
52.5297610654587
 22
0.210000476934525
 32
0.0
 13
52.5297610654587
 23
0.210000476934525
 33
0.0
  0
SOLID
  5
408
100
AcDbEntity
  8
DIM
100
AcDbTrace
 10
73.1697610654587
 20
0.210000476934525
 30
0.0
 11
73.1697610654587
 21
0.150000476934522
 31
0.0
 12
73.3497610654587
 22
0.180000476934524
 32
0.0
 13
73.3497610654587
 23
0.180000476934524
 33
0.0
  0
TEXT
  5
409
100
AcDbEntity
  8
DIM
 62
0
100
AcDbText
  6
BYLAYER
 62
0
 10
62.5347610654587
 20
0.0900004769345236
 40
0.18
  1
21.0000
  7
Font_0
 72
1
 11
62.8497610654587
 21
0.180000476934524
100
AcDbText
 73
2
  0
LINE
  5
40A
100
AcDbEntity
  8
DIM
100
AcDbLine
  6
BYLAYER
 62
0
370
  -2
 10
65.3497610654587
 20
31.5634881171583
 11
65.3497610654587
 21
35.4088867475892
  0
LINE
  5
40B
100
AcDbEntity
  8
DIM
100
AcDbLine
  6
BYLAYER
 62
0
370
  -2
 10
73.3497610654587
 20
31.0634881171583
 11
73.3497610654587
 21
35.4088867475892
  0
LINE
  5
40C
100
AcDbEntity
  8
DIM
100
AcDbLine
  6
BYLAYER
 62
0
370
  -2
 10
65.5297610654587
 20
35.2288867475892
 11
68.8697610654587
 21
35.2288867475892
  0
LINE
  5
40D
100
AcDbEntity
  8
DIM
100
AcDbLine
  6
BYLAYER
 62
0
370
  -2
 10
73.1697610654587
 20
35.2288867475892
 11
69.8297610654587
 21
35.2288867475892
  0
SOLID
  5
40E
100
AcDbEntity
  8
DIM
100
AcDbTrace
 10
65.3497610654587
 20
35.2288867475892
 30
0.0
 11
65.5297610654587
 21
35.1988867475892
 31
0.0
 12
65.5297610654587
 22
35.2588867475892
 32
0.0
 13
65.5297610654587
 23
35.2588867475892
 33
0.0
  0
SOLID
  5
40F
100
AcDbEntity
  8
DIM
100
AcDbTrace
 10
73.1697610654587
 20
35.2588867475892
 30
0.0
 11
73.1697610654587
 21
35.1988867475892
 31
0.0
 12
73.3497610654587
 22
35.2288867475892
 32
0.0
 13
73.3497610654587
 23
35.2288867475892
 33
0.0
  0
TEXT
  5
410
100
AcDbEntity
  8
DIM
 62
0
100
AcDbText
  6
BYLAYER
 62
0
 10
69.0797610654587
 20
35.1388867475892
 40
0.18
  1
8.0000
  7
Font_0
 72
1
 11
69.3497610654587
 21
35.2288867475892
100
AcDbText
 73
2
  0
LINE
  5
411
100
AcDbEntity
  8
BASE
100
AcDbLine
  6
BYLAYER
 10
52.3497610654588
 20
27.2289285856908
 11
52.3497610654588
 21
10.773047648626
  0
LINE
  5
412
100
AcDbEntity
  8
DIM
100
AcDbLine
  6
BYLAYER
 62
0
370
  -2
 10
54.2872610654587
 20
26.5009881171583
 11
48.3699477433158
 21
26.5009881171583
  0
LINE
  5
413
100
AcDbEntity
  8
DIM
100
AcDbLine
  6
BYLAYER
 62
0
370
  -2
 10
54.2872610654587
 20
11.5009881171583
 11
48.3699477433158
 21
11.5009881171583
  0
LINE
  5
414
100
AcDbEntity
  8
DIM
100
AcDbLine
  6
BYLAYER
 62
0
370
  -2
 10
48.5499477433158
 20
26.3209881171583
 11
48.5499477433158
 21
19.1809881171583
  0
LINE
  5
415
100
AcDbEntity
  8
DIM
100
AcDbLine
  6
BYLAYER
 62
0
370
  -2
 10
48.5499477433158
 20
11.6809881171583
 11
48.5499477433158
 21
18.8209881171583
  0
SOLID
  5
416
100
AcDbEntity
  8
DIM
100
AcDbTrace
 10
48.5199477433158
 20
26.3209881171583
 30
0.0
 11
48.5799477433158
 21
26.3209881171583
 31
0.0
 12
48.5499477433158
 22
26.5009881171583
 32
0.0
 13
48.5499477433158
 23
26.5009881171583
 33
0.0
  0
SOLID
  5
417
100
AcDbEntity
  8
DIM
100
AcDbTrace
 10
48.5499477433158
 20
11.5009881171583
 30
0.0
 11
48.5799477433158
 21
11.6809881171583
 31
0.0
 12
48.5199477433158
 22
11.6809881171583
 32
0.0
 13
48.5199477433158
 23
11.6809881171583
 33
0.0
  0
TEXT
  5
418
100
AcDbEntity
  8
DIM
 62
0
100
AcDbText
  6
BYLAYER
 62
0
 10
48.3699477433157
 20
18.9109881171583
 40
0.18
  1
Φ15
  7
Font_0
 72
1
 11
48.5499477433157
 21
19.0009881171583
100
AcDbText
 73
2
  0
LINE
  5
419
100
AcDbEntity
  8
CEN
100
AcDbLine
  6
BYLAYER
 10
14.9999989478504
 20
34.0009881171584
 11
14.9999989478504
 21
4.00098811715838
  0
LINE
  5
41A
100
AcDbEntity
  8
DIM
100
AcDbLine
  6
BYLAYER
 62
0
370
  -2
 10
52.7872610654587
 20
28.0009881171583
 11
44.3126344211728
 21
28.0009881171583
  0
LINE
  5
41B
100
AcDbEntity
  8
DIM
100
AcDbLine
  6
BYLAYER
 62
0
370
  -2
 10
52.7872610654587
 20
10.0009881171583
 11
44.3126344211728
 21
10.0009881171583
  0
LINE
  5
41C
100
AcDbEntity
  8
DIM
100
AcDbLine
  6
BYLAYER
 62
0
370
  -2
 10
44.4926344211728
 20
27.8209881171583
 11
44.4926344211728
 21
19.1809881171583
  0
LINE
  5
41D
100
AcDbEntity
  8
DIM
100
AcDbLine
  6
BYLAYER
 62
0
370
  -2
 10
44.4926344211728
 20
10.1809881171583
 11
44.4926344211728
 21
18.8209881171583
  0
SOLID
  5
41E
100
AcDbEntity
  8
DIM
100
AcDbTrace
 10
44.4626344211728
 20
27.8209881171583
 30
0.0
 11
44.5226344211728
 21
27.8209881171583
 31
0.0
 12
44.4926344211728
 22
28.0009881171583
 32
0.0
 13
44.4926344211728
 23
28.0009881171583
 33
0.0
  0
SOLID
  5
41F
100
AcDbEntity
  8
DIM
100
AcDbTrace
 10
44.4926344211728
 20
10.0009881171583
 30
0.0
 11
44.5226344211728
 21
10.1809881171583
 31
0.0
 12
44.4626344211728
 22
10.1809881171583
 32
0.0
 13
44.4626344211728
 23
10.1809881171583
 33
0.0
  0
TEXT
  5
420
100
AcDbEntity
  8
DIM
 62
0
100
AcDbText
  6
BYLAYER
 62
0
 10
44.3126344211728
 20
18.9109881171583
 40
0.18
  1
Φ18
  7
Font_0
 72
1
 11
44.4926344211728
 21
19.0009881171583
100
AcDbText
 73
2
  0
LINE
  5
421
100
AcDbEntity
  8
DIM
100
AcDbLine
  6
BYLAYER
 62
0
370
  -2
 10
18.304178717982
 20
14.0432567041127
 11
18.124178717982
 21
14.0432567041127
  0
LINE
  5
422
100
AcDbEntity
  8
DIM
100
AcDbLine
  6
BYLAYER
 62
0
370
  -2
 10
18.124178717982
 20
14.0432567041127
 11
18.028214151664
 21
14.1955419693598
  0
TEXT
  5
423
100
AcDbEntity
  8
DIM
 62
0
100
AcDbText
  6
BYLAYER
 62
0
 10
18.859178717982
 20
13.9532567041127
 40
0.18
  1
φ11.0000
  7
Font_0
 72
1
 11
19.264178717982
 21
14.0432567041127
100
AcDbText
 73
2
  0
SOLID
  5
424
100
AcDbEntity
  8
DIM
100
AcDbTrace
 10
17.9322495853459
 20
14.347827234607
 30
0.0
 11
18.0028332741228
 21
14.1795478749735
 31
0.0
 12
18.0535950292052
 22
14.2115360637462
 32
0.0
 13
18.0535950292052
 23
14.2115360637462
 33
0.0
  0
LINE
  5
425
100
AcDbEntity
  8
DIM
100
AcDbLine
  6
BYLAYER
 62
0
370
  -2
 10
14.9099989478502
 20
19.0009881171583
 11
15.0899989478502
 21
19.0009881171583
  0
LINE
  5
426
100
AcDbEntity
  8
DIM
100
AcDbLine
  6
BYLAYER
 62
0
370
  -2
 10
14.9999989478503
 20
18.9109881171583
 11
14.9999989478502
 21
19.0909881171583
  0
CIRCLE
  5
427
100
AcDbEntity
  8
BASE
100
AcDbCircle
  6
BYLAYER
 10
14.9999989478504
 20
19.0009881171584
 40
12.5
  0
CIRCLE
  5
428
100
AcDbEntity
  8
BASE
100
AcDbCircle
  6
BYLAYER
 10
14.9999989478504
 20
19.0009881171584
 40
9
  0
CIRCLE
  5
429
100
AcDbEntity
  8
BASE
100
AcDbCircle
  6
BYLAYER
 10
14.9999989478504
 20
19.0009881171584
 40
5.5
  0
CIRCLE
  5
42A
100
AcDbEntity
  8
BASE
100
AcDbCircle
  6
BYLAYER
 10
14.9999989478504
 20
19.0009881171584
 40
7.5
  0
LINE
  5
42B
100
AcDbEntity
  8
DIM
100
AcDbLine
  6
BYLAYER
 62
0
370
  -2
 10
9.605148122294
 20
30.756196786816
 11
9.78514812229399
 21
30.756196786816
  0
LINE
  5
42C
100
AcDbEntity
  8
DIM
100
AcDbLine
  6
BYLAYER
 62
0
370
  -2
 10
9.78514812229399
 20
30.756196786816
 11
9.85813981347599
 21
30.5916604290758
  0
TEXT
  5
42D
100
AcDbEntity
  8
DIM
 62
0
100
AcDbText
  6
BYLAYER
 62
0
 10
8.54014812229399
 20
30.6661967868159
 40
0.18
  1
φ25.0000
  7
Font_0
 72
1
 11
8.94514812229399
 21
30.7561967868159
100
AcDbText
 73
2
  0
SOLID
  5
42E
100
AcDbEntity
  8
DIM
100
AcDbTrace
 10
9.885562539766
 20
30.6038257109395
 30
0.0
 11
9.83071708718599
 21
30.5794951472122
 31
0.0
 12
9.931131504658
 22
30.4271240713357
 32
0.0
 13
9.931131504658
 23
30.4271240713357
 33
0.0
  0
LINE
  5
42F
100
AcDbEntity
  8
DIM
100
AcDbLine
  6
BYLAYER
 62
0
370
  -2
 10
14.9099989478503
 20
19.0009881171583
 11
15.0899989478503
 21
19.0009881171583
  0
LINE
  5
430
100
AcDbEntity
  8
DIM
100
AcDbLine
  6
BYLAYER
 62
0
370
  -2
 10
14.9999989478504
 20
18.9109881171583
 11
14.9999989478504
 21
19.0909881171583
  0
LINE
  5
431
100
AcDbEntity
  8
BASE
100
AcDbLine
  6
BYLAYER
 10
56.3497610654588
 20
7.00098811715838
 11
56.3497610654588
 21
10.0009881171584
  0
LINE
  5
432
100
AcDbEntity
  8
BASE
100
AcDbLine
  6
BYLAYER
 10
56.3497610654588
 20
7.00098811715838
 11
56.8497610654588
 21
6.50098811715838
  0
LINE
  5
433
100
AcDbEntity
  8
HIDDEN
100
AcDbLine
  6
BYLAYER
 10
56.3497610654588
 20
11.5009881171584
 11
56.3497610654588
 21
13.0009881171584
  0
LINE
  5
434
100
AcDbEntity
  8
HIDDEN
100
AcDbLine
  6
BYLAYER
 10
56.3497610654588
 20
13.0009881171584
 11
56.8497610654588
 21
13.5009881171584
  0
LINE
  5
435
100
AcDbEntity
  8
BASE
100
AcDbLine
  6
BYLAYER
 10
52.3497610654588
 20
10.5009881171584
 11
52.3497610654588
 21
10.773047648626
  0
LINE
  5
436
100
AcDbEntity
  8
BASE
100
AcDbLine
  6
BYLAYER
 10
52.8497610654588
 20
10.0009881171584
 11
52.3497610654588
 21
10.5009881171584
  0
LINE
  5
437
100
AcDbEntity
  8
HIDDEN
100
AcDbLine
  6
BYLAYER
 10
54.3497610654588
 20
11.5009881171584
 11
52.3497610654588
 21
10.773047648626
  0
LINE
  5
438
100
AcDbEntity
  8
BASE
100
AcDbLine
  6
BYLAYER
 10
52.8497610654588
 20
10.0009881171584
 11
56.3497610654588
 21
10.0009881171584
  0
LINE
  5
439
100
AcDbEntity
  8
HIDDEN
100
AcDbLine
  6
BYLAYER
 10
54.3497610654587
 20
11.5009881171584
 11
56.3497610654588
 21
11.5009881171584
  0
TEXT
  5
43A
100
AcDbEntity
  8
DIM
100
AcDbText
  6
BYLAYER
 10
39.4059876884986
 20
36.6122833856465
 40
2
  1
M6x1.0x10L､ｺ､ｻｨ､ﾁｳｵｷ
  7
Font_0
 72
2
 11
59.4059876884986
 21
36.6122833856465
100
AcDbText
  0
LINE
  5
43B
100
AcDbEntity
  8
CEN
100
AcDbLine
  6
BYLAYER
 10
-1.0521496279E-6
 20
19.0009881171584
 11
29.9999989478504
 21
19.0009881171584
  0
LINE
  5
43C
100
AcDbEntity
  8
HIDDEN
100
AcDbLine
  6
BYLAYER
 10
14.9999989478504
 20
24.5009881171584
 11
14.9999989478504
 21
31.5009881171584
  0
LINE
  5
43D
100
AcDbEntity
  8
HIDDEN
100
AcDbLine
  6
BYLAYER
 10
12.7999989478504
 20
24.0418213816098
 11
12.7999989478504
 21
31.3058651990313
  0
LINE
  5
43E
100
AcDbEntity
  8
HIDDEN
100
AcDbLine
  6
BYLAYER
 10
11.9999989478504
 20
23.6107603458048
 11
11.9999989478504
 21
31.13564921667
  0
LINE
  5
43F
100
AcDbEntity
  8
HIDDEN
100
AcDbLine
  6
BYLAYER
 10
17.1999989478504
 20
24.0418213816098
 11
17.1999989478504
 21
31.3058651990313
  0
LINE
  5
440
100
AcDbEntity
  8
HIDDEN
100
AcDbLine
  6
BYLAYER
 10
17.9999989478504
 20
23.6107603458048
 11
17.9999989478504
 21
31.13564921667
  0
LINE
  5
441
100
AcDbEntity
  8
CEN
100
AcDbLine
  6
BYLAYER
 10
65.3497610654588
 20
31.5009881171584
 11
65.3497610654588
 21
24.5009881171584
  0
LINE
  5
442
100
AcDbEntity
  8
BASE
100
AcDbLine
  6
BYLAYER
 10
62.3497610654588
 20
31.5009881171584
 11
62.3497610654588
 21
24.5009881171584
  0
LINE
  5
443
100
AcDbEntity
  8
BASE
100
AcDbLine
  6
BYLAYER
 10
68.3497610654588
 20
31.5009881171584
 11
68.3497610654588
 21
24.5009881171584
  0
LINE
  5
444
100
AcDbEntity
  8
BASE
100
AcDbLine
  6
BYLAYER
 10
56.8497610654588
 20
24.5009881171584
 11
56.3497610654588
 21
25.0009881171584
  0
LINE
  5
445
100
AcDbEntity
  8
DIM
100
AcDbLine
  6
BYLAYER
 62
0
370
  -2
 10
52.3497610654587
 20
27.1664285856907
 11
52.3497610654587
 21
23.0349796425414
  0
LINE
  5
446
100
AcDbEntity
  8
DIM
100
AcDbLine
  6
BYLAYER
 62
0
370
  -2
 10
56.3497610654587
 20
26.4384881171583
 11
56.3497610654587
 21
23.0349796425414
  0
LINE
  5
447
100
AcDbEntity
  8
DIM
100
AcDbLine
  6
BYLAYER
 62
0
370
  -2
 10
52.5297610654587
 20
23.2149796425414
 11
53.8697610654587
 21
23.2149796425414
  0
LINE
  5
448
100
AcDbEntity
  8
DIM
100
AcDbLine
  6
BYLAYER
 62
0
370
  -2
 10
56.1697610654587
 20
23.2149796425414
 11
54.8297610654587
 21
23.2149796425414
  0
SOLID
  5
449
100
AcDbEntity
  8
DIM
100
AcDbTrace
 10
52.3497610654587
 20
23.2149796425414
 30
0.0
 11
52.5297610654587
 21
23.1849796425414
 31
0.0
 12
52.5297610654587
 22
23.2449796425414
 32
0.0
 13
52.5297610654587
 23
23.2449796425414
 33
0.0
  0
SOLID
  5
44A
100
AcDbEntity
  8
DIM
100
AcDbTrace
 10
56.1697610654587
 20
23.2449796425414
 30
0.0
 11
56.1697610654587
 21
23.1849796425414
 31
0.0
 12
56.3497610654587
 22
23.2149796425414
 32
0.0
 13
56.3497610654587
 23
23.2149796425414
 33
0.0
  0
TEXT
  5
44B
100
AcDbEntity
  8
DIM
 62
0
100
AcDbText
  6
BYLAYER
 62
0
 10
54.0797610654587
 20
23.1249796425414
 40
0.18
  1
4.0000
  7
Font_0
 72
1
 11
54.3497610654587
 21
23.2149796425414
100
AcDbText
 73
2
  0
LINE
  5
44C
100
AcDbEntity
  8
BASE
100
AcDbLine
  6
BYLAYER
 10
56.3497610654588
 20
31.0009881171584
 11
56.3497610654588
 21
28.0009881171584
  0
LINE
  5
44D
100
AcDbEntity
  8
BASE
100
AcDbLine
  6
BYLAYER
 10
56.3497610654588
 20
31.0009881171584
 11
56.8497610654588
 21
31.5009881171584
  0
LINE
  5
44E
100
AcDbEntity
  8
BASE
100
AcDbLine
  6
BYLAYER
 10
52.3497610654588
 20
27.5009881171584
 11
52.3497610654588
 21
27.2289285856908
  0
LINE
  5
44F
100
AcDbEntity
  8
BASE
100
AcDbLine
  6
BYLAYER
 10
52.8497610654588
 20
28.0009881171584
 11
52.3497610654588
 21
27.5009881171584
  0
LINE
  5
450
100
AcDbEntity
  8
BASE
100
AcDbLine
  6
BYLAYER
 10
52.8497610654588
 20
28.0009881171584
 11
56.3497610654588
 21
28.0009881171584
  0
LINE
  5
451
100
AcDbEntity
  8
BASE
100
AcDbLine
  6
BYLAYER
 10
56.3497610654588
 20
26.5009881171584
 11
56.3497610654588
 21
25.0009881171584
  0
LINE
  5
452
100
AcDbEntity
  8
BASE
100
AcDbLine
  6
BYLAYER
 10
54.3497610654587
 20
26.5009881171584
 11
56.3497610654588
 21
26.5009881171584
  0
LINE
  5
453
100
AcDbEntity
  8
BASE
100
AcDbLine
  6
BYLAYER
 10
54.3497610654588
 20
26.5009881171584
 11
52.3497610654588
 21
27.2289285856908
  0
LINE
  5
454
100
AcDbEntity
  8
BASE
100
AcDbLine
  6
BYLAYER
 10
73.3497610654588
 20
25.0009881171584
 11
73.3497610654588
 21
13.0009881171584
  0
LINE
  5
455
100
AcDbEntity
  8
BASE
100
AcDbLine
  6
BYLAYER
 10
73.3497610654588
 20
7.00098811715838
 11
73.3497610654588
 21
13.0009881171584
  0
LINE
  5
456
100
AcDbEntity
  8
BASE
100
AcDbLine
  6
BYLAYER
 10
72.8497610654588
 20
6.50098811715838
 11
73.3497610654588
 21
7.00098811715838
  0
LINE
  5
457
100
AcDbEntity
  8
HIDDEN
100
AcDbLine
  6
BYLAYER
 10
72.8497610654588
 20
13.5009881171584
 11
73.3497610654588
 21
13.0009881171584
  0
LINE
  5
458
100
AcDbEntity
  8
BASE
100
AcDbLine
  6
BYLAYER
 10
72.8497610654588
 20
24.5009881171584
 11
73.3497610654588
 21
25.0009881171584
  0
LINE
  5
459
100
AcDbEntity
  8
BASE
100
AcDbLine
  6
BYLAYER
 10
72.8497610654588
 20
31.5009881171584
 11
73.3497610654588
 21
31.0009881171584
  0
LINE
  5
45A
100
AcDbEntity
  8
BASE
100
AcDbLine
  6
BYLAYER
 10
73.3497610654588
 20
31.0009881171584
 11
73.3497610654588
 21
25.0009881171584
  0
ENDBLK
  5
45B
100
AcDbEntity
  8
0
 67
     1
100
AcDbBlockEnd
  0
BLOCK
  5
45C
100
AcDbEntity
  8
0
100
AcDbBlockBegin
  2
A
 70
    0
 10
0
 20
0
 30
0.0
  3
A
  1

  0
TEXT
  5
45D
100
AcDbEntity
  8
0
100
AcDbText
  6
BYLAYER
 10
127.674651975441
 20
244.795661972877
 40
2.5
  1
a
  7
Font_0
100
AcDbText
  0
LWPOLYLINE
  5
45E
100
AcDbEntity
  8
0
100
AcDbPolyline
  6
BYLAYER
370
0
 90
     3
 70
     1
 10
126.71643944311
  20
244.632620693086
 10
129.71643944311
  20
244.632620693086
 10
128.21643944311
  20
247.230696904439
  0
ENDBLK
  5
45F
100
AcDbEntity
  8
0
 67
     1
100
AcDbBlockEnd
  0
BLOCK
  5
460
100
AcDbEntity
  8
0
100
AcDbBlockBegin
  2
B
 70
    0
 10
0
 20
0
 30
0.0
  3
B
  1

  0
LWPOLYLINE
  5
461
100
AcDbEntity
  8
0
100
AcDbPolyline
  6
BYLAYER
370
0
 90
     3
 70
     1
 10
131.70249874082
  20
244.288443720077
 10
135.28174293015
  20
244.288443720077
 10
133.492120835485
  20
247.388160114384
  0
TEXT
  5
462
100
AcDbEntity
  8
0
100
AcDbText
  6
BYLAYER
 10
132.758464625955
 20
244.383450143826
 40
2.5
  1
b
  7
Font_0
100
AcDbText
  0
ENDBLK
  5
463
100
AcDbEntity
  8
0
 67
     1
100
AcDbBlockEnd
  0
BLOCK
  5
464
100
AcDbEntity
  8
0
100
AcDbBlockBegin
  2
C
 70
    0
 10
0
 20
0
 30
0.0
  3
C
  1

  0
LWPOLYLINE
  5
465
100
AcDbEntity
  8
0
100
AcDbPolyline
  6
BYLAYER
370
0
 90
     3
 70
     1
 10
135.509916074992
  20
244.473484482901
 10
139.001038434513
  20
244.473484482901
 10
137.255477254752
  20
247.496885133966
  0
TEXT
  5
466
100
AcDbEntity
  8
0
100
AcDbText
  6
BYLAYER
 10
136.382181305809
 20
244.594791834341
 40
2.5
  1
c
  7
Font_0
100
AcDbText
  0
ENDBLK
  5
467
100
AcDbEntity
  8
0
 67
     1
100
AcDbBlockEnd
  0
BLOCK
  5
468
100
AcDbEntity
  8
0
100
AcDbBlockBegin
  2
D
 70
    0
 10
0
 20
0
 30
0.0
  3
D
  1

  0
LWPOLYLINE
  5
469
100
AcDbEntity
  8
0
100
AcDbPolyline
  6
BYLAYER
370
0
 90
     3
 70
     1
 10
140.763374439689
  20
244.465698913845
 10
144.291976798415
  20
244.465698913845
 10
142.527675619052
  20
247.521558196355
  0
TEXT
  5
46A
100
AcDbEntity
  8
0
100
AcDbText
  6
BYLAYER
 10
141.593202675708
 20
244.519464650768
 40
2.5
  1
d
  7
Font_0
100
AcDbText
  0
ENDBLK
  5
46B
100
AcDbEntity
  8
0
 67
     1
100
AcDbBlockEnd
  0
BLOCK
  5
46C
100
AcDbEntity
  8
0
100
AcDbBlockBegin
  2
A4ｹﾏｮﾘ_JAME_
 70
    0
 10
0
 20
0
 30
0.0
  3
A4ｹﾏｮﾘ_JAME_
  1

  0
POINT
  5
46D
100
AcDbEntity
  8
7475A
100
AcDbPoint
 10
289
 20
0
  0
TEXT
  5
46E
100
AcDbEntity
  8
0
100
AcDbText
  6
BYLAYER
 10
3.82484782096731
 20
38.4479746826859
 40
5
  1
ｦCｦL､魘ﾁ :
  7
Font_0
100
AcDbText
  0
LINE
  5
46F
100
AcDbEntity
  8
0
100
AcDbLine
  6
BYLAYER
 10
49.4
 20
12
 11
49.4
 21
6
  0
TEXT
  5
470
100
AcDbEntity
  8
TEXT
100
AcDbText
  6
BYLAYER
 10
129
 20
19
 40
3.5
  1
JAME
  7
Font_0
100
AcDbText
  0
TEXT
  5
471
100
AcDbEntity
  8
TEXT
100
AcDbText
  6
BYLAYER
 10
179
 20
7
 40
3.5
 41
0.8
  1
20020101
  7
Font_0
100
AcDbText
  0
TEXT
  5
472
100
AcDbEntity
  8
TEXT
100
AcDbText
  6
BYLAYER
 10
179
 20
19
 40
3.5
  1
M/M
  7
Font_0
100
AcDbText
  0
TEXT
  5
473
100
AcDbEntity
  8
TEXT
100
AcDbText
  6
BYLAYER
 10
179
 20
25
 40
3.5
  1
1
  7
Font_0
100
AcDbText
  0
INSERT
  5
474
100
AcDbEntity
  8
0
100
AcDbBlockReference
  6
CONTINUOUS
  2
JAME
 10
0
 20
0
 30
0.0
  0
ENDBLK
  5
475
100
AcDbEntity
  8
0
 67
     1
100
AcDbBlockEnd
  0
BLOCK
  5
476
100
AcDbEntity
  8
0
100
AcDbBlockBegin
  2
A$C077967FD
 70
    0
 10
0
 20
0
 30
0.0
  3
A$C077967FD
  1

  0
LINE
  5
477
100
AcDbEntity
  8
HATCH
100
AcDbLine
  6
BYLAYER
 10
27.0000005284201
 20
115.250000123698
 11
26.0000005284201
 21
115.250000123698
  0
ARC
  5
478
100
AcDbEntity
  8
HATCH
100
AcDbCircle
  6
BYLAYER
 10
16.0000005284937
 20
100.250000123698
 40
4.25
100
AcDbArc
 50
180
 51
0
  0
LINE
  5
479
100
AcDbEntity
  8
HATCH
100
AcDbLine
  6
BYLAYER
 10
20.2500005284937
 20
105.250000123698
 11
20.2500005284937
 21
100.250000123698
  0
LINE
  5
47A
100
AcDbEntity
  8
HATCH
100
AcDbLine
  6
BYLAYER
 10
11.7500005284937
 20
105.250000123698
 11
11.7500005284937
 21
100.250000123698
  0
ARC
  5
47B
100
AcDbEntity
  8
HATCH
100
AcDbCircle
  6
BYLAYER
 10
16.0000005284937
 20
105.250000123698
 40
4.25
100
AcDbArc
 50
0
 51
180
  0
CIRCLE
  5
47C
100
AcDbEntity
  8
HATCH
100
AcDbCircle
  6
BYLAYER
 10
16.0000005284937
 20
15.2500001236979
 40
4.25
  0
LINE
  5
47D
100
AcDbEntity
  8
HATCH
100
AcDbLine
  6
BYLAYER
 10
147.000000528538
 20
115.250000123698
 11
148.000000528538
 21
115.250000123698
  0
ARC
  5
47E
100
AcDbEntity
  8
HATCH
100
AcDbCircle
  6
BYLAYER
 10
158.000000528465
 20
100.250000123698
 40
4.25
100
AcDbArc
 50
180
 51
0
  0
LINE
  5
47F
100
AcDbEntity
  8
HATCH
100
AcDbLine
  6
BYLAYER
 10
153.750000528465
 20
105.250000123698
 11
153.750000528465
 21
100.250000123698
  0
LINE
  5
480
100
AcDbEntity
  8
HATCH
100
AcDbLine
  6
BYLAYER
 10
162.250000528465
 20
105.250000123698
 11
162.250000528465
 21
100.250000123698
  0
ARC
  5
481
100
AcDbEntity
  8
HATCH
100
AcDbCircle
  6
BYLAYER
 10
158.000000528465
 20
105.250000123698
 40
4.25
100
AcDbArc
 50
0
 51
180
  0
CIRCLE
  5
482
100
AcDbEntity
  8
HATCH
100
AcDbCircle
  6
BYLAYER
 10
158.000000528465
 20
15.2500001236979
 40
4.25
  0
LINE
  5
483
100
AcDbEntity
  8
HATCH
100
AcDbLine
  6
BYLAYER
 10
11.0000005284855
 20
115.250000123698
 11
37.1633825367476
 21
115.250000123698
  0
LINE
  5
484
100
AcDbEntity
  8
HATCH
100
AcDbLine
  6
BYLAYER
 10
136.836618520211
 20
115.250000123698
 11
163.000000528473
 21
115.250000123698
  0
LINE
  5
485
100
AcDbEntity
  8
HATCH
100
AcDbLine
  6
BYLAYER
 10
43.4314975500358
 20
120.250000123698
 11
130.568503506922
 21
120.250000123698
  0
LINE
  5
486
100
AcDbEntity
  8
HATCH
100
AcDbLine
  6
BYLAYER
 10
147.000000528469
 20
93.2760460914038
 11
147.000000528481
 21
27.4563606903276
  0
LINE
  5
487
100
AcDbEntity
  8
HATCH
100
AcDbLine
  6
BYLAYER
 10
37.0000005284753
 20
17.4563606903258
 11
137.000000528481
 21
17.4563606903259
  0
ARC
  5
488
100
AcDbEntity
  8
HATCH
100
AcDbCircle
  6
BYLAYER
 10
137.000000528481
 20
27.4563606903259
 40
10
100
AcDbArc
 50
270
 51
1.30276E-11
  0
ARC
  5
489
100
AcDbEntity
  8
HATCH
100
AcDbCircle
  6
BYLAYER
 10
37.0000005284753
 20
27.4563606903258
 40
10
100
AcDbArc
 50
179.999999999987
 51
270
  0
ARC
  5
48A
100
AcDbEntity
  8
HATCH
100
AcDbCircle
  6
BYLAYER
 10
87.0000005284792
 20
59.2025960165831
 40
75
100
AcDbArc
 50
48.3569234755809
 51
54.4851898942899
  0
ARC
  5
48B
100
AcDbEntity
  8
HATCH
100
AcDbCircle
  6
BYLAYER
 10
87.0000005284792
 20
59.2025960165831
 40
75
100
AcDbArc
 50
125.51481010571
 51
131.643076524419
  0
LINE
  5
48C
100
AcDbEntity
  8
HATCH
100
AcDbLine
  6
BYLAYER
 10
45.3973167079857
 20
114.250000123698
 11
128.602684348974
 21
114.250000123698
  0
LINE
  5
48D
100
AcDbEntity
  8
HATCH
100
AcDbLine
  6
BYLAYER
 10
27.0000005284753
 20
27.4563606903278
 11
27.0000005284887
 21
93.2760460914
  0
LINE
  5
48E
100
AcDbEntity
  8
CEN
100
AcDbLine
  6
BYLAYER
 10
5.284791769E-7
 20
59.2025960165831
 11
174.000000528479
 21
59.2025960165831
  0
LINE
  5
48F
100
AcDbEntity
  8
CEN
100
AcDbLine
  6
BYLAYER
 10
87.0000005284792
 20
123.250000123698
 11
87.0000005284792
 21
1.236978733E-7
  0
LINE
  5
490
100
AcDbEntity
  8
HATCH
100
AcDbLine
  6
BYLAYER
 10
11.0000005284855
 20
6.00000012369787
 11
163.000000528472
 21
6.00000012369787
  0
ARC
  5
491
100
AcDbEntity
  8
HATCH
100
AcDbCircle
  6
BYLAYER
 10
11.0000005284855
 20
11.0000001236979
 40
5
100
AcDbArc
 50
180
 51
270
  0
LINE
  5
492
100
AcDbEntity
  8
HATCH
100
AcDbLine
  6
BYLAYER
 10
6.00000052848554
 20
110.250000123698
 11
6.00000052848554
 21
11.0000001236979
  0
ARC
  5
493
100
AcDbEntity
  8
HATCH
100
AcDbCircle
  6
BYLAYER
 10
11.0000005284855
 20
110.250000123698
 40
5
100
AcDbArc
 50
90
 51
180
  0
LINE
  5
494
100
AcDbEntity
  8
HATCH
100
AcDbLine
  6
BYLAYER
 10
168.000000528473
 20
110.250000123698
 11
168.000000528472
 21
11.0000001236979
  0
ARC
  5
495
100
AcDbEntity
  8
HATCH
100
AcDbCircle
  6
BYLAYER
 10
163.000000528473
 20
110.250000123698
 40
5
100
AcDbArc
 50
0
 51
90
  0
ARC
  5
496
100
AcDbEntity
  8
HATCH
100
AcDbCircle
  6
BYLAYER
 10
163.000000528472
 20
11.0000001236979
 40
5
100
AcDbArc
 50
270
 51
0
  0
ARC
  5
497
100
AcDbEntity
  8
HATCH
100
AcDbCircle
  6
BYLAYER
 10
87.0000005284801
 20
59.2025960165832
 40
69
100
AcDbArc
 50
29.5918457939708
 51
52.9194322798692
  0
ARC
  5
498
100
AcDbEntity
  8
HATCH
100
AcDbCircle
  6
BYLAYER
 10
87.0000005284801
 20
59.2025960165832
 40
69
100
AcDbArc
 50
127.080567720131
 51
150.408154206036
  0
ENDBLK
  5
499
100
AcDbEntity
  8
0
 67
     1
100
AcDbBlockEnd
  0
BLOCK
  5
49A
100
AcDbEntity
  8
0
100
AcDbBlockBegin
  2
A$C54A76AFA
 70
    0
 10
0
 20
0
 30
0.0
  3
A$C54A76AFA
  1

  0
CIRCLE
  5
49B
100
AcDbEntity
  8
M
100
AcDbCircle
  6
BYLAYER
 10
80.9999992991959
 20
81.0000007811209
 40
75
  0
CIRCLE
  5
49C
100
AcDbEntity
  8
M
100
AcDbCircle
  6
BYLAYER
 10
80.9999992991959
 20
81.0000007811209
 40
74
  0
LINE
  5
49D
100
AcDbEntity
  8
M
100
AcDbLine
  6
BYLAYER
 10
39.3973154787017
 20
136.047404888236
 11
122.60268311969
 21
136.047404888236
  0
LINE
  5
49E
100
AcDbEntity
  8
CEN
100
AcDbLine
  6
BYLAYER
 10
-7.008040939E-7
 20
81.0000007811209
 11
161.999999299196
 21
81.0000007811209
  0
LINE
  5
49F
100
AcDbEntity
  8
CEN
100
AcDbLine
  6
BYLAYER
 10
80.9999992991959
 20
162.000000781121
 11
80.9999992991959
 21
7.811208889E-7
  0
LINE
  5
4A0
100
AcDbEntity
  8
M
100
AcDbLine
  6
BYLAYER
 10
140.999999299186
 20
115.07345085594
 11
140.999999299197
 21
49.2537654548655
  0
ARC
  5
4A1
100
AcDbEntity
  8
M
100
AcDbCircle
  6
BYLAYER
 10
130.999999299197
 20
49.2537654548638
 40
10
100
AcDbArc
 50
270
 51
1.30276E-11
  0
LINE
  5
4A2
100
AcDbEntity
  8
M
100
AcDbLine
  6
BYLAYER
 10
30.9999992991929
 20
39.2537654548637
 11
130.999999299197
 21
39.2537654548638
  0
LINE
  5
4A3
100
AcDbEntity
  8
M
100
AcDbLine
  6
BYLAYER
 10
39.3973154787018
 20
136.047404888236
 11
122.60268311969
 21
136.047404888236
  0
LINE
  5
4A4
100
AcDbEntity
  8
M
100
AcDbLine
  6
BYLAYER
 10
39.3973154787017
 20
136.047404888236
 11
122.60268311969
 21
136.047404888236
  0
LINE
  5
4A5
100
AcDbEntity
  8
M
100
AcDbLine
  6
BYLAYER
 10
20.9999992991929
 20
49.2537654548656
 11
20.9999992992055
 21
115.073450855939
  0
ARC
  5
4A6
100
AcDbEntity
  8
M
100
AcDbCircle
  6
BYLAYER
 10
30.9999992991929
 20
49.2537654548637
 40
10
100
AcDbArc
 50
179.999999999987
 51
270
  0
ARC
  5
4A7
100
AcDbEntity
  8
M
100
AcDbCircle
  6
BYLAYER
 10
80.9999992991959
 20
81.0000007811209
 40
69
100
AcDbArc
 50
29.5918457939708
 51
52.9194322798724
  0
ARC
  5
4A8
100
AcDbEntity
  8
M
100
AcDbCircle
  6
BYLAYER
 10
80.9999992991959
 20
81.0000007811209
 40
69
100
AcDbArc
 50
127.080567720128
 51
150.408154206035
  0
ENDBLK
  5
4A9
100
AcDbEntity
  8
0
 67
     1
100
AcDbBlockEnd
  0
BLOCK
  5
4AA
100
AcDbEntity
  8
0
100
AcDbBlockBegin
  2
A$C626A265E
 70
    0
 10
0
 20
0
 30
0.0
  3
A$C626A265E
  1

  0
ARC
  5
4AB
100
AcDbEntity
  8
0
100
AcDbCircle
  6
BYLAYER
 10
18.500000347547
 20
18.5000038731655
 40
9.5
100
AcDbArc
 50
108.408480170581
 51
71.5915198294187
  0
CIRCLE
  5
4AC
100
AcDbEntity
  8
0
100
AcDbCircle
  6
BYLAYER
 10
18.500000347547
 20
18.5000038731655
 40
18.5
  0
LINE
  5
4AD
100
AcDbEntity
  8
0
100
AcDbLine
  6
BYLAYER
 10
15.500000347547
 20
31.0000038731655
 11
21.500000347547
 21
31.0000038731655
  0
LINE
  5
4AE
100
AcDbEntity
  8
0
100
AcDbLine
  6
BYLAYER
 10
15.500000347547
 20
27.5138820618254
 11
15.500000347547
 21
31.0000038731655
  0
LINE
  5
4AF
100
AcDbEntity
  8
0
100
AcDbLine
  6
BYLAYER
 10
21.500000347547
 20
27.5138820618254
 11
21.500000347547
 21
31.0000038731655
  0
ENDBLK
  5
4B0
100
AcDbEntity
  8
0
 67
     1
100
AcDbBlockEnd
  0
BLOCK
  5
4B1
100
AcDbEntity
  8
0
100
AcDbBlockBegin
  2
A$C5375073A
 70
    0
 10
0
 20
0
 30
0.0
  3
A$C5375073A
  1

  0
LINE
  5
4B2
100
AcDbEntity
  8
__ｴﾟ
100
AcDbLine
  6
BYLAYER
 10
229.000004324188
 20
312.000003217349
 11
229.258823369291
 21
312.965929043638
  0
LINE
  5
4B3
100
AcDbEntity
  8
__ｴﾟ
100
AcDbLine
  6
BYLAYER
 10
229.258823369291
 20
312.965929043638
 11
296.258823369292
 21
295.013333150754
  0
LINE
  5
4B4
100
AcDbEntity
  8
__ｴﾟ
100
AcDbLine
  6
BYLAYER
 10
296.258823369292
 20
295.013333150754
 11
296.000004324189
 21
294.047407324464
  0
LINE
  5
4B5
100
AcDbEntity
  8
__ｴﾟ
100
AcDbLine
  6
BYLAYER
 10
296.000004324189
 20
294.047407324464
 11
229.000004324188
 21
312.000003217349
  0
LINE
  5
4B6
100
AcDbEntity
  8
__ｴﾟ
100
AcDbLine
  6
BYLAYER
 10
0.292897543002255
 20
219.07554461935
 11
93.9244629221882
 21
312.707109998536
  0
LINE
  5
4B7
100
AcDbEntity
  8
__ｴﾟ
100
AcDbLine
  6
BYLAYER
 10
93.9244629221882
 20
312.707109998536
 11
94.6315697033747
 21
312.000003217349
  0
LINE
  5
4B8
100
AcDbEntity
  8
__ｴﾟ
100
AcDbLine
  6
BYLAYER
 10
1.00000432418869
 20
218.368437838163
 11
0.292897543002255
 21
219.07554461935
  0
LINE
  5
4B9
100
AcDbEntity
  8
__ｴﾟ
100
AcDbLine
  6
BYLAYER
 10
94.6315697033747
 20
312.000003217349
 11
94.6315697033747
 21
313.000003217349
  0
LINE
  5
4BA
100
AcDbEntity
  8
__ｴﾟ
100
AcDbLine
  6
BYLAYER
 10
94.6315697033747
 20
313.000003217349
 11
229.000004324188
 21
313.000003217349
  0
LINE
  5
4BB
100
AcDbEntity
  8
__ｴﾟ
100
AcDbLine
  6
BYLAYER
 10
229.000004324188
 20
313.000003217349
 11
229.000004324188
 21
312.000003217349
  0
LINE
  5
4BC
100
AcDbEntity
  8
__ｴﾟ
100
AcDbLine
  6
BYLAYER
 10
229.000004324188
 20
312.000003217349
 11
94.6315697033747
 21
312.000003217349
  0
LINE
  5
4BD
100
AcDbEntity
  8
__ｴﾟ
100
AcDbLine
  6
BYLAYER
 10
296.707111105375
 20
95.5823652309303
 11
201.417642310607
 21
0.292896436162778
  0
LINE
  5
4BE
100
AcDbEntity
  8
__ｴﾟ
100
AcDbLine
  6
BYLAYER
 10
201.417642310607
 20
0.292896436162778
 11
200.71053552942
 21
1.00000321734922
  0
LINE
  5
4BF
100
AcDbEntity
  8
__ｴﾟ
100
AcDbLine
  6
BYLAYER
 10
296.000004324189
 20
96.289472012117
 11
296.707111105375
 21
95.5823652309303
  0
LINE
  5
4C0
100
AcDbEntity
  8
__ｴﾟ
100
AcDbLine
  6
BYLAYER
 10
200.71053552942
 20
1.00000321734922
 11
296.000004324189
 21
96.289472012117
  0
LINE
  5
4C1
100
AcDbEntity
  8
__ｴﾟ
100
AcDbLine
  6
BYLAYER
 10
297.000004324189
 20
299.047407324464
 11
297.000004324189
 21
96.289472012117
  0
LINE
  5
4C2
100
AcDbEntity
  8
__ｴﾟ
100
AcDbLine
  6
BYLAYER
 10
297.000004324189
 20
96.289472012117
 11
296.000004324189
 21
96.289472012117
  0
LINE
  5
4C3
100
AcDbEntity
  8
__ｴﾟ
100
AcDbLine
  6
BYLAYER
 10
296.000004324189
 20
96.289472012117
 11
296.000004324189
 21
294.047407324464
  0
LINE
  5
4C4
100
AcDbEntity
  8
__ｴﾟ
100
AcDbLine
  6
BYLAYER
 10
296.000004324189
 20
294.047407324464
 11
297.000004324189
 21
294.047407324462
  0
LINE
  5
4C5
100
AcDbEntity
  8
__ｴﾟ
100
AcDbLine
  6
BYLAYER
 10
82.1601231996306
 20
1.00000321734922
 11
81.4483682396296
 21
0.297575372717688
  0
LINE
  5
4C6
100
AcDbEntity
  8
__ｴﾟ
100
AcDbLine
  6
BYLAYER
 10
81.4483682396296
 20
0.297575372717688
 11
0.288249364187322
 21
82.5353704791511
  0
LINE
  5
4C7
100
AcDbEntity
  8
__ｴﾟ
100
AcDbLine
  6
BYLAYER
 10
0.288249364187322
 20
82.5353704791511
 11
1.00000432418801
 21
83.2377983237828
  0
LINE
  5
4C8
100
AcDbEntity
  8
__ｴﾟ
100
AcDbLine
  6
BYLAYER
 10
1.00000432418801
 20
83.2377983237828
 11
82.1601231996306
 21
1.00000321734922
  0
LINE
  5
4C9
100
AcDbEntity
  8
__ｴﾟ
100
AcDbLine
  6
BYLAYER
 10
200.71053552942
 20
1.00000321734922
 11
200.71053552942
 21
3.2173492173E-6
  0
LINE
  5
4CA
100
AcDbEntity
  8
__ｴﾟ
100
AcDbLine
  6
BYLAYER
 10
200.71053552942
 20
3.2173492173E-6
 11
82.1601231996306
 21
3.2173492173E-6
  0
LINE
  5
4CB
100
AcDbEntity
  8
__ｴﾟ
100
AcDbLine
  6
BYLAYER
 10
82.1601231996306
 20
3.2173492173E-6
 11
82.1601231996306
 21
1.00000321734922
  0
LINE
  5
4CC
100
AcDbEntity
  8
__ｴﾟ
100
AcDbLine
  6
BYLAYER
 10
82.1601231996306
 20
1.00000321734922
 11
200.71053552942
 21
1.00000321734922
  0
LINE
  5
4CD
100
AcDbEntity
  8
__ｴﾟ
100
AcDbLine
  6
BYLAYER
 10
1.00000432418801
 20
83.2377983237828
 11
4.3241880121E-6
 21
83.2377983237828
  0
LINE
  5
4CE
100
AcDbEntity
  8
__ｴﾟ
100
AcDbLine
  6
BYLAYER
 10
4.3241880121E-6
 20
83.2377983237828
 11
4.3241884669E-6
 21
218.368437838163
  0
LINE
  5
4CF
100
AcDbEntity
  8
__ｴﾟ
100
AcDbLine
  6
BYLAYER
 10
4.3241884669E-6
 20
218.368437838163
 11
1.00000432418869
 21
218.368437838163
  0
LINE
  5
4D0
100
AcDbEntity
  8
__ｴﾟ
100
AcDbLine
  6
BYLAYER
 10
94.6315697033747
 20
312.000003217349
 11
1.00000432418869
 21
218.368437838163
  0
LINE
  5
4D1
100
AcDbEntity
  8
__ｴﾟ
100
AcDbLine
  6
BYLAYER
 10
1.00000432418869
 20
218.368437838163
 11
1.00000432418801
 21
83.2377983237828
  0
CIRCLE
  5
4D2
100
AcDbEntity
  8
__ｴﾟ
100
AcDbCircle
  6
BYLAYER
 10
234.567159623379
 20
213.349140220448
 40
1.5
  0
CIRCLE
  5
4D3
100
AcDbEntity
  8
__ｴﾟ
100
AcDbCircle
  6
BYLAYER
 10
79.0036677623393
 20
213.349140220447
 40
1.5
  0
CIRCLE
  5
4D4
100
AcDbEntity
  8
__ｴﾟ
100
AcDbCircle
  6
BYLAYER
 10
234.567159623382
 20
57.7856483594058
 40
1.5
  0
CIRCLE
  5
4D5
100
AcDbEntity
  8
__ｴﾟ
100
AcDbCircle
  6
BYLAYER
 10
79.0036677623398
 20
57.7856483594063
 40
1.5
  0
ARC
  5
4D6
100
AcDbEntity
  8
__ｴﾟ
100
AcDbCircle
  6
BYLAYER
 10
166.092339182648
 20
147.141227583126
 40
164.061137780674
100
AcDbArc
 50
137.102422794671
 51
141.014605044762
  0
LINE
  5
4D7
100
AcDbEntity
  8
__ｴﾟ
100
AcDbLine
  6
BYLAYER
 10
45.1045799566766
 20
259.51103588743
 11
45.9057953767324
 21
258.815985777975
  0
ARC
  5
4D8
100
AcDbEntity
  8
__ｴﾟ
100
AcDbCircle
  6
BYLAYER
 10
166.092447873876
 20
147.141216031813
 40
165.121290564038
100
AcDbArc
 50
137.115008451543
 51
141.002063066527
  0
LINE
  5
4D9
100
AcDbEntity
  8
__ｴﾟ
100
AcDbLine
  6
BYLAYER
 10
38.5665743699678
 20
250.355743223274
 11
37.765362174694
 21
251.050790535265
  0
LINE
  5
4DA
100
AcDbEntity
  8
__ｴﾟ
100
AcDbLine
  6
BYLAYER
 10
58.0326540217093
 20
31.7055154090668
 11
57.3537937803117
 21
30.8903467267459
  0
ARC
  5
4DB
100
AcDbEntity
  8
__ｴﾟ
100
AcDbCircle
  6
BYLAYER
 10
145.257255239518
 20
145.194775101839
 40
143.136100000032
100
AcDbArc
 50
227.970801496834
 51
232.45514970585
  0
LINE
  5
4DC
100
AcDbEntity
  8
__ｴﾟ
100
AcDbLine
  6
BYLAYER
 10
48.7474544006122
 20
38.0575769645826
 11
49.4263146420092
 21
38.8727456469029
  0
ARC
  5
4DD
100
AcDbEntity
  8
__ｴﾟ
100
AcDbCircle
  6
BYLAYER
 10
145.25725523949
 20
145.194775101808
 40
144.196119513164
100
AcDbArc
 50
227.987292571299
 51
232.438658631386
  0
LINE
  5
4DE
100
AcDbEntity
  8
__ｴﾟ
100
AcDbLine
  6
BYLAYER
 10
244.836979532843
 20
50.9852719076447
 11
245.656555720357
 21
50.3113032942014
  0
ARC
  5
4DF
100
AcDbEntity
  8
__ｴﾟ
100
AcDbCircle
  6
BYLAYER
 10
147.346811086694
 20
123.905042485799
 40
121.74410000008
100
AcDbArc
 50
317.931887763725
 51
323.204595018614
  0
LINE
  5
4E0
100
AcDbEntity
  8
__ｴﾟ
100
AcDbLine
  6
BYLAYER
 10
238.542979856318
 20
41.6608746689916
 11
237.723403668804
 21
42.3348432824358
  0
ARC
  5
4E1
100
AcDbEntity
  8
__ｴﾟ
100
AcDbCircle
  6
BYLAYER
 10
147.346811086736
 20
123.905042485767
 40
122.804089256524
100
AcDbArc
 50
317.954659439099
 51
323.181823343249
  0
CIRCLE
  5
4E2
100
AcDbEntity
  8
__ｴﾟ
100
AcDbCircle
  6
BYLAYER
 10
156.785413692859
 20
135.567394289927
 40
100
  0
LINE
  5
4E3
100
AcDbEntity
  8
__ｴﾟ
100
AcDbLine
  6
BYLAYER
 10
156.785413692857
 20
312.000003217349
 11
156.785413692858
 21
310.940003217349
  0
LINE
  5
4E4
100
AcDbEntity
  8
__ｴﾟ
100
AcDbLine
  6
BYLAYER
 10
156.785413692858
 20
310.940003217349
 11
166.985413692857
 21
310.940003217349
  0
LINE
  5
4E5
100
AcDbEntity
  8
__ｴﾟ
100
AcDbLine
  6
BYLAYER
 10
166.985413692857
 20
310.940003217349
 11
166.985413692856
 21
312.00000321735
  0
LINE
  5
4E6
100
AcDbEntity
  8
__ｴﾟ
100
AcDbLine
  6
BYLAYER
 10
205.222629937824
 20
312.00000321735
 11
205.222629937825
 21
310.940003217349
  0
LINE
  5
4E7
100
AcDbEntity
  8
__ｴﾟ
100
AcDbLine
  6
BYLAYER
 10
205.222629937825
 20
310.940003217349
 11
226.422629937823
 21
310.940003217349
  0
LINE
  5
4E8
100
AcDbEntity
  8
__ｴﾟ
100
AcDbLine
  6
BYLAYER
 10
226.422629937823
 20
310.940003217349
 11
226.422629937824
 21
312.000003217349
  0
LINE
  5
4E9
100
AcDbEntity
  8
__ｴﾟ
100
AcDbLine
  6
BYLAYER
 10
275.522376806861
 20
299.534371080639
 11
275.248028619052
 21
298.510489704773
  0
LINE
  5
4EA
100
AcDbEntity
  8
__ｴﾟ
100
AcDbLine
  6
BYLAYER
 10
275.248028619052
 20
298.510489704773
 11
295.72565613638
 21
293.023525948598
  0
LINE
  5
4EB
100
AcDbEntity
  8
__ｴﾟ
100
AcDbLine
  6
BYLAYER
 10
295.72565613638
 20
293.023525948598
 11
296.000004324189
 21
294.047407324464
  0
ARC
  5
4EC
100
AcDbEntity
  8
__ｴﾟ
100
AcDbCircle
  6
BYLAYER
 10
145.257255239483
 20
145.194775102625
 40
144.196119513981
100
AcDbArc
 50
269.75228842053
 51
270.24771157947
  0
ARC
  5
4ED
100
AcDbEntity
  8
__ｴﾟ
100
AcDbCircle
  6
BYLAYER
 10
145.257255239496
 20
145.194775101799
 40
143.136099999984
100
AcDbArc
 50
268.217970949183
 51
272.301823265739
  0
LINE
  5
4EE
100
AcDbEntity
  8
__ｴﾟ
100
AcDbLine
  6
BYLAYER
 10
151.006114711868
 20
2.17416911101111
 11
151.006114711868
 21
1.11329989620992
  0
ARC
  5
4EF
100
AcDbEntity
  8
__ｴﾟ
100
AcDbCircle
  6
BYLAYER
 10
145.257255239482
 20
145.194775101826
 40
144.196119513182
100
AcDbArc
 50
270.24771157947
 51
272.284893013648
  0
ARC
  5
4F0
100
AcDbEntity
  8
__ｴﾟ
100
AcDbCircle
  6
BYLAYER
 10
145.257255239483
 20
145.194775101862
 40
144.196119513218
100
AcDbArc
 50
268.231075242186
 51
269.75228842053
  0
LINE
  5
4F1
100
AcDbEntity
  8
__ｴﾟ
100
AcDbLine
  6
BYLAYER
 10
140.806114711867
 20
1.06737232683952
 11
140.806114711867
 21
2.12790097921027
  0
LINE
  5
4F2
100
AcDbEntity
  8
__ｴﾟ
100
AcDbLine
  6
BYLAYER
 10
256.238824041841
 20
305.73665965164
 11
255.980004996738
 21
304.770733825349
  0
LINE
  5
4F3
100
AcDbEntity
  8
__ｴﾟ
100
AcDbLine
  6
BYLAYER
 10
269.317459729795
 20
302.232249780953
 11
269.058640684692
 21
301.266323954661
  0
ARC
  5
4F4
100
AcDbEntity
  8
__ｴﾟ
100
AcDbCircle
  6
BYLAYER
 10
159.788629704905
 20
128.956076124163
 40
108.94
100
AcDbArc
 50
26.4533400214163
 51
32.3542817300346
  0
LWPOLYLINE
  5
4F5
100
AcDbEntity
  8
HIDDEN
100
AcDbPolyline
  6
BYLAYER
370
0
 90
     2
 10
296.000004324187
  20
195.16843966829
 10
275.067083313154
  20
199.771781243232
  0
ARC
  5
4F6
100
AcDbEntity
  8
__ｴﾟ
100
AcDbCircle
  6
BYLAYER
370
0
 10
159.788629704918
 20
128.956076124173
 40
109.999999999983
100
AcDbArc
 50
26.5104026238173
 51
-327.645718269956
  0
LINE
  5
4F7
100
AcDbEntity
  8
HIDDEN
100
AcDbLine
  6
BYLAYER
 10
296.000004324188
 20
196.253767891092
 11
275.294747123762
 21
200.807044103254
  0
LINE
  5
4F8
100
AcDbEntity
  8
__ｴﾟ
100
AcDbLine
  6
BYLAYER
 10
257.322332276959
 20
177.485453439208
 11
258.222496572605
 21
178.055708031865
  0
LINE
  5
4F9
100
AcDbEntity
  8
HIDDEN
100
AcDbLine
  6
BYLAYER
 10
275.294747123764
 20
200.807044103259
 11
275.067083313155
 21
199.771781243238
  0
LINE
  5
4FA
100
AcDbEntity
  8
__ｴﾟ
100
AcDbLine
  6
BYLAYER
 10
251.816262420088
 20
187.25563372831
 11
252.71170294402
 21
187.822895808922
  0
LINE
  5
4FB
100
AcDbEntity
  8
__ｴﾟ
100
AcDbLine
  6
BYLAYER
 10
298.000004324189
 20
299.047407324464
 11
297.000004324189
 21
299.047407324464
  0
LINE
  5
4FC
100
AcDbEntity
  8
__ｴﾟ
100
AcDbLine
  6
BYLAYER
 10
298.000004324189
 20
184.797407324464
 11
297.000004324189
 21
184.797407324464
  0
LINE
  5
4FD
100
AcDbEntity
  8
__ｴﾟ
100
AcDbLine
  6
BYLAYER
 10
338.000004324189
 20
163.000003217349
 11
300.500004324189
 21
163.000003217349
  0
LINE
  5
4FE
100
AcDbEntity
  8
__ｴﾟ
100
AcDbLine
  6
BYLAYER
 10
338.000004324189
 20
313.000003217349
 11
300.500004324189
 21
313.000003217349
  0
ARC
  5
4FF
100
AcDbEntity
  8
__ｴﾟ
100
AcDbCircle
  6
BYLAYER
 10
300.500004324189
 20
310.500003217349
 40
2.5
100
AcDbArc
 50
90
 51
180
  0
LINE
  5
500
100
AcDbEntity
  8
__ｴﾟ
100
AcDbLine
  6
BYLAYER
 10
298.000004324189
 20
310.500003217349
 11
298.000004324189
 21
165.500003217349
  0
ARC
  5
501
100
AcDbEntity
  8
__ｴﾟ
100
AcDbCircle
  6
BYLAYER
 10
300.500004324189
 20
165.500003217349
 40
2.5
100
AcDbArc
 50
180
 51
270
  0
LINE
  5
502
100
AcDbEntity
  8
__ｴﾟ
100
AcDbLine
  6
BYLAYER
 10
338.000004324189
 20
313.000003217349
 11
338.000004324189
 21
163.000003217349
  0
ENDBLK
  5
503
100
AcDbEntity
  8
0
 67
     1
100
AcDbBlockEnd
  0
BLOCK
  5
504
100
AcDbEntity
  8
0
100
AcDbBlockBegin
  2
A$C44D36A7E
 70
    0
 10
0
 20
0
 30
0.0
  3
A$C44D36A7E
  1

  0
LINE
  5
505
100
AcDbEntity
  8
__ｴﾟ
100
AcDbLine
  6
BYLAYER
 10
24.0000048253303
 20
295.013333150754
 11
3.00000482533028
 21
295.013333150754
  0
LINE
  5
506
100
AcDbEntity
  8
__ｴﾟ
100
AcDbLine
  6
BYLAYER
 10
24.0000048253294
 20
95.5823652309303
 11
3.00000482532937
 21
95.5823652309303
  0
LINE
  5
507
100
AcDbEntity
  8
__ｴﾟ
100
AcDbLine
  6
BYLAYER
 10
24.0000048253303
 20
96.289472012117
 11
23.0000048253303
 21
96.289472012117
  0
LINE
  5
508
100
AcDbEntity
  8
__ｴﾟ
100
AcDbLine
  6
BYLAYER
 10
24.0000048253958
 20
294.047407324464
 11
3.00000482533028
 21
294.047407324464
  0
LINE
  5
509
100
AcDbEntity
  8
__ｴﾟ
100
AcDbLine
  6
BYLAYER
 10
24.0000048253894
 20
313.000003217349
 11
3.0000048253894
 21
313.000003217349
  0
LINE
  5
50A
100
AcDbEntity
  8
__ｴﾟ
100
AcDbLine
  6
BYLAYER
 10
24.000004825393
 20
3.2173492173E-6
 11
3.00000482539303
 21
3.2173492173E-6
  0
LINE
  5
50B
100
AcDbEntity
  8
__ｴﾟ
100
AcDbLine
  6
BYLAYER
 10
24.000004825393
 20
0.297575372717688
 11
24.000004825393
 21
3.2173492173E-6
  0
LINE
  5
50C
100
AcDbEntity
  8
__ｴﾟ
100
AcDbLine
  6
BYLAYER
 10
24.0000048253903
 20
313.000003217349
 11
24.0000048254176
 21
283.000003217387
  0
LINE
  5
50D
100
AcDbEntity
  8
__ｴﾟ
100
AcDbLine
  6
BYLAYER
 10
24.0000048254176
 20
184.797407324464
 11
24.0000048254176
 21
83.2377983237828
  0
LINE
  5
50E
100
AcDbEntity
  8
__ｴﾟ
100
AcDbLine
  6
BYLAYER
 10
24.0000048254176
 20
83.2377983237828
 11
24.0000048254176
 21
82.5353704791511
  0
LINE
  5
50F
100
AcDbEntity
  8
__ｴﾟ
100
AcDbLine
  6
BYLAYER
 10
24.0000048254176
 20
82.5353704791511
 11
24.000004825394
 21
0.297575372717688
  0
LINE
  5
510
100
AcDbEntity
  8
__ｴﾟ
100
AcDbLine
  6
BYLAYER
 10
3.00000482541759
 20
219.07554461935
 11
3.00000482539735
 21
289.047407324462
  0
LINE
  5
511
100
AcDbEntity
  8
__ｴﾟ
100
AcDbLine
  6
BYLAYER
 10
3.00000482541759
 20
218.368437838163
 11
3.00000482541759
 21
219.07554461935
  0
LINE
  5
512
100
AcDbEntity
  8
__ｴﾟ
100
AcDbLine
  6
BYLAYER
 10
3.00000482539394
 20
0.297575372717688
 11
3.00000482541759
 21
82.5353704791511
  0
LINE
  5
513
100
AcDbEntity
  8
__ｴﾟ
100
AcDbLine
  6
BYLAYER
 10
3.00000482541759
 20
82.5353704791511
 11
3.00000482541759
 21
83.2377983237828
  0
LINE
  5
514
100
AcDbEntity
  8
__ｴﾟ
100
AcDbLine
  6
BYLAYER
 10
3.00000482539303
 20
3.2173492173E-6
 11
3.00000482539303
 21
0.297575372717688
  0
LINE
  5
515
100
AcDbEntity
  8
__ｴﾟ
100
AcDbLine
  6
BYLAYER
 10
3.00000482541759
 20
83.2377983237828
 11
3.00000482541759
 21
189.797407324464
  0
LINE
  5
516
100
AcDbEntity
  8
__ｴﾟ
100
AcDbLine
  6
BYLAYER
 10
23.0000048253303
 20
96.289472012117
 11
3.00000482533028
 21
96.289472012117
  0
ARC
  5
517
100
AcDbEntity
  8
__ｴﾟ
100
AcDbCircle
  6
BYLAYER
 10
13.000004825404
 20
279.047407324464
 40
4.25
100
AcDbArc
 50
180
 51
0
  0
LINE
  5
518
100
AcDbEntity
  8
__ｴﾟ
100
AcDbLine
  6
BYLAYER
 10
17.2500048254039
 20
284.047407324464
 11
17.2500048254039
 21
279.047407324464
  0
ARC
  5
519
100
AcDbEntity
  8
__ｴﾟ
100
AcDbCircle
  6
BYLAYER
 10
13.000004825404
 20
284.047407324464
 40
4.25
100
AcDbArc
 50
0
 51
180
  0
ARC
  5
51A
100
AcDbEntity
  8
__ｴﾟ
100
AcDbCircle
  6
BYLAYER
 10
13.000004825404
 20
122.047407324464
 40
4.25
100
AcDbArc
 50
0
 51
180
  0
ARC
  5
51B
100
AcDbEntity
  8
__ｴﾟ
100
AcDbCircle
  6
BYLAYER
 10
13.000004825404
 20
117.047407324464
 40
4.25
100
AcDbArc
 50
180
 51
0
  0
LINE
  5
51C
100
AcDbEntity
  8
__ｴﾟ
100
AcDbLine
  6
BYLAYER
 10
8.75000482540395
 20
117.047407324464
 11
8.75000482540395
 21
122.047407324464
  0
LINE
  5
51D
100
AcDbEntity
  8
__ｴﾟ
100
AcDbLine
  6
BYLAYER
 10
17.2500048254039
 20
117.047407324464
 11
17.2500048254039
 21
122.047407324464
  0
LINE
  5
51E
100
AcDbEntity
  8
__ｴﾟ
100
AcDbLine
  6
BYLAYER
 10
24.0000048253894
 20
313.000003217349
 11
144.000004825389
 21
313.000003217349
  0
LINE
  5
51F
100
AcDbEntity
  8
__ｴﾟ
100
AcDbLine
  6
BYLAYER
 10
144.000004825449
 20
295.013333150754
 11
165.000004825449
 21
295.013333150754
  0
LINE
  5
520
100
AcDbEntity
  8
__ｴﾟ
100
AcDbLine
  6
BYLAYER
 10
144.000004825449
 20
95.5823652309303
 11
165.000004825449
 21
95.5823652309303
  0
LINE
  5
521
100
AcDbEntity
  8
__ｴﾟ
100
AcDbLine
  6
BYLAYER
 10
144.000004825449
 20
96.289472012117
 11
145.000004825449
 21
96.289472012117
  0
LINE
  5
522
100
AcDbEntity
  8
__ｴﾟ
100
AcDbLine
  6
BYLAYER
 10
144.000004825449
 20
294.047407324464
 11
165.000004825449
 21
294.047407324464
  0
LINE
  5
523
100
AcDbEntity
  8
__ｴﾟ
100
AcDbLine
  6
BYLAYER
 10
144.000004825389
 20
313.000003217349
 11
165.000004825389
 21
313.000003217349
  0
LINE
  5
524
100
AcDbEntity
  8
__ｴﾟ
100
AcDbLine
  6
BYLAYER
 10
144.000004825386
 20
3.2173492173E-6
 11
165.000004825386
 21
3.2173492173E-6
  0
LINE
  5
525
100
AcDbEntity
  8
__ｴﾟ
100
AcDbLine
  6
BYLAYER
 10
144.000004825386
 20
0.297575372717688
 11
144.000004825386
 21
3.2173492173E-6
  0
LINE
  5
526
100
AcDbEntity
  8
__ｴﾟ
100
AcDbLine
  6
BYLAYER
 10
144.000004825388
 20
313.000003217349
 11
144.00000482538
 21
283.000003217362
  0
LINE
  5
527
100
AcDbEntity
  8
__ｴﾟ
100
AcDbLine
  6
BYLAYER
 10
144.000004825351
 20
184.797407324464
 11
144.000004825361
 21
83.2377983237828
  0
LINE
  5
528
100
AcDbEntity
  8
__ｴﾟ
100
AcDbLine
  6
BYLAYER
 10
144.000004825361
 20
83.2377983237828
 11
144.000004825361
 21
82.5353704791511
  0
LINE
  5
529
100
AcDbEntity
  8
__ｴﾟ
100
AcDbLine
  6
BYLAYER
 10
144.000004825361
 20
82.5353704791511
 11
144.000004825385
 21
0.297575372717688
  0
LINE
  5
52A
100
AcDbEntity
  8
__ｴﾟ
100
AcDbLine
  6
BYLAYER
 10
165.000004825449
 20
294.047407324464
 11
165.000004825388
 21
312.707109998536
  0
LINE
  5
52B
100
AcDbEntity
  8
__ｴﾟ
100
AcDbLine
  6
BYLAYER
 10
165.000004825361
 20
218.368437838163
 11
165.000004825361
 21
219.07554461935
  0
LINE
  5
52C
100
AcDbEntity
  8
__ｴﾟ
100
AcDbLine
  6
BYLAYER
 10
165.000004825389
 20
312.707109998536
 11
165.000004825389
 21
313.000003217349
  0
LINE
  5
52D
100
AcDbEntity
  8
__ｴﾟ
100
AcDbLine
  6
BYLAYER
 10
165.000004825385
 20
0.297575372717688
 11
165.000004825361
 21
82.5353704791511
  0
LINE
  5
52E
100
AcDbEntity
  8
__ｴﾟ
100
AcDbLine
  6
BYLAYER
 10
165.000004825361
 20
82.5353704791511
 11
165.000004825361
 21
83.2377983237828
  0
LINE
  5
52F
100
AcDbEntity
  8
__ｴﾟ
100
AcDbLine
  6
BYLAYER
 10
165.000004825386
 20
3.2173492173E-6
 11
165.000004825386
 21
0.297575372717688
  0
LINE
  5
530
100
AcDbEntity
  8
__ｴﾟ
100
AcDbLine
  6
BYLAYER
 10
165.000004825361
 20
83.2377983237828
 11
165.000004825361
 21
189.797407324464
  0
LINE
  5
531
100
AcDbEntity
  8
__ｴﾟ
100
AcDbLine
  6
BYLAYER
 10
145.000004825449
 20
96.289472012117
 11
165.000004825449
 21
96.289472012117
  0
ARC
  5
532
100
AcDbEntity
  8
__ｴﾟ
100
AcDbCircle
  6
BYLAYER
 10
155.000004825375
 20
122.047407324464
 40
4.25
100
AcDbArc
 50
0
 51
180
  0
ARC
  5
533
100
AcDbEntity
  8
__ｴﾟ
100
AcDbCircle
  6
BYLAYER
 10
155.000004825375
 20
117.047407324464
 40
4.25
100
AcDbArc
 50
180
 51
0
  0
LINE
  5
534
100
AcDbEntity
  8
__ｴﾟ
100
AcDbLine
  6
BYLAYER
 10
159.250004825375
 20
117.047407324464
 11
159.250004825375
 21
122.047407324464
  0
LINE
  5
535
100
AcDbEntity
  8
__ｴﾟ
100
AcDbLine
  6
BYLAYER
 10
150.750004825375
 20
117.047407324464
 11
150.750004825375
 21
122.047407324464
  0
LINE
  5
536
100
AcDbEntity
  8
__ｴﾟ
100
AcDbLine
  6
BYLAYER
 10
24.0000048253958
 20
294.047407324464
 11
34.163386833658
 21
294.047407324464
  0
LINE
  5
537
100
AcDbEntity
  8
__ｴﾟ
100
AcDbLine
  6
BYLAYER
 10
133.836622817121
 20
294.047407324464
 11
144.000004825449
 21
294.047407324464
  0
LINE
  5
538
100
AcDbEntity
  8
__ｴﾟ
100
AcDbLine
  6
BYLAYER
 10
24.0000048253958
 20
293.047407324464
 11
33.0609893159785
 21
293.047407324464
  0
LINE
  5
539
100
AcDbEntity
  8
__ｴﾟ
100
AcDbLine
  6
BYLAYER
 10
134.9390203348
 20
293.047407324464
 11
144.000004825449
 21
293.047407324464
  0
LINE
  5
53A
100
AcDbEntity
  8
__ｴﾟ
100
AcDbLine
  6
BYLAYER
 10
24.0000048253942
 20
1.00000321734922
 11
144.000004825385
 21
1.00000321734922
  0
LINE
  5
53B
100
AcDbEntity
  8
__ｴﾟ
100
AcDbLine
  6
BYLAYER
 10
8.75000482540395
 20
284.047407324464
 11
8.75000482540395
 21
279.047407324464
  0
CIRCLE
  5
53C
100
AcDbEntity
  8
__ｴﾟ
100
AcDbCircle
  6
BYLAYER
 10
13.000004825404
 20
194.047407324464
 40
4.25
  0
ARC
  5
53D
100
AcDbEntity
  8
__ｴﾟ
100
AcDbCircle
  6
BYLAYER
 10
155.000004825375
 20
279.047407324464
 40
4.25
100
AcDbArc
 50
180
 51
0
  0
LINE
  5
53E
100
AcDbEntity
  8
__ｴﾟ
100
AcDbLine
  6
BYLAYER
 10
150.750004825375
 20
284.047407324464
 11
150.750004825375
 21
279.047407324464
  0
LINE
  5
53F
100
AcDbEntity
  8
__ｴﾟ
100
AcDbLine
  6
BYLAYER
 10
159.250004825375
 20
284.047407324464
 11
159.250004825375
 21
279.047407324464
  0
ARC
  5
540
100
AcDbEntity
  8
__ｴﾟ
100
AcDbCircle
  6
BYLAYER
 10
155.000004825375
 20
284.047407324464
 40
4.25
100
AcDbArc
 50
0
 51
180
  0
CIRCLE
  5
541
100
AcDbEntity
  8
__ｴﾟ
100
AcDbCircle
  6
BYLAYER
 10
155.000004825375
 20
194.047407324464
 40
4.25
  0
LINE
  5
542
100
AcDbEntity
  8
__ｴﾟ
100
AcDbLine
  6
BYLAYER
 10
8.00000482539576
 20
184.797407324464
 11
31.1371275838096
 21
184.797407324464
  0
LINE
  5
543
100
AcDbEntity
  8
__ｴﾟ
100
AcDbLine
  6
BYLAYER
 10
136.862882066969
 20
184.797407324464
 11
160.000004825382
 21
184.797407324464
  0
ARC
  5
544
100
AcDbEntity
  8
__ｴﾟ
100
AcDbCircle
  6
BYLAYER
 10
8.00000482539576
 20
189.797407324464
 40
5
100
AcDbArc
 50
180
 51
270
  0
LINE
  5
545
100
AcDbEntity
  8
__ｴﾟ
100
AcDbLine
  6
BYLAYER
 10
3.00000482539576
 20
289.047407324464
 11
3.00000482539576
 21
189.797407324464
  0
ARC
  5
546
100
AcDbEntity
  8
__ｴﾟ
100
AcDbCircle
  6
BYLAYER
 10
8.00000482539576
 20
289.047407324464
 40
5
100
AcDbArc
 50
90
 51
180
  0
LINE
  5
547
100
AcDbEntity
  8
__ｴﾟ
100
AcDbLine
  6
BYLAYER
 10
165.000004825383
 20
289.047407324464
 11
165.000004825383
 21
189.797407324464
  0
ARC
  5
548
100
AcDbEntity
  8
__ｴﾟ
100
AcDbCircle
  6
BYLAYER
 10
160.000004825383
 20
289.047407324464
 40
5
100
AcDbArc
 50
0
 51
90
  0
ARC
  5
549
100
AcDbEntity
  8
__ｴﾟ
100
AcDbCircle
  6
BYLAYER
 10
160.000004825382
 20
189.797407324464
 40
5
100
AcDbArc
 50
270
 51
0
  0
CIRCLE
  5
54A
100
AcDbEntity
  8
__ｴﾟ
100
AcDbCircle
  6
BYLAYER
 10
84.0000048253894
 20
238.000003217349
 40
75
  0
CIRCLE
  5
54B
100
AcDbEntity
  8
__ｴﾟ
100
AcDbCircle
  6
BYLAYER
 10
84.0000048253894
 20
238.000003217349
 40
74
  0
LINE
  5
54C
100
AcDbEntity
  8
__ｴﾟ
100
AcDbLine
  6
BYLAYER
 10
42.3973210048953
 20
293.047407324464
 11
125.602688645883
 21
293.047407324464
  0
LINE
  5
54D
100
AcDbEntity
  8
CEN
100
AcDbLine
  6
BYLAYER
 10
4.8253893965E-6
 20
238.000003217349
 11
168.000004825389
 21
238.000003217349
  0
LINE
  5
54E
100
AcDbEntity
  8
CEN
100
AcDbLine
  6
BYLAYER
 10
84.0000048253894
 20
319.000003217349
 11
84.0000048253894
 21
157.000003217349
  0
LINE
  5
54F
100
AcDbEntity
  8
__ｴﾟ
100
AcDbLine
  6
BYLAYER
 10
144.000004825379
 20
272.073453292169
 11
144.000004825391
 21
206.253767891094
  0
ARC
  5
550
100
AcDbEntity
  8
__ｴﾟ
100
AcDbCircle
  6
BYLAYER
 10
134.000004825391
 20
206.253767891092
 40
10
100
AcDbArc
 50
270
 51
1.30276E-11
  0
LINE
  5
551
100
AcDbEntity
  8
__ｴﾟ
100
AcDbLine
  6
BYLAYER
 10
34.0000048253864
 20
196.253767891092
 11
134.000004825391
 21
196.253767891092
  0
LINE
  5
552
100
AcDbEntity
  8
__ｴﾟ
100
AcDbLine
  6
BYLAYER
 10
42.3973210048953
 20
293.047407324464
 11
125.602688645883
 21
293.047407324464
  0
LINE
  5
553
100
AcDbEntity
  8
__ｴﾟ
100
AcDbLine
  6
BYLAYER
 10
42.3973210048953
 20
293.047407324464
 11
125.602688645883
 21
293.047407324464
  0
LINE
  5
554
100
AcDbEntity
  8
__ｴﾟ
100
AcDbLine
  6
BYLAYER
 10
24.0000048253864
 20
206.253767891094
 11
24.000004825399
 21
272.073453292168
  0
ARC
  5
555
100
AcDbEntity
  8
__ｴﾟ
100
AcDbCircle
  6
BYLAYER
 10
34.0000048253864
 20
206.253767891092
 40
10
100
AcDbArc
 50
179.999999999987
 51
270
  0
ARC
  5
556
100
AcDbEntity
  8
__ｴﾟ
100
AcDbCircle
  6
BYLAYER
 10
84.0000048253894
 20
238.000003217349
 40
69
100
AcDbArc
 50
29.5918457939769
 51
52.9194322798678
  0
ARC
  5
557
100
AcDbEntity
  8
__ｴﾟ
100
AcDbCircle
  6
BYLAYER
 10
84.0000048253894
 20
238.000003217349
 40
69
100
AcDbArc
 50
127.080567720132
 51
150.408154206038
  0
LINE
  5
558
100
AcDbEntity
  8
__ｴﾟ
100
AcDbLine
  6
BYLAYER
 10
8.75000482540395
 20
75.6989313079992
 11
8.75000482540395
 21
76.7448728540177
  0
ARC
  5
559
100
AcDbEntity
  8
__ｴﾟ
100
AcDbCircle
  6
BYLAYER
 10
13.000004825404
 20
75.6989313079992
 40
4.25
100
AcDbArc
 50
180
 51
0
  0
LINE
  5
55A
100
AcDbEntity
  8
__ｴﾟ
100
AcDbLine
  6
BYLAYER
 10
17.2500048254039
 20
76.7448728540177
 11
17.2500048254039
 21
75.6989313079992
  0
ARC
  5
55B
100
AcDbEntity
  8
__ｴﾟ
100
AcDbCircle
  6
BYLAYER
 10
13.000004825404
 20
76.7448728540177
 40
4.25
100
AcDbArc
 50
0
 51
180
  0
LINE
  5
55C
100
AcDbEntity
  8
__ｴﾟ
100
AcDbLine
  6
BYLAYER
 10
8.75000482540395
 20
19.1303888130754
 11
8.75000482540395
 21
20.1763303590939
  0
ARC
  5
55D
100
AcDbEntity
  8
__ｴﾟ
100
AcDbCircle
  6
BYLAYER
 10
13.000004825404
 20
19.1303888130754
 40
4.25
100
AcDbArc
 50
180
 51
0
  0
LINE
  5
55E
100
AcDbEntity
  8
__ｴﾟ
100
AcDbLine
  6
BYLAYER
 10
17.2500048254039
 20
20.1763303590939
 11
17.2500048254039
 21
19.1303888130754
  0
ARC
  5
55F
100
AcDbEntity
  8
__ｴﾟ
100
AcDbCircle
  6
BYLAYER
 10
13.000004825404
 20
20.1763303590939
 40
4.25
100
AcDbArc
 50
0
 51
180
  0
LINE
  5
560
100
AcDbEntity
  8
__ｴﾟ
100
AcDbLine
  6
BYLAYER
 10
159.250004825375
 20
75.6989313079992
 11
159.250004825375
 21
76.7448728540177
  0
ARC
  5
561
100
AcDbEntity
  8
__ｴﾟ
100
AcDbCircle
  6
BYLAYER
 10
155.000004825375
 20
75.6989313079992
 40
4.25
100
AcDbArc
 50
180
 51
0
  0
LINE
  5
562
100
AcDbEntity
  8
__ｴﾟ
100
AcDbLine
  6
BYLAYER
 10
150.750004825375
 20
76.7448728540177
 11
150.750004825375
 21
75.6989313079992
  0
ARC
  5
563
100
AcDbEntity
  8
__ｴﾟ
100
AcDbCircle
  6
BYLAYER
 10
155.000004825375
 20
76.7448728540177
 40
4.25
100
AcDbArc
 50
0
 51
180
  0
LINE
  5
564
100
AcDbEntity
  8
__ｴﾟ
100
AcDbLine
  6
BYLAYER
 10
159.250004825375
 20
19.1303888130754
 11
159.250004825375
 21
20.1763303590939
  0
ARC
  5
565
100
AcDbEntity
  8
__ｴﾟ
100
AcDbCircle
  6
BYLAYER
 10
155.000004825375
 20
19.1303888130754
 40
4.25
100
AcDbArc
 50
180
 51
0
  0
LINE
  5
566
100
AcDbEntity
  8
__ｴﾟ
100
AcDbLine
  6
BYLAYER
 10
150.750004825375
 20
20.1763303590939
 11
150.750004825375
 21
19.1303888130754
  0
ARC
  5
567
100
AcDbEntity
  8
__ｴﾟ
100
AcDbCircle
  6
BYLAYER
 10
155.000004825375
 20
20.1763303590939
 40
4.25
100
AcDbArc
 50
0
 51
180
  0
LINE
  5
568
100
AcDbEntity
  8
__ｴﾟ
100
AcDbLine
  6
BYLAYER
 10
3.00000482533028
 20
294.047407324464
 11
3.0000048253894
 21
313.000003217349
  0
LINE
  5
569
100
AcDbEntity
  8
__ｴﾟ
100
AcDbLine
  6
BYLAYER
 10
24.2745229456038
 20
203.926752161446
 11
143.725486705173
 21
203.926752161446
  0
ENDBLK
  5
56A
100
AcDbEntity
  8
0
 67
     1
100
AcDbBlockEnd
  0
BLOCK
  5
56B
100
AcDbEntity
  8
0
100
AcDbBlockBegin
  2
A$C628971F0
 70
    0
 10
0
 20
0
 30
0.0
  3
A$C628971F0
  1

  0
LINE
  5
56C
100
AcDbEntity
  8
_ｨｹF
100
AcDbLine
  6
BYLAYER
 10
2.49999999999954
 20
129.000002223575
 11
132
 21
129.000002223575
  0
LINE
  5
56D
100
AcDbEntity
  8
_ｨｹF
100
AcDbLine
  6
BYLAYER
 10
134.5
 20
126.500002223574
 11
134.5
 21
2.50000222357448
  0
ARC
  5
56E
100
AcDbEntity
  8
_ｨｹF
100
AcDbCircle
  6
BYLAYER
 10
132
 20
2.50000222357448
 40
2.5
100
AcDbArc
 50
270
 51
0
  0
ARC
  5
56F
100
AcDbEntity
  8
_ｨｹF
100
AcDbCircle
  6
BYLAYER
 10
132
 20
126.500002223574
 40
2.5
100
AcDbArc
 50
0
 51
90
  0
LINE
  5
570
100
AcDbEntity
  8
_ｨｹF
100
AcDbLine
  6
BYLAYER
 10
127.5
 20
129.000002223575
 11
127.5
 21
2.2235744837E-6
  0
LINE
  5
571
100
AcDbEntity
  8
_ｨｹF
100
AcDbLine
  6
BYLAYER
 10
132
 20
2.2235744837E-6
 11
2.49999999999909
 21
2.2235745973E-6
  0
ARC
  5
572
100
AcDbEntity
  8
_ｨｹF
100
AcDbCircle
  6
BYLAYER
 10
2.49999999999909
 20
2.5000022235746
 40
2.5
100
AcDbArc
 50
180
 51
270
  0
LINE
  5
573
100
AcDbEntity
  8
_ｨｹF
100
AcDbLine
  6
BYLAYER
 10
-9.095E-13
 20
2.5000022235746
 11
-4.547E-13
 21
126.500002223574
  0
ARC
  5
574
100
AcDbEntity
  8
_ｨｹF
100
AcDbCircle
  6
BYLAYER
 10
2.49999999999954
 20
126.500002223574
 40
2.5
100
AcDbArc
 50
90
 51
180
  0
LINE
  5
575
100
AcDbEntity
  8
_ｨｹF
100
AcDbLine
  6
BYLAYER
 10
6.99999999999955
 20
2.2235745405E-6
 11
7
 21
129.000002223575
  0
ENDBLK
  5
576
100
AcDbEntity
  8
0
 67
     1
100
AcDbBlockEnd
  0
BLOCK
  5
577
100
AcDbEntity
  8
0
100
AcDbBlockBegin
  2
A$C7E4922DC
 70
    0
 10
0
 20
0
 30
0.0
  3
A$C7E4922DC
  1

  0
CIRCLE
  5
578
100
AcDbEntity
  8
ｭｱｪO
100
AcDbCircle
  6
BYLAYER
 10
125.999997841314
 20
126.00000026956
 40
120.000000000002
  0
CIRCLE
  5
579
100
AcDbEntity
  8
ｭｱｪO
100
AcDbCircle
  6
BYLAYER
 10
125.999997841314
 20
126.00000026956
 40
85.0999999999976
  0
CIRCLE
  5
57A
100
AcDbEntity
  8
ｭｱｪO
100
AcDbCircle
  6
BYLAYER
 10
125.999997841314
 20
126.00000026956
 40
69.2049000000035
  0
CIRCLE
  5
57B
100
AcDbEntity
  8
ｭｱｪO
100
AcDbCircle
  6
BYLAYER
 10
125.999997841314
 20
126.00000026956
 40
25.5
  0
CIRCLE
  5
57C
100
AcDbEntity
  8
CEN
100
AcDbCircle
  6
BYLAYER
 10
125.999997841314
 20
126.00000026956
 40
59.5
  0
CIRCLE
  5
57D
100
AcDbEntity
  8
CEN
100
AcDbCircle
  6
BYLAYER
 10
125.999997841314
 20
126.00000026956
 40
110
  0
LINE
  5
57E
100
AcDbEntity
  8
CEN
100
AcDbLine
  6
BYLAYER
 10
-2.1586856747E-6
 20
126.00000026956
 11
251.999997841314
 21
126.00000026956
  0
LINE
  5
57F
100
AcDbEntity
  8
CEN
100
AcDbLine
  6
BYLAYER
 10
125.999997841314
 20
252.00000026956
 11
125.999997841314
 21
2.695596777E-7
  0
CIRCLE
  5
580
100
AcDbEntity
  8
ｭｱｪO
100
AcDbCircle
  6
BYLAYER
 10
125.999997841314
 20
236.00000026956
 40
3.25
  0
CIRCLE
  5
581
100
AcDbEntity
  8
ｭｱｪO
100
AcDbCircle
  6
BYLAYER
 10
125.999997841314
 20
185.50000026956
 40
2.5
  0
CIRCLE
  5
582
100
AcDbEntity
  8
ｭｱｪO
100
AcDbCircle
  6
BYLAYER
 10
15.9999978413143
 20
126.00000026956
 40
3.25
  0
CIRCLE
  5
583
100
AcDbEntity
  8
ｭｱｪO
100
AcDbCircle
  6
BYLAYER
 10
66.4999978413143
 20
126.00000026956
 40
2.5
  0
CIRCLE
  5
584
100
AcDbEntity
  8
ｭｱｪO
100
AcDbCircle
  6
BYLAYER
 10
125.999997841315
 20
16.0000002695597
 40
3.25
  0
CIRCLE
  5
585
100
AcDbEntity
  8
ｭｱｪO
100
AcDbCircle
  6
BYLAYER
 10
125.999997841315
 20
66.5000002695597
 40
2.5
  0
CIRCLE
  5
586
100
AcDbEntity
  8
ｭｱｪO
100
AcDbCircle
  6
BYLAYER
 10
235.999997841314
 20
126.00000026956
 40
3.25
  0
CIRCLE
  5
587
100
AcDbEntity
  8
ｭｱｪO
100
AcDbCircle
  6
BYLAYER
 10
185.499997841314
 20
126.00000026956
 40
2.5
  0
ENDBLK
  5
588
100
AcDbEntity
  8
0
 67
     1
100
AcDbBlockEnd
  0
BLOCK
  5
589
100
AcDbEntity
  8
0
100
AcDbBlockBegin
  2
A$C08845AD9
 70
    0
 10
0
 20
0
 30
0.0
  3
A$C08845AD9
  1

  0
LINE
  5
58A
100
AcDbEntity
  8
ｭｱｪO
100
AcDbLine
  6
BYLAYER
 10
2.1450964596E-6
 20
50.795096361534
 11
22.5000021450928
 21
34.8999963615297
  0
LINE
  5
58B
100
AcDbEntity
  8
ｭｱｪO
100
AcDbLine
  6
BYLAYER
 10
22.5000021450928
 20
239.999996361535
 11
22.5000021450851
 21
-3.6384699342E-6
  0
LINE
  5
58C
100
AcDbEntity
  8
ｭｱｪO
100
AcDbLine
  6
BYLAYER
 10
22.5000021450851
 20
-3.6384699342E-6
 11
24.0000021450851
 21
-3.6384708437E-6
  0
LINE
  5
58D
100
AcDbEntity
  8
ｭｱｪO
100
AcDbLine
  6
BYLAYER
 10
24.0000021450851
 20
-3.6384708437E-6
 11
24.0000021451124
 21
239.999996361535
  0
LINE
  5
58E
100
AcDbEntity
  8
ｭｱｪO
100
AcDbLine
  6
BYLAYER
 10
24.0000021451124
 20
239.999996361535
 11
22.5000021451124
 21
239.999996361535
  0
LINE
  5
58F
100
AcDbEntity
  8
ｭｱｪO
100
AcDbLine
  6
BYLAYER
 10
22.5000021451124
 20
205.099996361535
 11
2.1451123757E-6
 21
189.204896361535
  0
LINE
  5
590
100
AcDbEntity
  8
ｭｱｪO
100
AcDbLine
  6
BYLAYER
 10
2.1451123757E-6
 20
189.204896361535
 11
2.1450964596E-6
 21
50.795096361534
  0
LINE
  5
591
100
AcDbEntity
  8
ｭｱｪO
100
AcDbLine
  6
BYLAYER
 10
24.0000021450933
 20
35.783396361529
 11
1.50000214509691
 21
51.6784963615337
  0
LINE
  5
592
100
AcDbEntity
  8
ｭｱｪO
100
AcDbLine
  6
BYLAYER
 10
1.50000214509691
 20
51.6784963615337
 11
1.50000214511238
 21
188.321496361536
  0
LINE
  5
593
100
AcDbEntity
  8
ｭｱｪO
100
AcDbLine
  6
BYLAYER
 10
1.50000214511238
 20
188.321496361536
 11
24.0000021451124
 21
204.216596361535
  0
LINE
  5
594
100
AcDbEntity
  8
HIDDEN
100
AcDbLine
  6
BYLAYER
 10
2.1451069188E-6
 20
145.499996361532
 11
1.50000214510692
 21
145.499996361532
  0
LINE
  5
595
100
AcDbEntity
  8
HIDDEN
100
AcDbLine
  6
BYLAYER
 10
2.1451105567E-6
 20
176.999996361532
 11
1.50000214511101
 21
176.999996361532
  0
LINE
  5
596
100
AcDbEntity
  8
HIDDEN
100
AcDbLine
  6
BYLAYER
 10
2.1451110115E-6
 20
181.999996361532
 11
1.50000214511147
 21
181.999996361532
  0
LINE
  5
597
100
AcDbEntity
  8
HIDDEN
100
AcDbLine
  6
BYLAYER
 10
22.5000021450924
 20
226.749996361532
 11
24.000002145111
 21
226.749996361532
  0
LINE
  5
598
100
AcDbEntity
  8
HIDDEN
100
AcDbLine
  6
BYLAYER
 10
22.5000021450919
 20
233.249996361532
 11
24.0000021451119
 21
233.249996361532
  0
LINE
  5
599
100
AcDbEntity
  8
HIDDEN
100
AcDbLine
  6
BYLAYER
 10
2.1451069188E-6
 20
94.4999963615319
 11
1.50000214510692
 21
94.4999963615319
  0
LINE
  5
59A
100
AcDbEntity
  8
HIDDEN
100
AcDbLine
  6
BYLAYER
 10
2.1451105567E-6
 20
62.9999963615319
 11
1.50000214511101
 21
62.9999963615319
  0
LINE
  5
59B
100
AcDbEntity
  8
HIDDEN
100
AcDbLine
  6
BYLAYER
 10
2.1451110115E-6
 20
57.9999963615319
 11
1.50000214511147
 21
57.9999963615319
  0
LINE
  5
59C
100
AcDbEntity
  8
HIDDEN
100
AcDbLine
  6
BYLAYER
 10
22.5000021450924
 20
13.2499963615319
 11
24.000002145111
 21
13.2499963615319
  0
LINE
  5
59D
100
AcDbEntity
  8
HIDDEN
100
AcDbLine
  6
BYLAYER
 10
22.5000021450919
 20
6.74999636153188
 11
24.0000021451119
 21
6.74999636153188
  0
ENDBLK
  5
59E
100
AcDbEntity
  8
0
 67
     1
100
AcDbBlockEnd
  0
BLOCK
  5
59F
100
AcDbEntity
  8
0
100
AcDbBlockBegin
  2
A$C7CEE6151
 70
    0
 10
0
 20
0
 30
0.0
  3
A$C7CEE6151
  1

  0
CIRCLE
  5
5A0
100
AcDbEntity
  8
ｭｱｪO
100
AcDbCircle
  6
BYLAYER
 10
125.999994915455
 20
126.00000026956
 40
120.000000000002
  0
CIRCLE
  5
5A1
100
AcDbEntity
  8
ｭｱｪO
100
AcDbCircle
  6
BYLAYER
 10
125.999994915455
 20
126.00000026956
 40
85.0999999999976
  0
CIRCLE
  5
5A2
100
AcDbEntity
  8
ｭｱｪO
100
AcDbCircle
  6
BYLAYER
 10
125.999994915455
 20
126.00000026956
 40
69.2049000000035
  0
CIRCLE
  5
5A3
100
AcDbEntity
  8
ｭｱｪO
100
AcDbCircle
  6
BYLAYER
 10
125.999994915455
 20
126.00000026956
 40
25.5
  0
CIRCLE
  5
5A4
100
AcDbEntity
  8
CEN
100
AcDbCircle
  6
BYLAYER
 10
125.999994915455
 20
126.00000026956
 40
59.5
  0
CIRCLE
  5
5A5
100
AcDbEntity
  8
CEN
100
AcDbCircle
  6
BYLAYER
 10
125.999994915455
 20
126.00000026956
 40
110
  0
LINE
  5
5A6
100
AcDbEntity
  8
CEN
100
AcDbLine
  6
BYLAYER
 10
125.999994915445
 20
2.695602461E-7
 11
125.999994915465
 21
252.00000026956
  0
LINE
  5
5A7
100
AcDbEntity
  8
CEN
100
AcDbLine
  6
BYLAYER
 10
-5.0845451369E-6
 20
126.000000269571
 11
251.999994915455
 21
126.00000026955
  0
CIRCLE
  5
5A8
100
AcDbEntity
  8
ｭｱｪO
100
AcDbCircle
  6
BYLAYER
 10
48.2182489849411
 20
203.781746200087
 40
3.25
  0
CIRCLE
  5
5A9
100
AcDbEntity
  8
ｭｱｪO
100
AcDbCircle
  6
BYLAYER
 10
83.9271414348589
 20
168.072853750163
 40
2.5
  0
CIRCLE
  5
5AA
100
AcDbEntity
  8
ｭｱｪO
100
AcDbCircle
  6
BYLAYER
 10
48.2182489849286
 20
48.2182543390466
 40
3.25
  0
CIRCLE
  5
5AB
100
AcDbEntity
  8
ｭｱｪO
100
AcDbCircle
  6
BYLAYER
 10
83.927141434852
 20
83.9271467889642
 40
2.5
  0
CIRCLE
  5
5AC
100
AcDbEntity
  8
ｭｱｪO
100
AcDbCircle
  6
BYLAYER
 10
203.781740845969
 20
48.2182543390343
 40
3.25
  0
CIRCLE
  5
5AD
100
AcDbEntity
  8
ｭｱｪO
100
AcDbCircle
  6
BYLAYER
 10
168.072848396052
 20
83.9271467889578
 40
2.5
  0
CIRCLE
  5
5AE
100
AcDbEntity
  8
ｭｱｪO
100
AcDbCircle
  6
BYLAYER
 10
203.781740845981
 20
203.781746200074
 40
3.25
  0
CIRCLE
  5
5AF
100
AcDbEntity
  8
ｭｱｪO
100
AcDbCircle
  6
BYLAYER
 10
168.072848396058
 20
168.072853750157
 40
2.5
  0
ENDBLK
  5
5B0
100
AcDbEntity
  8
0
 67
     1
100
AcDbBlockEnd
  0
BLOCK
  5
5B1
100
AcDbEntity
  8
0
100
AcDbBlockBegin
  2
A$C7E016531
 70
    0
 10
0
 20
0
 30
0.0
  3
A$C7E016531
  1

  0
CIRCLE
  5
5B2
100
AcDbEntity
  8
ｾﾉｪO
100
AcDbCircle
  6
BYLAYER
 10
126.750429379032
 20
126.750430769242
 40
66
  0
CIRCLE
  5
5B3
100
AcDbEntity
  8
ｾﾉｪO
100
AcDbCircle
  6
BYLAYER
 10
126.750429379032
 20
126.750430769242
 40
65
  0
LINE
  5
5B4
100
AcDbEntity
  8
CEN
100
AcDbLine
  6
BYLAYER
 10
138.251289773552
 20
126.750430769242
 11
253.500859576292
 21
126.750430769242
  0
CIRCLE
  5
5B5
100
AcDbEntity
  8
CEN
100
AcDbCircle
  6
BYLAYER
 10
126.750429379032
 20
126.750430769242
 40
110
  0
CIRCLE
  5
5B6
100
AcDbEntity
  8
ｾﾉｪO
100
AcDbCircle
  6
BYLAYER
 10
126.750429379032
 20
126.750430769242
 40
120
  0
CIRCLE
  5
5B7
100
AcDbEntity
  8
ｾﾉｪO
100
AcDbCircle
  6
BYLAYER
 10
126.750429379032
 20
126.750430769242
 40
120
  0
LINE
  5
5B8
100
AcDbEntity
  8
CEN
100
AcDbLine
  6
BYLAYER
 10
126.750429379032
 20
121.000000571982
 11
126.750429379032
 21
132.500860966503
  0
CIRCLE
  5
5B9
100
AcDbEntity
  8
ｾﾉｪO
100
AcDbCircle
  6
BYLAYER
 10
16.7504293790314
 20
126.750430769242
 40
3.25
  0
CIRCLE
  5
5BA
100
AcDbEntity
  8
ｾﾉｪO
100
AcDbCircle
  6
BYLAYER
 10
48.968683448511
 20
48.968684838722
 40
3.25
  0
LINE
  5
5BB
100
AcDbEntity
  8
CEN
100
AcDbLine
  6
BYLAYER
 10
126.750429379032
 20
115.249570374722
 11
126.750429379032
 21
5.719819001E-7
  0
LINE
  5
5BC
100
AcDbEntity
  8
ｾﾉｪO
100
AcDbLine
  6
BYLAYER
 10
7.53804656788247
 20
140.476602285294
 11
7.53804656788247
 21
140.476602285294
  0
LINE
  5
5BD
100
AcDbEntity
  8
CEN
100
AcDbLine
  6
BYLAYER
 10
115.249568984511
 20
126.750430769242
 11
-8.182289548E-7
 21
126.750430769242
  0
CIRCLE
  5
5BE
100
AcDbEntity
  8
ｾﾉｪO
100
AcDbCircle
  6
BYLAYER
 10
48.968683448511
 20
204.532176699762
 40
3.25
  0
LINE
  5
5BF
100
AcDbEntity
  8
CEN
100
AcDbLine
  6
BYLAYER
 10
126.750429379032
 20
138.251291163763
 11
126.750429379032
 21
253.500860966503
  0
LINE
  5
5C0
100
AcDbEntity
  8
CEN
100
AcDbLine
  6
BYLAYER
 10
120.999999181771
 20
126.750430769242
 11
132.500859576292
 21
126.750430769242
  0
CIRCLE
  5
5C1
100
AcDbEntity
  8
ｾﾉｪO
100
AcDbCircle
  6
BYLAYER
 10
126.750429379032
 20
236.750430769242
 40
3.25
  0
CIRCLE
  5
5C2
100
AcDbEntity
  8
ｾﾉｪO
100
AcDbCircle
  6
BYLAYER
 10
236.750429379032
 20
126.750430769242
 40
3.25
  0
CIRCLE
  5
5C3
100
AcDbEntity
  8
ｾﾉｪO
100
AcDbCircle
  6
BYLAYER
 10
204.532175309551
 20
48.9686848387221
 40
3.25
  0
CIRCLE
  5
5C4
100
AcDbEntity
  8
ｾﾉｪO
100
AcDbCircle
  6
BYLAYER
 10
204.532175309551
 20
204.532176699762
 40
3.25
  0
CIRCLE
  5
5C5
100
AcDbEntity
  8
ｾﾉｪO
100
AcDbCircle
  6
BYLAYER
 10
126.750429379032
 20
16.7504307692422
 40
3.25
  0
ENDBLK
  5
5C6
100
AcDbEntity
  8
0
 67
     1
100
AcDbBlockEnd
  0
BLOCK
  5
5C7
100
AcDbEntity
  8
0
100
AcDbBlockBegin
  2
A$C6FD70170
 70
    0
 10
0
 20
0
 30
0.0
  3
A$C6FD70170
  1

  0
LINE
  5
5C8
100
AcDbEntity
  8
ｾﾉｪO
100
AcDbLine
  6
BYLAYER
 10
19.000005272299
 20
240.000002504978
 11
20.000005272299
 21
240.000002504978
  0
LINE
  5
5C9
100
AcDbEntity
  8
ｾﾉｪO
100
AcDbLine
  6
BYLAYER
 10
10.0000052722989
 20
55.0000025049783
 11
10.0000052722989
 21
185.000002504978
  0
LINE
  5
5CA
100
AcDbEntity
  8
ｾﾉｪO
100
AcDbLine
  6
BYLAYER
 10
19.000005272299
 20
2.5049782835E-6
 11
20.000005272299
 21
2.5049782835E-6
  0
LINE
  5
5CB
100
AcDbEntity
  8
CEN
100
AcDbLine
  6
BYLAYER
 10
5.2722989494E-6
 20
120.000002504978
 11
29.000005272299
 21
120.000002504978
  0
ARC
  5
5CC
100
AcDbEntity
  8
ｾﾉｪO
100
AcDbCircle
  6
BYLAYER
 10
9.00000527229895
 20
44.045551354875
 40
9.99999999999992
100
AcDbArc
 50
0
 51
84.2608295227124
  0
ARC
  5
5CD
100
AcDbEntity
  8
HIDDEN
100
AcDbCircle
  6
BYLAYER
 10
9.00000527229895
 20
44.045551354875
 40
10.9999999999999
100
AcDbArc
 50
0
 51
84.7840914295506
  0
LINE
  5
5CE
100
AcDbEntity
  8
ｾﾉｪO
100
AcDbLine
  6
BYLAYER
 10
20.000005272299
 20
44.0455513548751
 11
20.000005272299
 21
2.5049782835E-6
  0
ARC
  5
5CF
100
AcDbEntity
  8
HIDDEN
100
AcDbCircle
  6
BYLAYER
 10
9.00000527229895
 20
195.954453655082
 40
11
100
AcDbArc
 50
275.215908570449
 51
0
  0
LINE
  5
5D0
100
AcDbEntity
  8
ｾﾉｪO
100
AcDbLine
  6
BYLAYER
 10
20.000005272299
 20
195.954453655082
 11
20.000005272299
 21
240.000002504978
  0
LINE
  5
5D1
100
AcDbEntity
  8
ｾﾉｪO
100
AcDbLine
  6
BYLAYER
 10
19.000005272299
 20
2.5049782835E-6
 11
19.000005272299
 21
240.000002504978
  0
ARC
  5
5D2
100
AcDbEntity
  8
ｾﾉｪO
100
AcDbCircle
  6
BYLAYER
 10
9.00000527229895
 20
195.954453655082
 40
9.99999999999997
100
AcDbArc
 50
275.739170477288
 51
0
  0
LINE
  5
5D3
100
AcDbEntity
  8
ｾﾉｪO
100
AcDbLine
  6
BYLAYER
 10
20.000005272299
 20
195.954453655082
 11
20.000005272299
 21
44.0455513548751
  0
LINE
  5
5D4
100
AcDbEntity
  8
ｾﾉｪO
100
AcDbLine
  6
BYLAYER
 10
10.0000052722989
 20
185.000002504978
 11
10.0000052722989
 21
186.004579284015
  0
LINE
  5
5D5
100
AcDbEntity
  8
ｾﾉｪO
100
AcDbLine
  6
BYLAYER
 10
10.0000052722989
 20
55.0000025049783
 11
10.0000052722989
 21
53.9954257259411
  0
ENDBLK
  5
5D6
100
AcDbEntity
  8
0
 67
     1
100
AcDbBlockEnd
  0
BLOCK
  5
5D7
100
AcDbEntity
  8
0
100
AcDbBlockBegin
  2
A$C6B324015
 70
    0
 10
0
 20
0
 30
0.0
  3
A$C6B324015
  1

  0
CIRCLE
  5
5D8
100
AcDbEntity
  8
､Jｭｷ､f
100
AcDbCircle
  6
BYLAYER
 10
124.453360592239
 20
124.453360324883
 40
75
  0
CIRCLE
  5
5D9
100
AcDbEntity
  8
､Jｭｷ､f
100
AcDbCircle
  6
BYLAYER
 10
124.453360592239
 20
124.453360324883
 40
74
  0
CIRCLE
  5
5DA
100
AcDbEntity
  8
､Jｭｷ､f
100
AcDbCircle
  6
BYLAYER
 10
124.453360592239
 20
124.453360324883
 40
74
  0
CIRCLE
  5
5DB
100
AcDbEntity
  8
､Jｭｷ､f
100
AcDbCircle
  6
BYLAYER
 10
124.453360592239
 20
124.453360324883
 40
119
  0
CIRCLE
  5
5DC
100
AcDbEntity
  8
､Jｭｷ､f
100
AcDbCircle
  6
BYLAYER
 10
46.6716146617186
 20
46.6716143943628
 40
3.25
  0
CIRCLE
  5
5DD
100
AcDbEntity
  8
､Jｭｷ､f
100
AcDbCircle
  6
BYLAYER
 10
124.453360592239
 20
14.4533603248831
 40
3.25
  0
CIRCLE
  5
5DE
100
AcDbEntity
  8
､Jｭｷ､f
100
AcDbCircle
  6
BYLAYER
 10
202.235106522759
 20
46.6716143943628
 40
3.25
  0
CIRCLE
  5
5DF
100
AcDbEntity
  8
､Jｭｷ､f
100
AcDbCircle
  6
BYLAYER
 10
14.453360592239
 20
124.453360324883
 40
3.25
  0
CIRCLE
  5
5E0
100
AcDbEntity
  8
､Jｭｷ､f
100
AcDbCircle
  6
BYLAYER
 10
46.6716146617186
 20
202.235106255403
 40
3.25
  0
CIRCLE
  5
5E1
100
AcDbEntity
  8
､Jｭｷ､f
100
AcDbCircle
  6
BYLAYER
 10
234.453360592239
 20
124.453360324883
 40
3.25
  0
CIRCLE
  5
5E2
100
AcDbEntity
  8
､Jｭｷ､f
100
AcDbCircle
  6
BYLAYER
 10
202.235106522759
 20
202.235106255403
 40
3.25
  0
CIRCLE
  5
5E3
100
AcDbEntity
  8
､Jｭｷ､f
100
AcDbCircle
  6
BYLAYER
 10
124.453360592239
 20
234.453360324883
 40
3.25
  0
CIRCLE
  5
5E4
100
AcDbEntity
  8
CEN
100
AcDbCircle
  6
BYLAYER
 10
124.453360592239
 20
124.453360324883
 40
110
  0
LINE
  5
5E5
100
AcDbEntity
  8
CEN
100
AcDbLine
  6
BYLAYER
 10
118.999999946776
 20
124.453360324883
 11
129.906721237702
 21
124.453360324883
  0
LINE
  5
5E6
100
AcDbEntity
  8
CEN
100
AcDbLine
  6
BYLAYER
 10
124.453360592239
 20
118.99999967942
 11
124.453360592239
 21
129.906720970346
  0
LINE
  5
5E7
100
AcDbEntity
  8
CEN
100
AcDbLine
  6
BYLAYER
 10
113.546639301312
 20
124.453360324883
 11
-5.32243121E-8
 21
124.453360324883
  0
LINE
  5
5E8
100
AcDbEntity
  8
CEN
100
AcDbLine
  6
BYLAYER
 10
135.360081883166
 20
124.453360324883
 11
248.906721237702
 21
124.453360324883
  0
LINE
  5
5E9
100
AcDbEntity
  8
CEN
100
AcDbLine
  6
BYLAYER
 10
124.453360592239
 20
113.546639033956
 11
124.453360592239
 21
-3.205802841E-7
  0
LINE
  5
5EA
100
AcDbEntity
  8
CEN
100
AcDbLine
  6
BYLAYER
 10
124.453360592239
 20
135.36008161581
 11
124.453360592239
 21
248.906720970346
  0
ENDBLK
  5
5EB
100
AcDbEntity
  8
0
 67
     1
100
AcDbBlockEnd
  0
BLOCK
  5
5EC
100
AcDbEntity
  8
0
100
AcDbBlockBegin
  2
A$C359D335D
 70
    0
 10
0
 20
0
 30
0.0
  3
A$C359D335D
  1

  0
LINE
  5
5ED
100
AcDbEntity
  8
､Jｭｷ､f
100
AcDbLine
  6
BYLAYER
 10
2.9989881658521
 20
193.999997065594
 11
3.0010098567177
 21
43.9999970655938
  0
LINE
  5
5EE
100
AcDbEntity
  8
､Jｭｷ､f
100
AcDbLine
  6
BYLAYER
 10
36.0010098567177
 20
237.999997065594
 11
37.0010098567177
 21
237.999997065594
  0
LINE
  5
5EF
100
AcDbEntity
  8
､Jｭｷ､f
100
AcDbLine
  6
BYLAYER
 10
2.9989881658521
 20
193.999997065594
 11
35.9989881658521
 21
193.999997065594
  0
LINE
  5
5F0
100
AcDbEntity
  8
HIDDEN
100
AcDbLine
  6
BYLAYER
 10
2.9989881658521
 20
192.999997065594
 11
36.9989881658521
 21
192.999997065594
  0
LINE
  5
5F1
100
AcDbEntity
  8
､Jｭｷ､f
100
AcDbLine
  6
BYLAYER
 10
37.0010098567177
 20
237.999997065594
 11
37.0010098567177
 21
-2.9344062114E-6
  0
LINE
  5
5F2
100
AcDbEntity
  8
､Jｭｷ､f
100
AcDbLine
  6
BYLAYER
 10
36.0010098567177
 20
237.999997065594
 11
36.0010098567177
 21
-2.9344062114E-6
  0
LINE
  5
5F3
100
AcDbEntity
  8
､Jｭｷ､f
100
AcDbLine
  6
BYLAYER
 10
3.0010098567177
 20
43.9999970655938
 11
36.0010098567177
 21
43.9999970655938
  0
LINE
  5
5F4
100
AcDbEntity
  8
HIDDEN
100
AcDbLine
  6
BYLAYER
 10
3.0010098567177
 20
44.9999970655938
 11
37.0010098567177
 21
44.9999970655938
  0
LINE
  5
5F5
100
AcDbEntity
  8
､Jｭｷ､f
100
AcDbLine
  6
BYLAYER
 10
36.0010098567177
 20
-2.9344062114E-6
 11
37.0010098567177
 21
-2.9344062114E-6
  0
LINE
  5
5F6
100
AcDbEntity
  8
CEN
100
AcDbLine
  6
BYLAYER
 10
-9.887153283E-7
 20
118.999997065594
 11
40.0010098567177
 21
118.999997065594
  0
ENDBLK
  5
5F7
100
AcDbEntity
  8
0
 67
     1
100
AcDbBlockEnd
  0
BLOCK
  5
5F8
100
AcDbEntity
  8
0
100
AcDbBlockBegin
  2
A$C209D30BE
 70
    0
 10
0
 20
0
 30
0.0
  3
A$C209D30BE
  1

  0
CIRCLE
  5
5F9
100
AcDbEntity
  8
DIM
100
AcDbCircle
  6
BYLAYER
 10
95.0000022708791
 20
94.9999996173137
 40
7
  0
CIRCLE
  5
5FA
100
AcDbEntity
  8
DIM
100
AcDbCircle
  6
BYLAYER
 10
95.0000022708791
 20
94.9999996173137
 40
18
  0
CIRCLE
  5
5FB
100
AcDbEntity
  8
DIM
100
AcDbCircle
  6
BYLAYER
 10
95.0000022708791
 20
94.9999996173137
 40
73.75
  0
CIRCLE
  5
5FC
100
AcDbEntity
  8
DIM
100
AcDbCircle
  6
BYLAYER
 10
95.0000022708791
 20
94.9999996173137
 40
95
  0
ENDBLK
  5
5FD
100
AcDbEntity
  8
0
 67
     1
100
AcDbBlockEnd
  0
BLOCK
  5
5FE
100
AcDbEntity
  8
0
100
AcDbBlockBegin
  2
A$C2159161A
 70
    0
 10
0
 20
0
 30
0.0
  3
A$C2159161A
  1

  0
CIRCLE
  5
5FF
100
AcDbEntity
  8
ｭｷｽ�
100
AcDbCircle
  6
BYLAYER
 10
95.0000022708809
 20
94.9999996173128
 40
7
  0
CIRCLE
  5
600
100
AcDbEntity
  8
ｭｷｽ�
100
AcDbCircle
  6
BYLAYER
 10
95.0000022708809
 20
94.9999996173128
 40
18
  0
CIRCLE
  5
601
100
AcDbEntity
  8
ｭｷｽ�
100
AcDbCircle
  6
BYLAYER
 10
95.0000022708809
 20
94.9999996173128
 40
73.75
  0
CIRCLE
  5
602
100
AcDbEntity
  8
ｭｷｽ�
100
AcDbCircle
  6
BYLAYER
 10
95.0000022708809
 20
94.9999996173128
 40
95
  0
CIRCLE
  5
603
100
AcDbEntity
  8
ｭｷｽ�
100
AcDbCircle
  6
BYLAYER
 10
95.0000022708809
 20
94.9999996173128
 40
34
  0
ARC
  5
604
100
AcDbEntity
  8
ｭｷｽ�
100
AcDbCircle
  6
BYLAYER
 10
54.0311015128866
 20
148.966608494485
 40
40.969003179291
100
AcDbArc
 50
330.128116526995
 51
28.6034663665865
  0
ARC
  5
605
100
AcDbEntity
  8
ｭｷｽ�
100
AcDbCircle
  6
BYLAYER
 10
54.0311015128866
 20
148.966608494485
 40
34.969003179291
100
AcDbArc
 50
333.746569409139
 51
21.3270396561739
  0
ARC
  5
606
100
AcDbEntity
  8
ｭｷｽ�
100
AcDbCircle
  6
BYLAYER
 10
54.0311015128866
 20
148.966608494485
 40
30.969003179291
100
AcDbArc
 50
333.746569409139
 51
21.3270396561739
  0
ARC
  5
607
100
AcDbEntity
  8
ｭｷｽ�
100
AcDbCircle
  6
BYLAYER
 10
35.6228517459192
 20
127.637396856616
 40
40.969003179291
100
AcDbArc
 50
354.128116526992
 51
52.6034663665873
  0
ARC
  5
608
100
AcDbEntity
  8
ｭｷｽ�
100
AcDbCircle
  6
BYLAYER
 10
27.4814507291958
 20
100.664882734626
 40
40.969003179291
100
AcDbArc
 50
18.1281165269927
 51
76.6034663665878
  0
ARC
  5
609
100
AcDbEntity
  8
ｭｷｽ�
100
AcDbCircle
  6
BYLAYER
 10
31.0146206608138
 20
72.712858857805
 40
40.969003179291
100
AcDbArc
 50
42.1281165269983
 51
100.603466366588
  0
ARC
  5
60A
100
AcDbEntity
  8
ｭｷｽ�
100
AcDbCircle
  6
BYLAYER
 10
45.6114443617557
 20
48.6144840906204
 40
40.969003179291
100
AcDbArc
 50
66.1281165269914
 51
124.603466366592
  0
ARC
  5
60B
100
AcDbEntity
  8
ｭｷｽ�
100
AcDbCircle
  6
BYLAYER
 10
68.7479984061483
 20
32.5365863571806
 40
40.969003179291
100
AcDbArc
 50
90.1281165269968
 51
148.60346636659
  0
ARC
  5
60C
100
AcDbEntity
  8
ｭｷｽ�
100
AcDbCircle
  6
BYLAYER
 10
96.4237624107211
 20
27.259180238712
 40
40.969003179291
100
AcDbArc
 50
114.128116526995
 51
172.603466366591
  0
ARC
  5
60D
100
AcDbEntity
  8
ｭｷｽ�
100
AcDbCircle
  6
BYLAYER
 10
123.853345352661
 20
33.694777196828
 40
40.969003179291
100
AcDbArc
 50
138.128116526992
 51
196.603466366585
  0
ARC
  5
60E
100
AcDbEntity
  8
ｭｷｽ�
100
AcDbCircle
  6
BYLAYER
 10
146.293923151368
 20
50.7306040519071
 40
40.969003179291
100
AcDbArc
 50
162.128116527001
 51
220.603466366582
  0
ARC
  5
60F
100
AcDbEntity
  8
ｭｷｽ�
100
AcDbCircle
  6
BYLAYER
 10
159.865316039196
 20
75.4210115750777
 40
40.969003179291
100
AcDbArc
 50
186.128116526995
 51
244.603466366582
  0
ARC
  5
610
100
AcDbEntity
  8
ｭｷｽ�
100
AcDbCircle
  6
BYLAYER
 10
162.220906893607
 20
103.496804000273
 40
40.969003179291
100
AcDbArc
 50
210.128116526998
 51
268.603466366587
  0
ARC
  5
611
100
AcDbEntity
  8
ｭｷｽ�
100
AcDbCircle
  6
BYLAYER
 10
152.953392656002
 20
130.10342175661
 40
40.969003179291
100
AcDbArc
 50
234.128116526998
 51
292.603466366587
  0
ARC
  5
612
100
AcDbEntity
  8
ｭｷｽ�
100
AcDbCircle
  6
BYLAYER
 10
133.665210730786
 20
150.640338920485
 40
40.969003179291
100
AcDbArc
 50
258.12811652699
 51
316.603466366591
  0
ARC
  5
613
100
AcDbEntity
  8
ｭｷｽ�
100
AcDbCircle
  6
BYLAYER
 10
107.691463000461
 20
161.556535942226
 40
40.969003179291
100
AcDbArc
 50
282.128116527
 51
340.603466366583
  0
ARC
  5
614
100
AcDbEntity
  8
ｭｷｽ�
100
AcDbCircle
  6
BYLAYER
 10
79.5232464116905
 20
160.96450318624
 40
40.969003179291
100
AcDbArc
 50
306.128116526996
 51
4.6034663665909
  0
ARC
  5
615
100
AcDbEntity
  8
ｭｷｽ�
100
AcDbCircle
  6
BYLAYER
 10
84.7423772762436
 20
160.957134405517
 40
2
100
AcDbArc
 50
21.3270396561739
 51
201.327039656174
  0
ARC
  5
616
100
AcDbEntity
  8
ｭｷｽ�
100
AcDbCircle
  6
BYLAYER
 10
83.5992286390435
 20
134.383020839606
 40
2
100
AcDbArc
 50
153.746569409139
 51
333.746569409139
  0
ARC
  5
617
100
AcDbEntity
  8
ｭｷｽ�
100
AcDbCircle
  6
BYLAYER
 10
35.6228517459192
 20
127.637396856616
 40
34.969003179291
100
AcDbArc
 50
357.746569409129
 51
45.3270396561728
  0
ARC
  5
618
100
AcDbEntity
  8
ｭｷｽ�
100
AcDbCircle
  6
BYLAYER
 10
35.6228517459192
 20
127.637396856616
 40
30.969003179291
100
AcDbArc
 50
357.746569409129
 51
45.3270396561728
  0
ARC
  5
619
100
AcDbEntity
  8
ｭｷｽ�
100
AcDbCircle
  6
BYLAYER
 10
58.8020119601763
 20
151.082688545949
 40
2
100
AcDbArc
 50
45.3270396561728
 51
225.327039656171
  0
ARC
  5
61A
100
AcDbEntity
  8
ｭｷｽ�
100
AcDbCircle
  6
BYLAYER
 10
68.5663594597659
 20
126.3410673677
 40
2
100
AcDbArc
 50
177.746569409129
 51
357.746569409129
  0
ARC
  5
61B
100
AcDbEntity
  8
ｭｷｽ�
100
AcDbCircle
  6
BYLAYER
 10
27.4814507291958
 20
100.664882734626
 40
34.969003179291
100
AcDbArc
 50
21.7465694091348
 51
69.3270396561764
  0
ARC
  5
61C
100
AcDbEntity
  8
ｭｷｽ�
100
AcDbCircle
  6
BYLAYER
 10
27.4814507291958
 20
100.664882734626
 40
30.969003179291
100
AcDbArc
 50
21.7465694091348
 51
69.3270396561764
  0
ARC
  5
61D
100
AcDbEntity
  8
ｭｷｽ�
100
AcDbCircle
  6
BYLAYER
 10
39.1206080172481
 20
131.511036275385
 40
2
100
AcDbArc
 50
69.3270396561764
 51
249.327039656176
  0
ARC
  5
61E
100
AcDbEntity
  8
ｭｷｽ�
100
AcDbCircle
  6
BYLAYER
 10
58.1041072646358
 20
112.879958557091
 40
2
100
AcDbArc
 50
201.746569409135
 51
21.7465694091348
  0
ARC
  5
61F
100
AcDbEntity
  8
ｭｷｽ�
100
AcDbCircle
  6
BYLAYER
 10
31.0146206608138
 20
72.712858857805
 40
34.969003179291
100
AcDbArc
 50
45.7465694091264
 51
93.327039656168
  0
ARC
  5
620
100
AcDbEntity
  8
ｭｷｽ�
100
AcDbCircle
  6
BYLAYER
 10
31.0146206608138
 20
72.712858857805
 40
30.969003179291
100
AcDbArc
 50
45.7465694091264
 51
93.327039656168
  0
ARC
  5
621
100
AcDbEntity
  8
ｭｷｽ�
100
AcDbCircle
  6
BYLAYER
 10
29.1012589891329
 20
105.626294074285
 40
2
100
AcDbArc
 50
93.327039656168
 51
273.327039656168
  0
ARC
  5
622
100
AcDbEntity
  8
ｭｷｽ�
100
AcDbCircle
  6
BYLAYER
 10
54.021490504769
 20
96.3272424114659
 40
2
100
AcDbArc
 50
225.74656940914
 51
45.7465694091403
  0
ARC
  5
623
100
AcDbEntity
  8
ｭｷｽ�
100
AcDbCircle
  6
BYLAYER
 10
45.6114443617557
 20
48.6144840906204
 40
34.969003179291
100
AcDbArc
 50
69.7465694091366
 51
117.327039656173
  0
ARC
  5
624
100
AcDbEntity
  8
ｭｷｽ�
100
AcDbCircle
  6
BYLAYER
 10
45.6114443617557
 20
48.6144840906204
 40
30.969003179291
100
AcDbArc
 50
69.7465694091366
 51
117.327039656173
  0
ARC
  5
625
100
AcDbEntity
  8
ｭｷｽ�
100
AcDbCircle
  6
BYLAYER
 10
30.4764013457202
 20
77.9041690247206
 40
2
100
AcDbArc
 50
117.327039656173
 51
297.327039656173
  0
ARC
  5
626
100
AcDbEntity
  8
ｭｷｽ�
100
AcDbCircle
  6
BYLAYER
 10
57.0244307073551
 20
79.5450339291096
 40
2
100
AcDbArc
 50
249.746569409137
 51
69.7465694091366
  0
ARC
  5
627
100
AcDbEntity
  8
ｭｷｽ�
100
AcDbCircle
  6
BYLAYER
 10
68.7479984061483
 20
32.5365863571806
 40
34.969003179291
100
AcDbArc
 50
93.7465694091328
 51
141.327039656165
  0
ARC
  5
628
100
AcDbEntity
  8
ｭｷｽ�
100
AcDbCircle
  6
BYLAYER
 10
68.7479984061483
 20
32.5365863571806
 40
30.969003179291
100
AcDbArc
 50
93.7465694091328
 51
141.327039656165
  0
ARC
  5
629
100
AcDbEntity
  8
ｭｷｽ�
100
AcDbCircle
  6
BYLAYER
 10
43.0082604807799
 20
53.1380683953605
 40
2
100
AcDbArc
 50
141.327039656165
 51
321.327039656165
  0
ARC
  5
62A
100
AcDbEntity
  8
ｭｷｽ�
100
AcDbCircle
  6
BYLAYER
 10
66.5936922305118
 20
65.4351294181994
 40
2
100
AcDbArc
 50
273.746569409133
 51
93.7465694091328
  0
ARC
  5
62B
100
AcDbEntity
  8
ｭｷｽ�
100
AcDbCircle
  6
BYLAYER
 10
96.4237624107211
 20
27.259180238712
 40
34.969003179291
100
AcDbArc
 50
117.746569409133
 51
165.32703965617
  0
ARC
  5
62C
100
AcDbEntity
  8
ｭｷｽ�
100
AcDbCircle
  6
BYLAYER
 10
96.4237624107211
 20
27.259180238712
 40
30.969003179291
100
AcDbArc
 50
117.746569409133
 51
165.32703965617
  0
ARC
  5
62D
100
AcDbEntity
  8
ｭｷｽ�
100
AcDbCircle
  6
BYLAYER
 10
64.5299641014942
 20
35.6102759779817
 40
2
100
AcDbArc
 50
165.327039656176
 51
345.32703965617
  0
ARC
  5
62E
100
AcDbEntity
  8
ｭｷｽ�
100
AcDbCircle
  6
BYLAYER
 10
81.0746628228735
 20
56.4372595531295
 40
2
100
AcDbArc
 50
297.746569409133
 51
117.746569409133
  0
ARC
  5
62F
100
AcDbEntity
  8
ｭｷｽ�
100
AcDbCircle
  6
BYLAYER
 10
123.853345352661
 20
33.694777196828
 40
34.969003179291
100
AcDbArc
 50
141.746569409132
 51
189.327039656176
  0
ARC
  5
630
100
AcDbEntity
  8
ｭｷｽ�
100
AcDbCircle
  6
BYLAYER
 10
123.853345352661
 20
33.694777196828
 40
30.969003179291
100
AcDbArc
 50
141.746569409132
 51
189.327039656176
  0
ARC
  5
631
100
AcDbEntity
  8
ｭｷｽ�
100
AcDbCircle
  6
BYLAYER
 10
91.3202141333018
 20
28.3515063165447
 40
2
100
AcDbArc
 50
189.327039656176
 51
9.32703965617573
  0
ARC
  5
632
100
AcDbEntity
  8
ｭｷｽ�
100
AcDbCircle
  6
BYLAYER
 10
97.963451113533
 20
54.1072377766522
 40
2
100
AcDbArc
 50
321.746569409133
 51
141.746569409132
  0
ARC
  5
633
100
AcDbEntity
  8
ｭｷｽ�
100
AcDbCircle
  6
BYLAYER
 10
146.293923151368
 20
50.7306040519071
 40
34.969003179291
100
AcDbArc
 50
165.746569409137
 51
213.327039656171
  0
ARC
  5
634
100
AcDbEntity
  8
ｭｷｽ�
100
AcDbCircle
  6
BYLAYER
 10
146.293923151368
 20
50.7306040519071
 40
30.969003179291
100
AcDbArc
 50
165.746569409137
 51
213.327039656171
  0
ARC
  5
635
100
AcDbEntity
  8
ｭｷｽ�
100
AcDbCircle
  6
BYLAYER
 10
118.746732963923
 20
32.6168666293638
 40
2
100
AcDbArc
 50
213.327039656171
 51
33.3270396561671
  0
ARC
  5
636
100
AcDbEntity
  8
ｭｷｽ�
100
AcDbCircle
  6
BYLAYER
 10
114.33983217721
 20
58.847946021504
 40
2
100
AcDbArc
 50
345.746569409137
 51
165.746569409137
  0
ARC
  5
637
100
AcDbEntity
  8
ｭｷｽ�
100
AcDbCircle
  6
BYLAYER
 10
159.865316039196
 20
75.4210115750777
 40
34.969003179291
100
AcDbArc
 50
189.746569409134
 51
237.327039656172
  0
ARC
  5
638
100
AcDbEntity
  8
ｭｷｽ�
100
AcDbCircle
  6
BYLAYER
 10
159.865316039196
 20
75.4210115750777
 40
30.969003179291
100
AcDbArc
 50
189.746569409134
 51
237.327039656172
  0
ARC
  5
639
100
AcDbEntity
  8
ｭｷｽ�
100
AcDbCircle
  6
BYLAYER
 10
142.067226325441
 20
47.6688373687707
 40
2
100
AcDbArc
 50
237.327039656172
 51
57.3270396561716
  0
ARC
  5
63A
100
AcDbEntity
  8
ｭｷｽ�
100
AcDbCircle
  6
BYLAYER
 10
127.372180953244
 20
69.8396727641672
 40
2
100
AcDbArc
 50
9.74656940913395
 51
189.746569409134
  0
ARC
  5
63B
100
AcDbEntity
  8
ｭｷｽ�
100
AcDbCircle
  6
BYLAYER
 10
162.220906893607
 20
103.496804000273
 40
34.969003179291
100
AcDbArc
 50
213.746569409126
 51
261.327039656182
  0
ARC
  5
63C
100
AcDbEntity
  8
ｭｷｽ�
100
AcDbCircle
  6
BYLAYER
 10
162.220906893607
 20
103.496804000273
 40
30.969003179291
100
AcDbArc
 50
213.746569409126
 51
261.327039656182
  0
ARC
  5
63D
100
AcDbEntity
  8
ｭｷｽ�
100
AcDbCircle
  6
BYLAYER
 10
157.249369055619
 20
70.9047960510605
 40
2
100
AcDbArc
 50
261.327039656182
 51
81.3270396561692
  0
ARC
  5
63E
100
AcDbEntity
  8
ｭｷｽ�
100
AcDbCircle
  6
BYLAYER
 10
134.807085943087
 20
85.1818485941329
 40
2
100
AcDbArc
 50
33.7465694091379
 51
213.746569409138
  0
ARC
  5
63F
100
AcDbEntity
  8
ｭｷｽ�
100
AcDbCircle
  6
BYLAYER
 10
152.953392656002
 20
130.10342175661
 40
34.969003179291
100
AcDbArc
 50
237.746569409135
 51
285.327039656173
  0
ARC
  5
640
100
AcDbEntity
  8
ｭｷｽ�
100
AcDbCircle
  6
BYLAYER
 10
152.953392656002
 20
130.10342175661
 40
30.969003179291
100
AcDbArc
 50
237.746569409135
 51
285.327039656173
  0
ARC
  5
641
100
AcDbEntity
  8
ｭｷｽ�
100
AcDbCircle
  6
BYLAYER
 10
161.668030750972
 20
98.3070343280078
 40
2
100
AcDbArc
 50
285.327039656173
 51
105.327039656173
  0
ARC
  5
642
100
AcDbEntity
  8
ｭｷｽ�
100
AcDbCircle
  6
BYLAYER
 10
135.358984530003
 20
102.221671931109
 40
2
100
AcDbArc
 50
57.7465694091347
 51
237.746569409135
  0
ARC
  5
643
100
AcDbEntity
  8
ｭｷｽ�
100
AcDbCircle
  6
BYLAYER
 10
133.665210730786
 20
150.640338920485
 40
34.969003179291
100
AcDbArc
 50
261.746569409136
 51
309.327039656172
  0
ARC
  5
644
100
AcDbEntity
  8
ｭｷｽ�
100
AcDbCircle
  6
BYLAYER
 10
133.665210730786
 20
150.640338920485
 40
30.969003179291
100
AcDbArc
 50
261.746569409136
 51
309.327039656172
  0
ARC
  5
645
100
AcDbEntity
  8
ｭｷｽ�
100
AcDbCircle
  6
BYLAYER
 10
154.559184662092
 20
125.137456260009
 40
2
100
AcDbArc
 50
309.327039656172
 51
129.327039656172
  0
ARC
  5
646
100
AcDbEntity
  8
ｭｷｽ�
100
AcDbCircle
  6
BYLAYER
 10
128.932448434474
 20
118.012802518195
 40
2
100
AcDbArc
 50
81.746569409136
 51
261.746569409136
  0
ARC
  5
647
100
AcDbEntity
  8
ｭｷｽ�
100
AcDbCircle
  6
BYLAYER
 10
107.691463000461
 20
161.556535942226
 40
34.969003179291
100
AcDbArc
 50
285.746569409131
 51
333.327039656169
  0
ARC
  5
648
100
AcDbEntity
  8
ｭｷｽ�
100
AcDbCircle
  6
BYLAYER
 10
107.691463000461
 20
161.556535942226
 40
30.969003179291
100
AcDbArc
 50
285.746569409131
 51
333.327039656169
  0
ARC
  5
649
100
AcDbEntity
  8
ｭｷｽ�
100
AcDbCircle
  6
BYLAYER
 10
137.152014859587
 20
146.756838148289
 40
2
100
AcDbArc
 50
333.327039656169
 51
153.327039656169
  0
ARC
  5
64A
100
AcDbEntity
  8
ｭｷｽ�
100
AcDbCircle
  6
BYLAYER
 10
116.638684130663
 20
129.824810418969
 40
2
100
AcDbArc
 50
105.746569409131
 51
285.746569409131
  0
ARC
  5
64B
100
AcDbEntity
  8
ｭｷｽ�
100
AcDbCircle
  6
BYLAYER
 10
79.5232464116905
 20
160.96450318624
 40
34.969003179291
100
AcDbArc
 50
309.746569409141
 51
357.327039656173
  0
ARC
  5
64C
100
AcDbEntity
  8
ｭｷｽ�
100
AcDbCircle
  6
BYLAYER
 10
79.5232464116905
 20
160.96450318624
 40
30.969003179291
100
AcDbArc
 50
309.746569409141
 51
357.327039656173
  0
ARC
  5
64D
100
AcDbEntity
  8
ｭｷｽ�
100
AcDbCircle
  6
BYLAYER
 10
112.456379141481
 20
159.426992458447
 40
2
100
AcDbArc
 50
357.327039656173
 51
177.327039656173
  0
ARC
  5
64E
100
AcDbEntity
  8
ｭｷｽ�
100
AcDbCircle
  6
BYLAYER
 10
100.603395152043
 20
135.615292158662
 40
2
100
AcDbArc
 50
129.746569409141
 51
309.746569409141
  0
CIRCLE
  5
64F
100
AcDbEntity
  8
ｭｷｽ�
100
AcDbCircle
  6
BYLAYER
 10
95.0000022708809
 20
94.9999996173128
 40
23.5
  0
CIRCLE
  5
650
100
AcDbEntity
  8
ｭｷｽ�
100
AcDbCircle
  6
BYLAYER
 10
95.0000022708809
 20
94.9999996173128
 40
26
  0
ARC
  5
651
100
AcDbEntity
  8
ｭｷｽ�
100
AcDbCircle
  6
BYLAYER
 10
79.5232464116896
 20
160.96450318624
 40
40.969003179291
100
AcDbArc
 50
4.60346636658441
 51
42.9637212445019
  0
ARC
  5
652
100
AcDbEntity
  8
ｭｷｽ�
100
AcDbCircle
  6
BYLAYER
 10
54.0311015128859
 20
148.966608494485
 40
40.969003179291
100
AcDbArc
 50
28.6034663665822
 51
66.9637212445102
  0
ARC
  5
653
100
AcDbEntity
  8
ｭｷｽ�
100
AcDbCircle
  6
BYLAYER
 10
35.6228517459185
 20
127.637396856616
 40
40.969003179291
100
AcDbArc
 50
52.6034663665873
 51
90.9637212445128
  0
ARC
  5
654
100
AcDbEntity
  8
ｭｷｽ�
100
AcDbCircle
  6
BYLAYER
 10
27.4814507291951
 20
100.664882734625
 40
40.969003179291
100
AcDbArc
 50
76.6034663665878
 51
114.9637212445
  0
ARC
  5
655
100
AcDbEntity
  8
ｭｷｽ�
100
AcDbCircle
  6
BYLAYER
 10
31.0146206608135
 20
72.7128588578042
 40
40.969003179291
100
AcDbArc
 50
100.603466366588
 51
138.963721244501
  0
ARC
  5
656
100
AcDbEntity
  8
ｭｷｽ�
100
AcDbCircle
  6
BYLAYER
 10
45.6114443617559
 20
48.6144840906197
 40
40.969003179291
100
AcDbArc
 50
124.603466366592
 51
162.96372124451
  0
ARC
  5
657
100
AcDbEntity
  8
ｭｷｽ�
100
AcDbCircle
  6
BYLAYER
 10
68.7479984061488
 20
32.5365863571798
 40
40.969003179291
100
AcDbArc
 50
148.60346636659
 51
186.963721244509
  0
ARC
  5
658
100
AcDbEntity
  8
ｭｷｽ�
100
AcDbCircle
  6
BYLAYER
 10
96.4237624107218
 20
27.2591802387116
 40
40.969003179291
100
AcDbArc
 50
172.603466366584
 51
210.963721244505
  0
ARC
  5
659
100
AcDbEntity
  8
ｭｷｽ�
100
AcDbCircle
  6
BYLAYER
 10
123.853345352661
 20
33.6947771968278
 40
40.969003179291
100
AcDbArc
 50
196.603466366585
 51
234.963721244501
  0
ARC
  5
65A
100
AcDbEntity
  8
ｭｷｽ�
100
AcDbCircle
  6
BYLAYER
 10
146.293923151368
 20
50.7306040519072
 40
40.969003179291
100
AcDbArc
 50
220.603466366582
 51
258.963721244497
  0
ARC
  5
65B
100
AcDbEntity
  8
ｭｷｽ�
100
AcDbCircle
  6
BYLAYER
 10
159.865316039197
 20
75.4210115750782
 40
40.969003179291
100
AcDbArc
 50
244.603466366583
 51
282.963721244508
  0
ARC
  5
65C
100
AcDbEntity
  8
ｭｷｽ�
100
AcDbCircle
  6
BYLAYER
 10
162.220906893608
 20
103.496804000274
 40
40.969003179291
100
AcDbArc
 50
268.603466366587
 51
306.963721244506
  0
ARC
  5
65D
100
AcDbEntity
  8
ｭｷｽ�
100
AcDbCircle
  6
BYLAYER
 10
152.953392656002
 20
130.103421756611
 40
40.969003179291
100
AcDbArc
 50
292.603466366587
 51
330.963721244502
  0
ARC
  5
65E
100
AcDbEntity
  8
ｭｷｽ�
100
AcDbCircle
  6
BYLAYER
 10
133.665210730786
 20
150.640338920485
 40
40.969003179291
100
AcDbArc
 50
316.603466366591
 51
354.963721244508
  0
ARC
  5
65F
100
AcDbEntity
  8
ｭｷｽ�
100
AcDbCircle
  6
BYLAYER
 10
107.691463000461
 20
161.556535942227
 40
40.969003179291
100
AcDbArc
 50
340.603466366583
 51
18.9637212445045
  0
ENDBLK
  5
660
100
AcDbEntity
  8
0
 67
     1
100
AcDbBlockEnd
  0
BLOCK
  5
661
100
AcDbEntity
  8
0
100
AcDbBlockBegin
  2
A$C76372531
 70
    0
 10
0
 20
0
 30
0.0
  3
A$C76372531
  1

  0
LINE
  5
662
100
AcDbEntity
  8
ｭｷｽ�
100
AcDbLine
  6
BYLAYER
 10
1.5916E-12
 20
168.749999617313
 11
1.5916E-12
 21
21.2499996173128
  0
LINE
  5
663
100
AcDbEntity
  8
ｭｷｽ�
100
AcDbLine
  6
BYLAYER
 10
83.0000000000017
 20
189.999999617313
 11
83.0000000000017
 21
-3.826871762E-7
  0
LINE
  5
664
100
AcDbEntity
  8
ｭｷｽ�
100
AcDbLine
  6
BYLAYER
 10
82.0000000000017
 20
189.999999617313
 11
82.0000000000017
 21
-3.826871762E-7
  0
LINE
  5
665
100
AcDbEntity
  8
ｭｷｽ�
100
AcDbLine
  6
BYLAYER
 10
39.0000000000017
 20
189.999999617313
 11
39.0000000000017
 21
-3.826871762E-7
  0
LINE
  5
666
100
AcDbEntity
  8
ｭｷｽ�
100
AcDbLine
  6
BYLAYER
 10
38.0000000000017
 20
189.999999617313
 11
38.0000000000017
 21
-3.826871762E-7
  0
ARC
  5
667
100
AcDbEntity
  8
ｭｷｽ�
100
AcDbCircle
  6
BYLAYER
 10
1.48373650002134
 20
210.749999617313
 40
42
100
AcDbArc
 50
270
 51
330.393031150649
  0
LINE
  5
668
100
AcDbEntity
  8
ｭｷｽ�
100
AcDbLine
  6
BYLAYER
 10
1.48373650002134
 20
168.749999617313
 11
1.5916E-12
 21
168.749999617313
  0
LINE
  5
669
100
AcDbEntity
  8
ｭｷｽ�
100
AcDbLine
  6
BYLAYER
 10
38.0000000000017
 20
189.999999617313
 11
39.0000000000018
 21
189.999999617313
  0
LINE
  5
66A
100
AcDbEntity
  8
ｭｷｽ�
100
AcDbLine
  6
BYLAYER
 10
82.0000000000017
 20
189.999999617313
 11
83.0000000000017
 21
189.999999617313
  0
ARC
  5
66B
100
AcDbEntity
  8
ｭｷｽ�
100
AcDbCircle
  6
BYLAYER
 10
71.2500000000015
 20
15.2685704386018
 40
95.5566062603697
100
AcDbArc
 50
83.5406215507945
 51
109.72440767949
  0
ARC
  5
66C
100
AcDbEntity
  8
ｭｷｽ�
100
AcDbCircle
  6
BYLAYER
 10
71.2653643908942
 20
41.9247760299568
 40
105.66572031323
100
AcDbArc
 50
84.1692328711817
 51
107.77941370178
  0
ARC
  5
66D
100
AcDbEntity
  8
ｭｷｽ�
100
AcDbCircle
  6
BYLAYER
 10
71.2847292875942
 20
56.9343685746942
 40
118.421616884706
100
AcDbArc
 50
84.8085437055731
 51
105.82054763431
  0
ARC
  5
66E
100
AcDbEntity
  8
ｭｷｽ�
100
AcDbCircle
  6
BYLAYER
 10
71.309841619933
 20
54.3296929739827
 40
134.980609657225
100
AcDbArc
 50
85.4575470547505
 51
103.849156119796
  0
LINE
  5
66F
100
AcDbEntity
  8
ｭｷｽ�
100
AcDbLine
  6
BYLAYER
 10
38.0000000000017
 20
-3.826871762E-7
 11
39.0000000000017
 21
-3.826871762E-7
  0
LINE
  5
670
100
AcDbEntity
  8
ｭｷｽ�
100
AcDbLine
  6
BYLAYER
 10
83.0000000000017
 20
-3.826871762E-7
 11
82.0000000000017
 21
-3.826871762E-7
  0
ARC
  5
671
100
AcDbEntity
  8
ｭｷｽ�
100
AcDbCircle
  6
BYLAYER
 10
71.265298608929
 20
-34.3565107468559
 40
105.665101665011
100
AcDbArc
 50
84.1691627597755
 51
107.779483813189
  0
ARC
  5
672
100
AcDbEntity
  8
ｭｷｽ�
100
AcDbCircle
  6
BYLAYER
 10
71.2847292875932
 20
-82.439625980183
 40
118.421616884708
100
AcDbArc
 50
84.8085437055731
 51
105.82054763431
  0
ARC
  5
673
100
AcDbEntity
  8
ｭｷｽ�
100
AcDbCircle
  6
BYLAYER
 10
71.3074346588282
 20
-122.444285658447
 40
133.392800890263
100
AcDbArc
 50
85.4023242659621
 51
103.941117964034
  0
LINE
  5
674
100
AcDbEntity
  8
ｭｷｽ�
100
AcDbLine
  6
BYLAYER
 10
39.0000000000017
 20
0.149820309073448
 11
82.0000000000018
 21
0.149820309073562
  0
ARC
  5
675
100
AcDbEntity
  8
ｭｷｽ�
100
AcDbCircle
  6
BYLAYER
 10
1.48373650002134
 20
-20.7500003826872
 40
42
100
AcDbArc
 50
29.6069688493508
 51
90
  0
LINE
  5
676
100
AcDbEntity
  8
ｭｷｽ�
100
AcDbLine
  6
BYLAYER
 10
1.48373650002134
 20
21.2499996173128
 11
1.5916E-12
 21
21.2499996173128
  0
ENDBLK
  5
677
100
AcDbEntity
  8
0
 67
     1
100
AcDbBlockEnd
  0
BLOCK
  5
678
100
AcDbEntity
  8
0
100
AcDbBlockBegin
  2
A$C77676829
 70
    0
 10
0
 20
0
 30
0.0
  3
A$C77676829
  1

  0
LINE
  5
679
100
AcDbEntity
  8
0
100
AcDbLine
  6
BYLAYER
 10
5.44721393895844
 20
11.7888546467794
 11
0.447213938958441
 21
21.7888546467794
  0
LWPOLYLINE
  5
67A
100
AcDbEntity
  8
0
100
AcDbPolyline
  6
BYLAYER
370
0
 90
     2
 10
5.00000034345851
  20
10.8944274557795
 10
3.434585096E-7
  20
20.8944274557795
  0
LINE
  5
67B
100
AcDbEntity
  8
0
100
AcDbLine
  6
BYLAYER
 10
16.3416411299583
 20
11.7888546467794
 11
21.3416411299583
 21
21.7888546467794
  0
LINE
  5
67C
100
AcDbEntity
  8
0
100
AcDbLine
  6
BYLAYER
 10
10.4472139389584
 20
21.7888546467794
 11
5.44721393895844
 21
11.7888546467794
  0
LINE
  5
67D
100
AcDbEntity
  8
0
100
AcDbLine
  6
BYLAYER
 10
11.3416411299583
 20
21.7888546467794
 11
16.3416411299583
 21
11.7888546467794
  0
LINE
  5
67E
100
AcDbEntity
  8
0
100
AcDbLine
  6
BYLAYER
 10
16.3416411299583
 20
10.0000002647795
 11
21.3416411299583
 21
2.647795156E-7
  0
LINE
  5
67F
100
AcDbEntity
  8
0
100
AcDbLine
  6
BYLAYER
 10
11.3416411299583
 20
2.647795156E-7
 11
16.3416411299583
 21
10.0000002647795
  0
LINE
  5
680
100
AcDbEntity
  8
0
100
AcDbLine
  6
BYLAYER
 10
5.44721393895844
 20
10.0000002647795
 11
0.447213938958441
 21
2.647795156E-7
  0
LINE
  5
681
100
AcDbEntity
  8
0
100
AcDbLine
  6
BYLAYER
 10
10.4472139389584
 20
2.647795156E-7
 11
5.44721393895844
 21
10.0000002647795
  0
LWPOLYLINE
  5
682
100
AcDbEntity
  8
0
100
AcDbPolyline
  6
BYLAYER
370
0
 90
     2
 10
3.434585096E-7
  20
0.894427455779464
 10
5.00000034345851
  20
10.8944274557795
  0
LWPOLYLINE
  5
683
100
AcDbEntity
  8
0
100
AcDbPolyline
  6
BYLAYER
370
0
 90
     3
 10
21.7888547254582
  20
20.8944274557795
 10
16.7888547254582
  20
10.8944274557795
 10
21.7888547254582
  20
0.894427455779464
  0
LWPOLYLINE
  5
684
100
AcDbEntity
  8
0
100
AcDbPolyline
  6
BYLAYER
370
0
 90
     5
 10
5.89442753445837
  20
10.8944274557795
 10
10.8944275344584
  20
20.8944274557795
 10
15.8944275344584
  20
10.8944274557795
 10
10.8944275344584
  20
0.894427455779464
 10
5.89442753445837
  20
10.8944274557795
  0
ENDBLK
  5
685
100
AcDbEntity
  8
0
 67
     1
100
AcDbBlockEnd
  0
BLOCK
  5
686
100
AcDbEntity
  8
0
100
AcDbBlockBegin
  2
A$C393A4D0F
 70
    0
 10
0
 20
0
 30
0.0
  3
A$C393A4D0F
  1

  0
CIRCLE
  5
687
100
AcDbEntity
  8
0
100
AcDbCircle
  6
BYLAYER
 10
73.9968297837941
 20
73.8224597551801
 40
18.5
  0
LINE
  5
688
100
AcDbEntity
  8
0
100
AcDbLine
  6
BYLAYER
 10
10.3351818049995
 20
36.0972085747832
 11
19.5246938287943
 21
40.6919645866806
  0
LINE
  5
689
100
AcDbEntity
  8
0
100
AcDbLine
  6
BYLAYER
 10
19.5246938287943
 20
30.6919645866806
 11
11.0382820525855
 21
34.9351704747851
  0
LINE
  5
68A
100
AcDbEntity
  8
0
100
AcDbLine
  6
BYLAYER
 10
19.5246938287943
 20
29.7975373956808
 11
15.901832302102
 21
27.9861066323347
  0
LWPOLYLINE
  5
68B
100
AcDbEntity
  8
0
100
AcDbPolyline
  6
BYLAYER
370
0
 90
     2
 10
9.93019675319363
  20
36.7891432398802
 10
18.6302666377943
  20
41.1391781821806
  0
LWPOLYLINE
  5
68C
100
AcDbEntity
  8
0
100
AcDbPolyline
  6
BYLAYER
370
0
 90
     3
 10
11.8650994703584
  20
33.6273345748987
 10
18.6302666377943
  20
30.2447509911807
 10
15.3998856817352
  20
28.6295605131511
  0
LINE
  5
68D
100
AcDbEntity
  8
0
100
AcDbLine
  6
BYLAYER
 10
31.3135482107942
 20
13.9031102046808
 11
41.3135482107942
 21
18.9031102046808
  0
LINE
  5
68E
100
AcDbEntity
  8
0
100
AcDbLine
  6
BYLAYER
 10
41.3135482107942
 20
8.90311020468084
 11
31.3135482107942
 21
13.9031102046808
  0
LINE
  5
68F
100
AcDbEntity
  8
0
100
AcDbLine
  6
BYLAYER
 10
41.3135482107942
 20
8.00868301368109
 11
40.7347183970911
 21
7.71926810682953
  0
LWPOLYLINE
  5
690
100
AcDbEntity
  8
0
100
AcDbPolyline
  6
BYLAYER
370
0
 90
     3
 10
29.0563198006863
  20
15.0317244097348
 10
30.4191210197943
  20
14.3503238001808
 10
40.4191210197943
  20
19.3503238001808
  0
LWPOLYLINE
  5
691
100
AcDbEntity
  8
0
100
AcDbPolyline
  6
BYLAYER
370
0
 90
     3
 10
33.3172516082708
  20
12.0068313149427
 10
40.4191210197943
  20
8.45589660918097
 10
39.8505675619911
  20
8.17161988027931
  0
LINE
  5
692
100
AcDbEntity
  8
0
100
AcDbLine
  6
BYLAYER
 10
29.5246938287943
 20
24.7975373956808
 11
22.0904212333973
 21
21.0804010979823
  0
LWPOLYLINE
  5
693
100
AcDbEntity
  8
0
100
AcDbPolyline
  6
BYLAYER
370
0
 90
     2
 10
30.4191210197943
  20
24.3503238001808
 10
22.6976565745729
  20
20.4895915775702
  0
LINE
  5
694
100
AcDbEntity
  8
0
100
AcDbLine
  6
BYLAYER
 10
29.5246938287943
 20
35.6919645866806
 11
19.5246938287943
 21
40.6919645866806
  0
LINE
  5
695
100
AcDbEntity
  8
0
100
AcDbLine
  6
BYLAYER
 10
19.5246938287943
 20
29.7975373956808
 11
29.5246938287943
 21
24.7975373956808
  0
LINE
  5
696
100
AcDbEntity
  8
0
100
AcDbLine
  6
BYLAYER
 10
19.5246938287943
 20
30.6919645866807
 11
29.5246938287943
 21
35.6919645866806
  0
LINE
  5
697
100
AcDbEntity
  8
0
100
AcDbLine
  6
BYLAYER
 10
31.3135482107942
 20
35.6919645866806
 11
41.3135482107942
 21
40.6919645866806
  0
LINE
  5
698
100
AcDbEntity
  8
0
100
AcDbLine
  6
BYLAYER
 10
41.3135482107942
 20
30.6919645866806
 11
31.3135482107942
 21
35.6919645866806
  0
LINE
  5
699
100
AcDbEntity
  8
0
100
AcDbLine
  6
BYLAYER
 10
31.3135482107942
 20
24.7975373956808
 11
41.3135482107942
 21
19.7975373956808
  0
LINE
  5
69A
100
AcDbEntity
  8
0
100
AcDbLine
  6
BYLAYER
 10
41.3135482107942
 20
29.7975373956808
 11
31.3135482107942
 21
24.7975373956808
  0
LWPOLYLINE
  5
69B
100
AcDbEntity
  8
0
100
AcDbPolyline
  6
BYLAYER
370
0
 90
     2
 10
40.4191210197943
  20
19.3503238001808
 10
30.4191210197943
  20
24.3503238001808
  0
LWPOLYLINE
  5
69C
100
AcDbEntity
  8
0
100
AcDbPolyline
  6
BYLAYER
370
0
 90
     3
 10
20.4191210197943
  20
41.1391781821806
 10
30.4191210197943
  20
36.1391781821806
 10
40.4191210197943
  20
41.1391781821806
  0
LWPOLYLINE
  5
69D
100
AcDbEntity
  8
0
100
AcDbPolyline
  6
BYLAYER
370
0
 90
     5
 10
30.4191210197943
  20
25.2447509911807
 10
20.4191210197943
  20
30.2447509911807
 10
30.4191210197943
  20
35.2447509911807
 10
40.4191210197943
  20
30.2447509911807
 10
30.4191210197943
  20
25.2447509911807
  0
LINE
  5
69E
100
AcDbEntity
  8
0
100
AcDbLine
  6
BYLAYER
 10
73.102402592794
 20
3.00868301368109
 11
67.3315325693842
 21
0.123248001976322
  0
LWPOLYLINE
  5
69F
100
AcDbEntity
  8
0
100
AcDbPolyline
  6
BYLAYER
370
0
 90
     2
 10
73.9968297837939
  20
2.5614694181811
 10
68.8738917399572
  20
3.962627488E-7
  0
LINE
  5
6A0
100
AcDbEntity
  8
0
100
AcDbLine
  6
BYLAYER
 10
73.102402592794
 20
13.9031102046808
 11
63.102402592794
 21
18.9031102046808
  0
LINE
  5
6A1
100
AcDbEntity
  8
0
100
AcDbLine
  6
BYLAYER
 10
63.102402592794
 20
8.00868301368109
 11
73.102402592794
 21
3.00868301368109
  0
LINE
  5
6A2
100
AcDbEntity
  8
0
100
AcDbLine
  6
BYLAYER
 10
63.102402592794
 20
8.90311020468096
 11
73.102402592794
 21
13.9031102046808
  0
LINE
  5
6A3
100
AcDbEntity
  8
0
100
AcDbLine
  6
BYLAYER
 10
74.8912569747939
 20
13.9031102046808
 11
84.8912569747939
 21
18.9031102046808
  0
LINE
  5
6A4
100
AcDbEntity
  8
0
100
AcDbLine
  6
BYLAYER
 10
84.8912569747939
 20
8.90311020468084
 11
74.8912569747939
 21
13.9031102046808
  0
LINE
  5
6A5
100
AcDbEntity
  8
0
100
AcDbLine
  6
BYLAYER
 10
74.8912569747939
 20
3.00868301368109
 11
80.6621269982037
 21
0.123248001976322
  0
LINE
  5
6A6
100
AcDbEntity
  8
0
100
AcDbLine
  6
BYLAYER
 10
84.8912569747939
 20
8.00868301368109
 11
74.8912569747939
 21
3.00868301368109
  0
LWPOLYLINE
  5
6A7
100
AcDbEntity
  8
0
100
AcDbPolyline
  6
BYLAYER
370
0
 90
     2
 10
79.1197678276307
  20
3.962627488E-7
 10
73.9968297837939
  20
2.5614694181811
  0
LWPOLYLINE
  5
6A8
100
AcDbEntity
  8
0
100
AcDbPolyline
  6
BYLAYER
370
0
 90
     3
 10
63.9968297837939
  20
19.3503238001808
 10
73.9968297837939
  20
14.3503238001808
 10
83.9968297837939
  20
19.3503238001808
  0
LWPOLYLINE
  5
6A9
100
AcDbEntity
  8
0
100
AcDbPolyline
  6
BYLAYER
370
0
 90
     5
 10
73.9968297837939
  20
3.45589660918097
 10
63.9968297837939
  20
8.45589660918097
 10
73.9968297837939
  20
13.455896609181
 10
83.9968297837939
  20
8.45589660918097
 10
73.9968297837939
  20
3.45589660918097
  0
LINE
  5
6AA
100
AcDbEntity
  8
0
100
AcDbLine
  6
BYLAYER
 10
51.313548210794
 20
13.9031102046808
 11
41.313548210794
 21
18.9031102046808
  0
LINE
  5
6AB
100
AcDbEntity
  8
0
100
AcDbLine
  6
BYLAYER
 10
41.313548210794
 20
8.00868301368109
 11
48.9520739369185
 21
4.18942015061896
  0
LINE
  5
6AC
100
AcDbEntity
  8
0
100
AcDbLine
  6
BYLAYER
 10
41.313548210794
 20
8.90311020468096
 11
51.313548210794
 21
13.9031102046808
  0
LINE
  5
6AD
100
AcDbEntity
  8
0
100
AcDbLine
  6
BYLAYER
 10
53.102402592794
 20
13.9031102046808
 11
63.102402592794
 21
18.9031102046808
  0
LINE
  5
6AE
100
AcDbEntity
  8
0
100
AcDbLine
  6
BYLAYER
 10
63.102402592794
 20
8.90311020468084
 11
53.102402592794
 21
13.9031102046808
  0
LINE
  5
6AF
100
AcDbEntity
  8
0
100
AcDbLine
  6
BYLAYER
 10
53.102402592794
 20
3.00868301368109
 11
53.9285474973033
 21
2.5956105614265
  0
LINE
  5
6B0
100
AcDbEntity
  8
0
100
AcDbLine
  6
BYLAYER
 10
63.102402592794
 20
8.00868301368109
 11
53.102402592794
 21
3.00868301368109
  0
LWPOLYLINE
  5
6B1
100
AcDbEntity
  8
0
100
AcDbPolyline
  6
BYLAYER
370
0
 90
     3
 10
42.207975401794
  20
19.3503238001808
 10
52.207975401794
  20
14.3503238001808
 10
62.207975401794
  20
19.3503238001808
  0
LWPOLYLINE
  5
6B2
100
AcDbEntity
  8
0
100
AcDbPolyline
  6
BYLAYER
370
0
 90
     5
 10
52.207975401794
  20
3.45589660918097
 10
42.207975401794
  20
8.45589660918097
 10
52.207975401794
  20
13.455896609181
 10
62.207975401794
  20
8.45589660918097
 10
52.207975401794
  20
3.45589660918097
  0
LINE
  5
6B3
100
AcDbEntity
  8
0
100
AcDbLine
  6
BYLAYER
 10
94.8912569747939
 20
3.00868301368109
 11
94.0651120702849
 21
2.5956105614265
  0
LINE
  5
6B4
100
AcDbEntity
  8
0
100
AcDbLine
  6
BYLAYER
 10
94.8912569747939
 20
13.9031102046808
 11
84.8912569747939
 21
18.9031102046808
  0
LINE
  5
6B5
100
AcDbEntity
  8
0
100
AcDbLine
  6
BYLAYER
 10
84.8912569747939
 20
8.00868301368109
 11
94.8912569747939
 21
3.00868301368109
  0
LINE
  5
6B6
100
AcDbEntity
  8
0
100
AcDbLine
  6
BYLAYER
 10
84.8912569747939
 20
8.90311020468096
 11
94.8912569747939
 21
13.9031102046808
  0
LINE
  5
6B7
100
AcDbEntity
  8
0
100
AcDbLine
  6
BYLAYER
 10
96.6801113567939
 20
13.9031102046808
 11
106.680111356794
 21
18.9031102046808
  0
LINE
  5
6B8
100
AcDbEntity
  8
0
100
AcDbLine
  6
BYLAYER
 10
106.680111356794
 20
8.90311020468084
 11
96.6801113567939
 21
13.9031102046808
  0
LINE
  5
6B9
100
AcDbEntity
  8
0
100
AcDbLine
  6
BYLAYER
 10
106.680111356794
 20
8.00868301368109
 11
99.0415856306689
 21
4.18942015061862
  0
LWPOLYLINE
  5
6BA
100
AcDbEntity
  8
0
100
AcDbPolyline
  6
BYLAYER
370
0
 90
     3
 10
85.7856841657939
  20
19.3503238001808
 10
95.7856841657939
  20
14.3503238001808
 10
105.785684165794
  20
19.3503238001808
  0
LWPOLYLINE
  5
6BB
100
AcDbEntity
  8
0
100
AcDbPolyline
  6
BYLAYER
370
0
 90
     5
 10
95.7856841657939
  20
3.45589660918097
 10
85.7856841657939
  20
8.45589660918097
 10
95.7856841657939
  20
13.455896609181
 10
105.785684165794
  20
8.45589660918097
 10
95.7856841657939
  20
3.45589660918097
  0
LINE
  5
6BC
100
AcDbEntity
  8
0
100
AcDbLine
  6
BYLAYER
 10
116.680111356794
 20
13.9031102046808
 11
106.680111356794
 21
18.9031102046808
  0
LINE
  5
6BD
100
AcDbEntity
  8
0
100
AcDbLine
  6
BYLAYER
 10
106.680111356794
 20
8.00868301368109
 11
107.258941170497
 21
7.71926810682953
  0
LINE
  5
6BE
100
AcDbEntity
  8
0
100
AcDbLine
  6
BYLAYER
 10
106.680111356794
 20
8.90311020468096
 11
116.680111356794
 21
13.9031102046808
  0
LWPOLYLINE
  5
6BF
100
AcDbEntity
  8
0
100
AcDbPolyline
  6
BYLAYER
370
0
 90
     3
 10
107.574538547794
  20
19.3503238001808
 10
117.574538547794
  20
14.3503238001808
 10
118.937339766902
  20
15.0317244097351
  0
LWPOLYLINE
  5
6C0
100
AcDbEntity
  8
0
100
AcDbPolyline
  6
BYLAYER
370
0
 90
     3
 10
108.143092005597
  20
8.17161988027931
 10
107.574538547794
  20
8.45589660918097
 10
114.676407959318
  20
12.0068313149432
  0
LINE
  5
6C1
100
AcDbEntity
  8
0
100
AcDbLine
  6
BYLAYER
 10
137.658477762589
 20
36.0972085747832
 11
128.468965738794
 21
40.6919645866806
  0
LINE
  5
6C2
100
AcDbEntity
  8
0
100
AcDbLine
  6
BYLAYER
 10
128.468965738794
 20
29.7975373956808
 11
132.091827265486
 21
27.9861066323347
  0
LINE
  5
6C3
100
AcDbEntity
  8
0
100
AcDbLine
  6
BYLAYER
 10
128.468965738794
 20
30.6919645866807
 11
136.955377515003
 21
34.9351704747849
  0
LWPOLYLINE
  5
6C4
100
AcDbEntity
  8
0
100
AcDbPolyline
  6
BYLAYER
370
0
 90
     2
 10
129.363392929793
  20
41.1391781821806
 10
138.063462814394
  20
36.7891432398801
  0
LWPOLYLINE
  5
6C5
100
AcDbEntity
  8
0
100
AcDbPolyline
  6
BYLAYER
370
0
 90
     3
 10
132.593773885853
  20
28.6295605131511
 10
129.363392929793
  20
30.2447509911807
 10
136.12856009723
  20
33.6273345748989
  0
LINE
  5
6C6
100
AcDbEntity
  8
0
100
AcDbLine
  6
BYLAYER
 10
116.680111356794
 20
24.7975373956808
 11
106.680111356794
 21
19.7975373956808
  0
LWPOLYLINE
  5
6C7
100
AcDbEntity
  8
0
100
AcDbPolyline
  6
BYLAYER
370
0
 90
     2
 10
117.574538547794
  20
24.3503238001808
 10
107.574538547794
  20
19.3503238001808
  0
LINE
  5
6C8
100
AcDbEntity
  8
0
100
AcDbLine
  6
BYLAYER
 10
116.680111356794
 20
35.6919645866806
 11
106.680111356794
 21
40.6919645866806
  0
LINE
  5
6C9
100
AcDbEntity
  8
0
100
AcDbLine
  6
BYLAYER
 10
106.680111356794
 20
29.7975373956808
 11
116.680111356794
 21
24.7975373956808
  0
LINE
  5
6CA
100
AcDbEntity
  8
0
100
AcDbLine
  6
BYLAYER
 10
106.680111356794
 20
30.6919645866807
 11
116.680111356794
 21
35.6919645866806
  0
LINE
  5
6CB
100
AcDbEntity
  8
0
100
AcDbLine
  6
BYLAYER
 10
118.468965738794
 20
35.6919645866806
 11
128.468965738794
 21
40.6919645866806
  0
LINE
  5
6CC
100
AcDbEntity
  8
0
100
AcDbLine
  6
BYLAYER
 10
128.468965738794
 20
30.6919645866806
 11
118.468965738794
 21
35.6919645866806
  0
LINE
  5
6CD
100
AcDbEntity
  8
0
100
AcDbLine
  6
BYLAYER
 10
118.468965738794
 20
24.7975373956808
 11
125.903238334191
 21
21.0804010979823
  0
LINE
  5
6CE
100
AcDbEntity
  8
0
100
AcDbLine
  6
BYLAYER
 10
128.468965738794
 20
29.7975373956808
 11
118.468965738794
 21
24.7975373956808
  0
LWPOLYLINE
  5
6CF
100
AcDbEntity
  8
0
100
AcDbPolyline
  6
BYLAYER
370
0
 90
     2
 10
125.296002993015
  20
20.4895915775701
 10
117.574538547794
  20
24.3503238001808
  0
LWPOLYLINE
  5
6D0
100
AcDbEntity
  8
0
100
AcDbPolyline
  6
BYLAYER
370
0
 90
     3
 10
107.574538547794
  20
41.1391781821806
 10
117.574538547794
  20
36.1391781821806
 10
127.574538547794
  20
41.1391781821806
  0
LWPOLYLINE
  5
6D1
100
AcDbEntity
  8
0
100
AcDbPolyline
  6
BYLAYER
370
0
 90
     5
 10
117.574538547794
  20
25.2447509911807
 10
107.574538547794
  20
30.2447509911807
 10
117.574538547794
  20
35.2447509911807
 10
127.574538547794
  20
30.2447509911807
 10
117.574538547794
  20
25.2447509911807
  0
LINE
  5
6D2
100
AcDbEntity
  8
0
100
AcDbLine
  6
BYLAYER
 10
7.73583944679433
 20
68.3752461596803
 11
0.551031316173294
 21
64.7828420943698
  0
LWPOLYLINE
  5
6D3
100
AcDbEntity
  8
0
100
AcDbPolyline
  6
BYLAYER
370
0
 90
     2
 10
8.63026663779431
  20
67.9280325641803
 10
0.65933772779772
  20
63.9425681091819
  0
LINE
  5
6D4
100
AcDbEntity
  8
0
100
AcDbLine
  6
BYLAYER
 10
7.73583944679433
 20
79.26967335068
 11
0.551031316173294
 21
82.8620774159906
  0
LINE
  5
6D5
100
AcDbEntity
  8
0
100
AcDbLine
  6
BYLAYER
 10
0.0138321559999213
 20
72.2362498050776
 11
7.73583944679433
 21
68.3752461596803
  0
LINE
  5
6D6
100
AcDbEntity
  8
0
100
AcDbLine
  6
BYLAYER
 10
0.0138321559999213
 20
75.4086697052829
 11
7.73583944679433
 21
79.26967335068
  0
LINE
  5
6D7
100
AcDbEntity
  8
0
100
AcDbLine
  6
BYLAYER
 10
9.52469382879428
 20
79.26967335068
 11
19.5246938287943
 21
84.26967335068
  0
LINE
  5
6D8
100
AcDbEntity
  8
0
100
AcDbLine
  6
BYLAYER
 10
19.5246938287943
 20
74.26967335068
 11
9.52469382879428
 21
79.26967335068
  0
LINE
  5
6D9
100
AcDbEntity
  8
0
100
AcDbLine
  6
BYLAYER
 10
9.52469382879428
 20
68.3752461596803
 11
19.5246938287943
 21
63.3752461596803
  0
LINE
  5
6DA
100
AcDbEntity
  8
0
100
AcDbLine
  6
BYLAYER
 10
19.5246938287943
 20
73.3752461596803
 11
9.52469382879428
 21
68.3752461596803
  0
LWPOLYLINE
  5
6DB
100
AcDbEntity
  8
0
100
AcDbPolyline
  6
BYLAYER
370
0
 90
     2
 10
18.6302666377943
  20
62.9280325641803
 10
8.63026663779431
  20
67.9280325641803
  0
LWPOLYLINE
  5
6DC
100
AcDbEntity
  8
0
100
AcDbPolyline
  6
BYLAYER
370
0
 90
     3
 10
0.65933772779772
  20
83.7023514011784
 10
8.63026663779431
  20
79.71688694618
 10
18.6302666377943
  20
84.71688694618
  0
LWPOLYLINE
  5
6DD
100
AcDbEntity
  8
0
100
AcDbPolyline
  6
BYLAYER
370
0
 90
     2
 10
8.63026663779431
  20
68.8224597551801
 10
-9.475152183E-7
  20
73.137593547835
  0
LWPOLYLINE
  5
6DE
100
AcDbEntity
  8
0
100
AcDbPolyline
  6
BYLAYER
370
0
 90
     4
 10
-9.475152183E-7
  20
74.5073259625253
 10
8.63026663779431
  20
78.8224597551801
 10
18.6302666377943
  20
73.8224597551801
 10
8.63026663779431
  20
68.8224597551801
  0
LINE
  5
6DF
100
AcDbEntity
  8
0
100
AcDbLine
  6
BYLAYER
 10
7.73583944679433
 20
46.5863917776805
 11
5.61964005219954
 21
45.5282920803832
  0
LWPOLYLINE
  5
6E0
100
AcDbEntity
  8
0
100
AcDbPolyline
  6
BYLAYER
370
0
 90
     2
 10
8.63026663779431
  20
46.1391781821806
 10
5.93019675319374
  20
44.7891432398802
  0
LINE
  5
6E1
100
AcDbEntity
  8
0
100
AcDbLine
  6
BYLAYER
 10
7.73583944679433
 20
57.4808189686803
 11
1.15700963309189
 21
60.7702338755315
  0
LINE
  5
6E2
100
AcDbEntity
  8
0
100
AcDbLine
  6
BYLAYER
 10
4.58916217635374
 20
48.1597304129009
 11
7.73583944679433
 21
46.5863917776805
  0
LINE
  5
6E3
100
AcDbEntity
  8
0
100
AcDbLine
  6
BYLAYER
 10
2.47074879650222
 20
54.8482736435343
 11
7.73583944679433
 21
57.4808189686803
  0
LINE
  5
6E4
100
AcDbEntity
  8
0
100
AcDbLine
  6
BYLAYER
 10
9.52469382879428
 20
57.4808189686803
 11
19.5246938287943
 21
62.4808189686803
  0
LINE
  5
6E5
100
AcDbEntity
  8
0
100
AcDbLine
  6
BYLAYER
 10
19.5246938287943
 20
52.4808189686803
 11
9.52469382879428
 21
57.4808189686803
  0
LINE
  5
6E6
100
AcDbEntity
  8
0
100
AcDbLine
  6
BYLAYER
 10
9.52469382879428
 20
46.5863917776805
 11
19.5246938287943
 21
41.5863917776805
  0
LINE
  5
6E7
100
AcDbEntity
  8
0
100
AcDbLine
  6
BYLAYER
 10
19.5246938287943
 20
51.5863917776805
 11
9.52469382879428
 21
46.5863917776805
  0
LWPOLYLINE
  5
6E8
100
AcDbEntity
  8
0
100
AcDbPolyline
  6
BYLAYER
370
0
 90
     2
 10
18.6302666377943
  20
41.1391781821806
 10
8.63026663779431
  20
46.1391781821806
  0
LWPOLYLINE
  5
6E9
100
AcDbEntity
  8
0
100
AcDbPolyline
  6
BYLAYER
370
0
 90
     3
 10
0.988400550791653
  20
61.7489656076816
 10
8.63026663779431
  20
57.9280325641803
 10
18.6302666377943
  20
62.9280325641803
  0
LWPOLYLINE
  5
6EA
100
AcDbEntity
  8
0
100
AcDbPolyline
  6
BYLAYER
370
0
 90
     2
 10
8.63026663779431
  20
47.0336053731804
 10
4.19535073455722
  20
49.251063324799
  0
LWPOLYLINE
  5
6EB
100
AcDbEntity
  8
0
100
AcDbPolyline
  6
BYLAYER
370
0
 90
     4
 10
2.68434392893539
  20
54.060644018751
 10
8.63026663779431
  20
57.0336053731804
 10
18.6302666377943
  20
52.0336053731804
 10
8.63026663779431
  20
47.0336053731804
  0
LINE
  5
6EC
100
AcDbEntity
  8
0
100
AcDbLine
  6
BYLAYER
 10
7.73583944679433
 20
90.16410054168
 11
1.157009633092
 21
86.8746856348289
  0
LWPOLYLINE
  5
6ED
100
AcDbEntity
  8
0
100
AcDbPolyline
  6
BYLAYER
370
0
 90
     2
 10
8.63026663779431
  20
89.71688694618
 10
0.988400550791653
  20
85.8959539026787
  0
LINE
  5
6EE
100
AcDbEntity
  8
0
100
AcDbLine
  6
BYLAYER
 10
7.73583944679433
 20
101.05852773268
 11
5.61964005219954
 21
102.116627429977
  0
LINE
  5
6EF
100
AcDbEntity
  8
0
100
AcDbLine
  6
BYLAYER
 10
2.47074879650233
 20
92.7966458668261
 11
7.73583944679433
 21
90.16410054168
  0
LINE
  5
6F0
100
AcDbEntity
  8
0
100
AcDbLine
  6
BYLAYER
 10
4.58916217635374
 20
99.4851890974594
 11
7.73583944679433
 21
101.05852773268
  0
LINE
  5
6F1
100
AcDbEntity
  8
0
100
AcDbLine
  6
BYLAYER
 10
9.52469382879428
 20
101.05852773268
 11
19.5246938287943
 21
106.05852773268
  0
LINE
  5
6F2
100
AcDbEntity
  8
0
100
AcDbLine
  6
BYLAYER
 10
19.5246938287943
 20
96.0585277326798
 11
9.52469382879428
 21
101.05852773268
  0
LINE
  5
6F3
100
AcDbEntity
  8
0
100
AcDbLine
  6
BYLAYER
 10
9.52469382879428
 20
90.16410054168
 11
19.5246938287943
 21
85.16410054168
  0
LINE
  5
6F4
100
AcDbEntity
  8
0
100
AcDbLine
  6
BYLAYER
 10
19.5246938287943
 20
95.16410054168
 11
9.52469382879428
 21
90.16410054168
  0
LWPOLYLINE
  5
6F5
100
AcDbEntity
  8
0
100
AcDbPolyline
  6
BYLAYER
370
0
 90
     2
 10
18.6302666377943
  20
84.71688694618
 10
8.63026663779431
  20
89.71688694618
  0
LWPOLYLINE
  5
6F6
100
AcDbEntity
  8
0
100
AcDbPolyline
  6
BYLAYER
370
0
 90
     3
 10
5.93019675319374
  20
102.85577627048
 10
8.63026663779431
  20
101.50574132818
 10
18.6302666377943
  20
106.50574132818
  0
LWPOLYLINE
  5
6F7
100
AcDbEntity
  8
0
100
AcDbPolyline
  6
BYLAYER
370
0
 90
     2
 10
8.63026663779431
  20
90.6113141371799
 10
2.68434392893539
  20
93.5842754916093
  0
LWPOLYLINE
  5
6F8
100
AcDbEntity
  8
0
100
AcDbPolyline
  6
BYLAYER
370
0
 90
     4
 10
4.19535073455722
  20
98.3938561855613
 10
8.63026663779431
  20
100.61131413718
 10
18.6302666377943
  20
95.6113141371799
 10
8.63026663779431
  20
90.6113141371799
  0
LINE
  5
6F9
100
AcDbEntity
  8
0
100
AcDbLine
  6
BYLAYER
 10
19.5246938287943
 20
117.84738211468
 11
15.901832302102
 21
119.658812878026
  0
LINE
  5
6FA
100
AcDbEntity
  8
0
100
AcDbLine
  6
BYLAYER
 10
10.3351818049995
 20
111.547710935577
 11
19.5246938287943
 21
106.95295492368
  0
LINE
  5
6FB
100
AcDbEntity
  8
0
100
AcDbLine
  6
BYLAYER
 10
19.5246938287943
 20
116.95295492368
 11
11.0382820525856
 21
112.709749035575
  0
LWPOLYLINE
  5
6FC
100
AcDbEntity
  8
0
100
AcDbPolyline
  6
BYLAYER
370
0
 90
     2
 10
18.6302666377943
  20
106.50574132818
 10
9.93019675319363
  20
110.85577627048
  0
LWPOLYLINE
  5
6FD
100
AcDbEntity
  8
0
100
AcDbPolyline
  6
BYLAYER
370
0
 90
     3
 10
15.3998856817352
  20
119.015358997209
 10
18.6302666377943
  20
117.40016851918
 10
11.8650994703584
  20
114.017584935462
  0
LINE
  5
6FE
100
AcDbEntity
  8
0
100
AcDbLine
  6
BYLAYER
 10
29.5246938287943
 20
111.95295492368
 11
19.5246938287943
 21
106.95295492368
  0
LWPOLYLINE
  5
6FF
100
AcDbEntity
  8
0
100
AcDbPolyline
  6
BYLAYER
370
0
 90
     2
 10
30.4191210197943
  20
111.50574132818
 10
20.4191210197943
  20
106.50574132818
  0
LINE
  5
700
100
AcDbEntity
  8
0
100
AcDbLine
  6
BYLAYER
 10
29.5246938287943
 20
122.847382114679
 11
22.0904212333974
 21
126.564518412378
  0
LINE
  5
701
100
AcDbEntity
  8
0
100
AcDbLine
  6
BYLAYER
 10
19.5246938287943
 20
116.95295492368
 11
29.5246938287943
 21
111.95295492368
  0
LINE
  5
702
100
AcDbEntity
  8
0
100
AcDbLine
  6
BYLAYER
 10
19.5246938287943
 20
117.84738211468
 11
29.5246938287943
 21
122.847382114679
  0
LINE
  5
703
100
AcDbEntity
  8
0
100
AcDbLine
  6
BYLAYER
 10
31.3135482107942
 20
122.847382114679
 11
41.3135482107942
 21
127.847382114679
  0
LINE
  5
704
100
AcDbEntity
  8
0
100
AcDbLine
  6
BYLAYER
 10
41.3135482107942
 20
117.84738211468
 11
31.3135482107942
 21
122.847382114679
  0
LINE
  5
705
100
AcDbEntity
  8
0
100
AcDbLine
  6
BYLAYER
 10
31.3135482107942
 20
111.95295492368
 11
41.3135482107942
 21
106.95295492368
  0
LINE
  5
706
100
AcDbEntity
  8
0
100
AcDbLine
  6
BYLAYER
 10
41.3135482107942
 20
116.95295492368
 11
31.3135482107942
 21
111.95295492368
  0
LWPOLYLINE
  5
707
100
AcDbEntity
  8
0
100
AcDbPolyline
  6
BYLAYER
370
0
 90
     2
 10
40.4191210197943
  20
106.50574132818
 10
30.4191210197943
  20
111.50574132818
  0
LWPOLYLINE
  5
708
100
AcDbEntity
  8
0
100
AcDbPolyline
  6
BYLAYER
370
0
 90
     3
 10
22.6976565745729
  20
127.15532793279
 10
30.4191210197943
  20
123.294595710179
 10
40.4191210197943
  20
128.294595710179
  0
LWPOLYLINE
  5
709
100
AcDbEntity
  8
0
100
AcDbPolyline
  6
BYLAYER
370
0
 90
     5
 10
30.4191210197943
  20
112.40016851918
 10
20.4191210197943
  20
117.40016851918
 10
30.4191210197943
  20
122.40016851918
 10
40.4191210197943
  20
117.40016851918
 10
30.4191210197943
  20
112.40016851918
  0
LINE
  5
70A
100
AcDbEntity
  8
0
100
AcDbLine
  6
BYLAYER
 10
138.468965738794
 20
68.3752461596803
 11
128.468965738794
 21
63.3752461596803
  0
LWPOLYLINE
  5
70B
100
AcDbEntity
  8
0
100
AcDbPolyline
  6
BYLAYER
370
0
 90
     2
 10
139.363392929794
  20
67.9280325641803
 10
129.363392929793
  20
62.9280325641803
  0
LINE
  5
70C
100
AcDbEntity
  8
0
100
AcDbLine
  6
BYLAYER
 10
138.468965738794
 20
79.26967335068
 11
128.468965738794
 21
84.26967335068
  0
LINE
  5
70D
100
AcDbEntity
  8
0
100
AcDbLine
  6
BYLAYER
 10
128.468965738794
 20
73.3752461596803
 11
138.468965738794
 21
68.3752461596803
  0
LINE
  5
70E
100
AcDbEntity
  8
0
100
AcDbLine
  6
BYLAYER
 10
128.468965738794
 20
74.2696733506801
 11
138.468965738794
 21
79.26967335068
  0
LINE
  5
70F
100
AcDbEntity
  8
0
100
AcDbLine
  6
BYLAYER
 10
140.257820120794
 20
79.26967335068
 11
147.442628251415
 21
82.8620774159907
  0
LINE
  5
710
100
AcDbEntity
  8
0
100
AcDbLine
  6
BYLAYER
 10
147.979827411588
 20
75.4086697052827
 11
140.257820120794
 21
79.26967335068
  0
LINE
  5
711
100
AcDbEntity
  8
0
100
AcDbLine
  6
BYLAYER
 10
140.257820120794
 20
68.3752461596803
 11
147.442628251415
 21
64.7828420943697
  0
LINE
  5
712
100
AcDbEntity
  8
0
100
AcDbLine
  6
BYLAYER
 10
147.979827411588
 20
72.2362498050777
 11
140.257820120794
 21
68.3752461596803
  0
LWPOLYLINE
  5
713
100
AcDbEntity
  8
0
100
AcDbPolyline
  6
BYLAYER
370
0
 90
     2
 10
147.33432183979
  20
63.9425681091818
 10
139.363392929794
  20
67.9280325641803
  0
LWPOLYLINE
  5
714
100
AcDbEntity
  8
0
100
AcDbPolyline
  6
BYLAYER
370
0
 90
     3
 10
129.363392929793
  20
84.71688694618
 10
139.363392929794
  20
79.71688694618
 10
147.33432183979
  20
83.7023514011785
  0
LWPOLYLINE
  5
715
100
AcDbEntity
  8
0
100
AcDbPolyline
  6
BYLAYER
370
0
 90
     4
 10
139.363392929794
  20
68.8224597551801
 10
129.363392929793
  20
73.8224597551801
 10
139.363392929794
  20
78.8224597551801
 10
147.993660515103
  20
74.5073259625252
  0
LWPOLYLINE
  5
716
100
AcDbEntity
  8
0
100
AcDbPolyline
  6
BYLAYER
370
0
 90
     2
 10
147.993660515103
  20
73.1375935478351
 10
139.363392929794
  20
68.8224597551801
  0
LINE
  5
717
100
AcDbEntity
  8
0
100
AcDbLine
  6
BYLAYER
 10
138.468965738794
 20
46.5863917776805
 11
128.468965738794
 21
41.5863917776805
  0
LWPOLYLINE
  5
718
100
AcDbEntity
  8
0
100
AcDbPolyline
  6
BYLAYER
370
0
 90
     2
 10
139.363392929794
  20
46.1391781821806
 10
129.363392929793
  20
41.1391781821806
  0
LINE
  5
719
100
AcDbEntity
  8
0
100
AcDbLine
  6
BYLAYER
 10
138.468965738794
 20
57.4808189686803
 11
128.468965738794
 21
62.4808189686803
  0
LINE
  5
71A
100
AcDbEntity
  8
0
100
AcDbLine
  6
BYLAYER
 10
128.468965738794
 20
51.5863917776805
 11
138.468965738794
 21
46.5863917776805
  0
LINE
  5
71B
100
AcDbEntity
  8
0
100
AcDbLine
  6
BYLAYER
 10
128.468965738794
 20
52.4808189686804
 11
138.468965738794
 21
57.4808189686803
  0
LINE
  5
71C
100
AcDbEntity
  8
0
100
AcDbLine
  6
BYLAYER
 10
140.257820120794
 20
57.4808189686803
 11
146.836649934496
 21
60.7702338755316
  0
LINE
  5
71D
100
AcDbEntity
  8
0
100
AcDbLine
  6
BYLAYER
 10
145.522910771086
 20
54.8482736435342
 11
140.257820120794
 21
57.4808189686803
  0
LINE
  5
71E
100
AcDbEntity
  8
0
100
AcDbLine
  6
BYLAYER
 10
140.257820120794
 20
46.5863917776805
 11
142.374019515389
 21
45.528292080383
  0
LINE
  5
71F
100
AcDbEntity
  8
0
100
AcDbLine
  6
BYLAYER
 10
143.404497391234
 20
48.159730412901
 11
140.257820120794
 21
46.5863917776805
  0
LWPOLYLINE
  5
720
100
AcDbEntity
  8
0
100
AcDbPolyline
  6
BYLAYER
370
0
 90
     2
 10
142.063462814394
  20
44.7891432398802
 10
139.363392929794
  20
46.1391781821806
  0
LWPOLYLINE
  5
721
100
AcDbEntity
  8
0
100
AcDbPolyline
  6
BYLAYER
370
0
 90
     3
 10
129.363392929793
  20
62.9280325641803
 10
139.363392929794
  20
57.9280325641803
 10
147.005259016796
  20
61.7489656076817
  0
LWPOLYLINE
  5
722
100
AcDbEntity
  8
0
100
AcDbPolyline
  6
BYLAYER
370
0
 90
     4
 10
139.363392929794
  20
47.0336053731804
 10
129.363392929793
  20
52.0336053731804
 10
139.363392929794
  20
57.0336053731804
 10
145.309315638653
  20
54.0606440187508
  0
LWPOLYLINE
  5
723
100
AcDbEntity
  8
0
100
AcDbPolyline
  6
BYLAYER
370
0
 90
     2
 10
143.798308833031
  20
49.2510633247991
 10
139.363392929794
  20
47.0336053731804
  0
LINE
  5
724
100
AcDbEntity
  8
0
100
AcDbLine
  6
BYLAYER
 10
138.468965738794
 20
90.16410054168
 11
128.468965738794
 21
85.16410054168
  0
LWPOLYLINE
  5
725
100
AcDbEntity
  8
0
100
AcDbPolyline
  6
BYLAYER
370
0
 90
     2
 10
139.363392929794
  20
89.71688694618
 10
129.363392929793
  20
84.71688694618
  0
LINE
  5
726
100
AcDbEntity
  8
0
100
AcDbLine
  6
BYLAYER
 10
138.468965738794
 20
101.05852773268
 11
128.468965738794
 21
106.05852773268
  0
LINE
  5
727
100
AcDbEntity
  8
0
100
AcDbLine
  6
BYLAYER
 10
128.468965738794
 20
95.16410054168
 11
138.468965738794
 21
90.16410054168
  0
LINE
  5
728
100
AcDbEntity
  8
0
100
AcDbLine
  6
BYLAYER
 10
128.468965738794
 20
96.0585277326799
 11
138.468965738794
 21
101.05852773268
  0
LINE
  5
729
100
AcDbEntity
  8
0
100
AcDbLine
  6
BYLAYER
 10
140.257820120794
 20
101.05852773268
 11
142.374019515388
 21
102.116627429977
  0
LINE
  5
72A
100
AcDbEntity
  8
0
100
AcDbLine
  6
BYLAYER
 10
143.404497391234
 20
99.4851890974594
 11
140.257820120794
 21
101.05852773268
  0
LINE
  5
72B
100
AcDbEntity
  8
0
100
AcDbLine
  6
BYLAYER
 10
140.257820120794
 20
90.16410054168
 11
146.836649934496
 21
86.8746856348288
  0
LINE
  5
72C
100
AcDbEntity
  8
0
100
AcDbLine
  6
BYLAYER
 10
145.522910771086
 20
92.7966458668262
 11
140.257820120794
 21
90.16410054168
  0
LWPOLYLINE
  5
72D
100
AcDbEntity
  8
0
100
AcDbPolyline
  6
BYLAYER
370
0
 90
     2
 10
147.005259016796
  20
85.8959539026786
 10
139.363392929794
  20
89.71688694618
  0
LWPOLYLINE
  5
72E
100
AcDbEntity
  8
0
100
AcDbPolyline
  6
BYLAYER
370
0
 90
     3
 10
129.363392929793
  20
106.50574132818
 10
139.363392929794
  20
101.50574132818
 10
142.063462814394
  20
102.85577627048
  0
LWPOLYLINE
  5
72F
100
AcDbEntity
  8
0
100
AcDbPolyline
  6
BYLAYER
370
0
 90
     4
 10
139.363392929794
  20
90.6113141371799
 10
129.363392929793
  20
95.6113141371799
 10
139.363392929794
  20
100.61131413718
 10
143.798308833031
  20
98.3938561855612
  0
LWPOLYLINE
  5
730
100
AcDbEntity
  8
0
100
AcDbPolyline
  6
BYLAYER
370
0
 90
     2
 10
145.309315638653
  20
93.5842754916094
 10
139.363392929794
  20
90.6113141371799
  0
LINE
  5
731
100
AcDbEntity
  8
0
100
AcDbLine
  6
BYLAYER
 10
137.658477762589
 20
111.547710935577
 11
128.468965738794
 21
106.95295492368
  0
LWPOLYLINE
  5
732
100
AcDbEntity
  8
0
100
AcDbPolyline
  6
BYLAYER
370
0
 90
     2
 10
138.063462814394
  20
110.85577627048
 10
129.363392929793
  20
106.50574132818
  0
LINE
  5
733
100
AcDbEntity
  8
0
100
AcDbLine
  6
BYLAYER
 10
128.468965738794
 20
116.95295492368
 11
136.955377515003
 21
112.709749035575
  0
LINE
  5
734
100
AcDbEntity
  8
0
100
AcDbLine
  6
BYLAYER
 10
128.468965738794
 20
117.84738211468
 11
132.091827265486
 21
119.658812878026
  0
LWPOLYLINE
  5
735
100
AcDbEntity
  8
0
100
AcDbPolyline
  6
BYLAYER
370
0
 90
     3
 10
136.12856009723
  20
114.017584935461
 10
129.363392929793
  20
117.40016851918
 10
132.593773885853
  20
119.015358997209
  0
LINE
  5
736
100
AcDbEntity
  8
0
100
AcDbLine
  6
BYLAYER
 10
116.680111356794
 20
111.95295492368
 11
106.680111356794
 21
106.95295492368
  0
LWPOLYLINE
  5
737
100
AcDbEntity
  8
0
100
AcDbPolyline
  6
BYLAYER
370
0
 90
     2
 10
117.574538547794
  20
111.50574132818
 10
107.574538547794
  20
106.50574132818
  0
LINE
  5
738
100
AcDbEntity
  8
0
100
AcDbLine
  6
BYLAYER
 10
116.680111356794
 20
122.847382114679
 11
106.680111356794
 21
127.847382114679
  0
LINE
  5
739
100
AcDbEntity
  8
0
100
AcDbLine
  6
BYLAYER
 10
106.680111356794
 20
116.95295492368
 11
116.680111356794
 21
111.95295492368
  0
LINE
  5
73A
100
AcDbEntity
  8
0
100
AcDbLine
  6
BYLAYER
 10
106.680111356794
 20
117.84738211468
 11
116.680111356794
 21
122.847382114679
  0
LINE
  5
73B
100
AcDbEntity
  8
0
100
AcDbLine
  6
BYLAYER
 10
118.468965738794
 20
122.847382114679
 11
125.903238334191
 21
126.564518412378
  0
LINE
  5
73C
100
AcDbEntity
  8
0
100
AcDbLine
  6
BYLAYER
 10
128.468965738794
 20
117.84738211468
 11
118.468965738794
 21
122.847382114679
  0
LINE
  5
73D
100
AcDbEntity
  8
0
100
AcDbLine
  6
BYLAYER
 10
118.468965738794
 20
111.95295492368
 11
128.468965738794
 21
106.95295492368
  0
LINE
  5
73E
100
AcDbEntity
  8
0
100
AcDbLine
  6
BYLAYER
 10
128.468965738794
 20
116.95295492368
 11
118.468965738794
 21
111.95295492368
  0
LWPOLYLINE
  5
73F
100
AcDbEntity
  8
0
100
AcDbPolyline
  6
BYLAYER
370
0
 90
     2
 10
127.574538547794
  20
106.50574132818
 10
117.574538547794
  20
111.50574132818
  0
LWPOLYLINE
  5
740
100
AcDbEntity
  8
0
100
AcDbPolyline
  6
BYLAYER
370
0
 90
     3
 10
107.574538547794
  20
128.294595710179
 10
117.574538547794
  20
123.294595710179
 10
125.296002993015
  20
127.15532793279
  0
LWPOLYLINE
  5
741
100
AcDbEntity
  8
0
100
AcDbPolyline
  6
BYLAYER
370
0
 90
     5
 10
117.574538547794
  20
112.40016851918
 10
107.574538547794
  20
117.40016851918
 10
117.574538547794
  20
122.40016851918
 10
127.574538547794
  20
117.40016851918
 10
117.574538547794
  20
112.40016851918
  0
LWPOLYLINE
  5
742
100
AcDbEntity
  8
0
100
AcDbPolyline
  6
BYLAYER
370
0
 90
     2
 10
30.4191210197943
  20
133.294595710179
 10
29.0563198006863
  20
132.613195100625
  0
LINE
  5
743
100
AcDbEntity
  8
0
100
AcDbLine
  6
BYLAYER
 10
41.3135482107942
 20
139.636236496679
 11
40.7347183970912
 21
139.925651403531
  0
LINE
  5
744
100
AcDbEntity
  8
0
100
AcDbLine
  6
BYLAYER
 10
31.3135482107942
 20
133.741809305679
 11
41.3135482107942
 21
128.741809305679
  0
LINE
  5
745
100
AcDbEntity
  8
0
100
AcDbLine
  6
BYLAYER
 10
41.3135482107942
 20
138.741809305679
 11
31.3135482107942
 21
133.741809305679
  0
LWPOLYLINE
  5
746
100
AcDbEntity
  8
0
100
AcDbPolyline
  6
BYLAYER
370
0
 90
     2
 10
40.4191210197943
  20
128.294595710179
 10
30.4191210197943
  20
133.294595710179
  0
LWPOLYLINE
  5
747
100
AcDbEntity
  8
0
100
AcDbPolyline
  6
BYLAYER
370
0
 90
     3
 10
39.8505675619911
  20
139.473299630081
 10
40.4191210197943
  20
139.189022901179
 10
33.3172516082708
  20
135.638088195418
  0
LINE
  5
748
100
AcDbEntity
  8
0
100
AcDbLine
  6
BYLAYER
 10
73.102402592794
 20
133.741809305679
 11
63.102402592794
 21
128.741809305679
  0
LWPOLYLINE
  5
749
100
AcDbEntity
  8
0
100
AcDbPolyline
  6
BYLAYER
370
0
 90
     2
 10
73.9968297837939
  20
133.294595710179
 10
63.9968297837939
  20
128.294595710179
  0
LINE
  5
74A
100
AcDbEntity
  8
0
100
AcDbLine
  6
BYLAYER
 10
73.102402592794
 20
144.636236496679
 11
67.3315325693844
 21
147.521671508384
  0
LINE
  5
74B
100
AcDbEntity
  8
0
100
AcDbLine
  6
BYLAYER
 10
63.102402592794
 20
138.741809305679
 11
73.102402592794
 21
133.741809305679
  0
LINE
  5
74C
100
AcDbEntity
  8
0
100
AcDbLine
  6
BYLAYER
 10
63.102402592794
 20
139.636236496679
 11
73.102402592794
 21
144.636236496679
  0
LINE
  5
74D
100
AcDbEntity
  8
0
100
AcDbLine
  6
BYLAYER
 10
74.8912569747939
 20
144.636236496679
 11
80.6621269982036
 21
147.521671508384
  0
LINE
  5
74E
100
AcDbEntity
  8
0
100
AcDbLine
  6
BYLAYER
 10
84.8912569747939
 20
139.636236496679
 11
74.8912569747939
 21
144.636236496679
  0
LINE
  5
74F
100
AcDbEntity
  8
0
100
AcDbLine
  6
BYLAYER
 10
74.8912569747939
 20
133.741809305679
 11
84.8912569747939
 21
128.741809305679
  0
LINE
  5
750
100
AcDbEntity
  8
0
100
AcDbLine
  6
BYLAYER
 10
84.8912569747939
 20
138.741809305679
 11
74.8912569747939
 21
133.741809305679
  0
LWPOLYLINE
  5
751
100
AcDbEntity
  8
0
100
AcDbPolyline
  6
BYLAYER
370
0
 90
     2
 10
83.9968297837939
  20
128.294595710179
 10
73.9968297837939
  20
133.294595710179
  0
LWPOLYLINE
  5
752
100
AcDbEntity
  8
0
100
AcDbPolyline
  6
BYLAYER
370
0
 90
     3
 10
68.8738917399572
  20
147.644919114098
 10
73.9968297837939
  20
145.083450092179
 10
79.1197678276307
  20
147.644919114098
  0
LWPOLYLINE
  5
753
100
AcDbEntity
  8
0
100
AcDbPolyline
  6
BYLAYER
370
0
 90
     5
 10
73.9968297837939
  20
134.189022901179
 10
63.9968297837939
  20
139.189022901179
 10
73.9968297837939
  20
144.189022901179
 10
83.9968297837939
  20
139.189022901179
 10
73.9968297837939
  20
134.189022901179
  0
LINE
  5
754
100
AcDbEntity
  8
0
100
AcDbLine
  6
BYLAYER
 10
51.313548210794
 20
133.741809305679
 11
41.313548210794
 21
128.741809305679
  0
LWPOLYLINE
  5
755
100
AcDbEntity
  8
0
100
AcDbPolyline
  6
BYLAYER
370
0
 90
     2
 10
52.207975401794
  20
133.294595710179
 10
42.207975401794
  20
128.294595710179
  0
LINE
  5
756
100
AcDbEntity
  8
0
100
AcDbLine
  6
BYLAYER
 10
41.313548210794
 20
138.741809305679
 11
51.313548210794
 21
133.741809305679
  0
LINE
  5
757
100
AcDbEntity
  8
0
100
AcDbLine
  6
BYLAYER
 10
41.313548210794
 20
139.636236496679
 11
48.9520739369184
 21
143.455499359741
  0
LINE
  5
758
100
AcDbEntity
  8
0
100
AcDbLine
  6
BYLAYER
 10
53.102402592794
 20
144.636236496679
 11
53.9285474973033
 21
145.049308948934
  0
LINE
  5
759
100
AcDbEntity
  8
0
100
AcDbLine
  6
BYLAYER
 10
63.102402592794
 20
139.636236496679
 11
53.102402592794
 21
144.636236496679
  0
LINE
  5
75A
100
AcDbEntity
  8
0
100
AcDbLine
  6
BYLAYER
 10
53.102402592794
 20
133.741809305679
 11
63.102402592794
 21
128.741809305679
  0
LINE
  5
75B
100
AcDbEntity
  8
0
100
AcDbLine
  6
BYLAYER
 10
63.102402592794
 20
138.741809305679
 11
53.102402592794
 21
133.741809305679
  0
LWPOLYLINE
  5
75C
100
AcDbEntity
  8
0
100
AcDbPolyline
  6
BYLAYER
370
0
 90
     2
 10
62.207975401794
  20
128.294595710179
 10
52.207975401794
  20
133.294595710179
  0
LWPOLYLINE
  5
75D
100
AcDbEntity
  8
0
100
AcDbPolyline
  6
BYLAYER
370
0
 90
     5
 10
52.207975401794
  20
134.189022901179
 10
42.207975401794
  20
139.189022901179
 10
52.207975401794
  20
144.189022901179
 10
62.207975401794
  20
139.189022901179
 10
52.207975401794
  20
134.189022901179
  0
LINE
  5
75E
100
AcDbEntity
  8
0
100
AcDbLine
  6
BYLAYER
 10
94.8912569747939
 20
133.741809305679
 11
84.8912569747939
 21
128.741809305679
  0
LWPOLYLINE
  5
75F
100
AcDbEntity
  8
0
100
AcDbPolyline
  6
BYLAYER
370
0
 90
     2
 10
95.7856841657939
  20
133.294595710179
 10
85.7856841657939
  20
128.294595710179
  0
LINE
  5
760
100
AcDbEntity
  8
0
100
AcDbLine
  6
BYLAYER
 10
94.8912569747939
 20
144.636236496679
 11
94.0651120702849
 21
145.049308948934
  0
LINE
  5
761
100
AcDbEntity
  8
0
100
AcDbLine
  6
BYLAYER
 10
84.8912569747939
 20
138.741809305679
 11
94.8912569747939
 21
133.741809305679
  0
LINE
  5
762
100
AcDbEntity
  8
0
100
AcDbLine
  6
BYLAYER
 10
84.8912569747939
 20
139.636236496679
 11
94.8912569747939
 21
144.636236496679
  0
LINE
  5
763
100
AcDbEntity
  8
0
100
AcDbLine
  6
BYLAYER
 10
106.680111356794
 20
139.636236496679
 11
99.0415856306696
 21
143.455499359741
  0
LINE
  5
764
100
AcDbEntity
  8
0
100
AcDbLine
  6
BYLAYER
 10
96.6801113567939
 20
133.741809305679
 11
106.680111356794
 21
128.741809305679
  0
LINE
  5
765
100
AcDbEntity
  8
0
100
AcDbLine
  6
BYLAYER
 10
106.680111356794
 20
138.741809305679
 11
96.6801113567939
 21
133.741809305679
  0
LWPOLYLINE
  5
766
100
AcDbEntity
  8
0
100
AcDbPolyline
  6
BYLAYER
370
0
 90
     2
 10
105.785684165794
  20
128.294595710179
 10
95.7856841657939
  20
133.294595710179
  0
LWPOLYLINE
  5
767
100
AcDbEntity
  8
0
100
AcDbPolyline
  6
BYLAYER
370
0
 90
     5
 10
95.7856841657939
  20
134.189022901179
 10
85.7856841657939
  20
139.189022901179
 10
95.7856841657939
  20
144.189022901179
 10
105.785684165794
  20
139.189022901179
 10
95.7856841657939
  20
134.189022901179
  0
LINE
  5
768
100
AcDbEntity
  8
0
100
AcDbLine
  6
BYLAYER
 10
116.680111356794
 20
133.741809305679
 11
106.680111356794
 21
128.741809305679
  0
LWPOLYLINE
  5
769
100
AcDbEntity
  8
0
100
AcDbPolyline
  6
BYLAYER
370
0
 90
     2
 10
117.574538547794
  20
133.294595710179
 10
107.574538547794
  20
128.294595710179
  0
LINE
  5
76A
100
AcDbEntity
  8
0
100
AcDbLine
  6
BYLAYER
 10
106.680111356794
 20
138.741809305679
 11
116.680111356794
 21
133.741809305679
  0
LINE
  5
76B
100
AcDbEntity
  8
0
100
AcDbLine
  6
BYLAYER
 10
106.680111356794
 20
139.636236496679
 11
107.258941170497
 21
139.925651403531
  0
LWPOLYLINE
  5
76C
100
AcDbEntity
  8
0
100
AcDbPolyline
  6
BYLAYER
370
0
 90
     2
 10
118.937339766902
  20
132.613195100625
 10
117.574538547794
  20
133.294595710179
  0
LWPOLYLINE
  5
76D
100
AcDbEntity
  8
0
100
AcDbPolyline
  6
BYLAYER
370
0
 90
     3
 10
114.676407959318
  20
135.638088195417
 10
107.574538547794
  20
139.189022901179
 10
108.143092005597
  20
139.473299630081
  0
INSERT
  5
76E
100
AcDbEntity
  8
0
100
AcDbBlockReference
  6
CONTINUOUS
  2
A$C77676829
 10
84.8912572395734
 20
19.3503234567223
 30
0.0
 50
90
  0
INSERT
  5
76F
100
AcDbEntity
  8
0
100
AcDbBlockReference
  6
CONTINUOUS
  2
A$C77676829
 10
63.1024028575735
 20
19.3503234567223
 30
0.0
 50
90
  0
INSERT
  5
770
100
AcDbEntity
  8
0
100
AcDbBlockReference
  6
CONTINUOUS
  2
A$C77676829
 10
106.680111621573
 20
19.3503234567223
 30
0.0
 50
90
  0
INSERT
  5
771
100
AcDbEntity
  8
0
100
AcDbBlockReference
  6
CONTINUOUS
  2
A$C77676829
 10
41.3135484755737
 20
62.9280322207218
 30
0.0
 50
90
  0
INSERT
  5
772
100
AcDbEntity
  8
0
100
AcDbBlockReference
  6
CONTINUOUS
  2
A$C77676829
 10
63.1024028575735
 20
62.9280322207218
 30
0.0
 50
90
  0
INSERT
  5
773
100
AcDbEntity
  8
0
100
AcDbBlockReference
  6
CONTINUOUS
  2
A$C77676829
 10
84.8912572395734
 20
62.9280322207218
 30
0.0
 50
90
  0
INSERT
  5
774
100
AcDbEntity
  8
0
100
AcDbBlockReference
  6
CONTINUOUS
  2
A$C77676829
 10
41.3135484755737
 20
41.139177838722
 30
0.0
 50
90
  0
INSERT
  5
775
100
AcDbEntity
  8
0
100
AcDbBlockReference
  6
CONTINUOUS
  2
A$C77676829
 10
84.8912572395734
 20
41.139177838722
 30
0.0
 50
90
  0
INSERT
  5
776
100
AcDbEntity
  8
0
100
AcDbBlockReference
  6
CONTINUOUS
  2
A$C77676829
 10
63.1024028575735
 20
41.139177838722
 30
0.0
 50
90
  0
INSERT
  5
777
100
AcDbEntity
  8
0
100
AcDbBlockReference
  6
CONTINUOUS
  2
A$C77676829
 10
41.3135484755737
 20
84.7168866027215
 30
0.0
 50
90
  0
INSERT
  5
778
100
AcDbEntity
  8
0
100
AcDbBlockReference
  6
CONTINUOUS
  2
A$C77676829
 10
84.8912572395734
 20
84.7168866027215
 30
0.0
 50
90
  0
INSERT
  5
779
100
AcDbEntity
  8
0
100
AcDbBlockReference
  6
CONTINUOUS
  2
A$C77676829
 10
63.1024028575735
 20
84.7168866027215
 30
0.0
 50
90
  0
INSERT
  5
77A
100
AcDbEntity
  8
0
100
AcDbBlockReference
  6
CONTINUOUS
  2
A$C77676829
 10
84.8912572395734
 20
106.505740984721
 30
0.0
 50
90
  0
INSERT
  5
77B
100
AcDbEntity
  8
0
100
AcDbBlockReference
  6
CONTINUOUS
  2
A$C77676829
 10
63.1024028575735
 20
106.505740984721
 30
0.0
 50
90
  0
INSERT
  5
77C
100
AcDbEntity
  8
0
100
AcDbBlockReference
  6
CONTINUOUS
  2
A$C77676829
 10
106.680111621573
 20
62.9280322207218
 30
0.0
 50
90
  0
INSERT
  5
77D
100
AcDbEntity
  8
0
100
AcDbBlockReference
  6
CONTINUOUS
  2
A$C77676829
 10
128.468966003573
 20
62.9280322207218
 30
0.0
 50
90
  0
INSERT
  5
77E
100
AcDbEntity
  8
0
100
AcDbBlockReference
  6
CONTINUOUS
  2
A$C77676829
 10
106.680111621573
 20
41.139177838722
 30
0.0
 50
90
  0
INSERT
  5
77F
100
AcDbEntity
  8
0
100
AcDbBlockReference
  6
CONTINUOUS
  2
A$C77676829
 10
128.468966003573
 20
41.139177838722
 30
0.0
 50
90
  0
INSERT
  5
780
100
AcDbEntity
  8
0
100
AcDbBlockReference
  6
CONTINUOUS
  2
A$C77676829
 10
106.680111621573
 20
84.7168866027215
 30
0.0
 50
90
  0
INSERT
  5
781
100
AcDbEntity
  8
0
100
AcDbBlockReference
  6
CONTINUOUS
  2
A$C77676829
 10
106.680111621573
 20
106.505740984721
 30
0.0
 50
90
  0
INSERT
  5
782
100
AcDbEntity
  8
0
100
AcDbBlockReference
  6
CONTINUOUS
  2
A$C77676829
 10
128.468966003573
 20
84.7168866027215
 30
0.0
 50
90
  0
ENDBLK
  5
783
100
AcDbEntity
  8
0
 67
     1
100
AcDbBlockEnd
  0
ENDSEC
  0
SECTION
  2
ENTITIES
  0
LINE
  5
784
100
AcDbEntity
  8
0
100
AcDbLine
  6
BYLAYER
 10
1800.77440396194
 20
-527.453925159747
 11
1788.27226418736
 21
-536.286047912232
  0
LINE
  5
785
100
AcDbEntity
  8
0
100
AcDbLine
  6
BYLAYER
 10
1821.77440396193
 20
-547.347476270833
 11
1912.77440396195
 21
-547.347476270833
  0
LINE
  5
786
100
AcDbEntity
  8
0
100
AcDbLine
  6
BYLAYER
 10
1915.27440396195
 20
-549.847476270833
 11
1915.27440396195
 21
-673.847476270833
  0
ARC
  5
787
100
AcDbEntity
  8
0
100
AcDbCircle
  6
BYLAYER
 10
1912.77440396195
 20
-673.847476270833
 40
2.5
100
AcDbArc
 50
270
 51
0
  0
ARC
  5
788
100
AcDbEntity
  8
0
100
AcDbCircle
  6
BYLAYER
 10
1912.77440396195
 20
-549.847476270833
 40
2.5
100
AcDbArc
 50
0
 51
90
  0
LINE
  5
789
100
AcDbEntity
  8
0
100
AcDbLine
  6
BYLAYER
 10
1908.27440396195
 20
-547.347476270833
 11
1908.27440396195
 21
-676.347476270833
  0
LINE
  5
78A
100
AcDbEntity
  8
0
100
AcDbLine
  6
BYLAYER
 10
1912.77440396195
 20
-676.347476270833
 11
1821.77440396191
 21
-676.347476270833
  0
LINE
  5
78B
100
AcDbEntity
  8
0
100
AcDbLine
  6
BYLAYER
 10
1644.7723822711
 20
-536.847476270858
 11
1644.77440396196
 21
-686.847476270858
  0
LINE
  5
78C
100
AcDbEntity
  8
0
100
AcDbLine
  6
BYLAYER
 10
1644.7723822711
 20
-536.847476270858
 11
1659.77440396194
 21
-536.847476270858
  0
LINE
  5
78D
100
AcDbEntity
  8
0
100
AcDbLine
  6
BYLAYER
 10
1644.77440396196
 20
-686.847476270858
 11
1659.77440396195
 21
-686.847476270858
  0
CIRCLE
  5
78E
100
AcDbEntity
  8
0
100
AcDbCircle
  6
BYLAYER
 10
1373.21083431455
 20
-604.645405783751
 40
65
  0
CIRCLE
  5
78F
100
AcDbEntity
  8
0
100
AcDbCircle
  6
BYLAYER
 10
1373.21083431455
 20
-604.645405783751
 40
120
  0
LINE
  5
790
100
AcDbEntity
  8
0
100
AcDbLine
  6
BYLAYER
 10
1445.42542494587
 20
-428.212796856329
 11
1445.68424399098
 21
-427.24687103004
  0
LINE
  5
791
100
AcDbEntity
  8
0
100
AcDbLine
  6
BYLAYER
 10
1445.68424399098
 20
-427.24687103004
 11
1512.68424399098
 21
-445.199466922924
  0
LINE
  5
792
100
AcDbEntity
  8
0
100
AcDbLine
  6
BYLAYER
 10
1512.68424399098
 20
-445.199466922924
 11
1512.42542494587
 21
-446.165392749214
  0
LINE
  5
793
100
AcDbEntity
  8
0
100
AcDbLine
  6
BYLAYER
 10
1512.42542494587
 20
-446.165392749214
 11
1445.42542494587
 21
-428.212796856329
  0
LINE
  5
794
100
AcDbEntity
  8
0
100
AcDbLine
  6
BYLAYER
 10
1216.71831816469
 20
-521.137255454329
 11
1310.34988354387
 21
-427.505690075142
  0
LINE
  5
795
100
AcDbEntity
  8
0
100
AcDbLine
  6
BYLAYER
 10
1310.34988354387
 20
-427.505690075142
 11
1311.05699032506
 21
-428.212796856329
  0
LINE
  5
796
100
AcDbEntity
  8
0
100
AcDbLine
  6
BYLAYER
 10
1217.42542494588
 20
-521.844362235515
 11
1216.71831816469
 21
-521.137255454329
  0
LINE
  5
797
100
AcDbEntity
  8
0
100
AcDbLine
  6
BYLAYER
 10
1311.05699032506
 20
-428.212796856329
 11
1311.05699032506
 21
-427.212796856329
  0
LINE
  5
798
100
AcDbEntity
  8
0
100
AcDbLine
  6
BYLAYER
 10
1311.05699032506
 20
-427.212796856329
 11
1445.42542494587
 21
-427.212796856329
  0
LINE
  5
799
100
AcDbEntity
  8
0
100
AcDbLine
  6
BYLAYER
 10
1445.42542494587
 20
-427.212796856329
 11
1445.42542494587
 21
-428.212796856329
  0
LINE
  5
79A
100
AcDbEntity
  8
0
100
AcDbLine
  6
BYLAYER
 10
1445.42542494587
 20
-428.212796856329
 11
1311.05699032506
 21
-428.212796856329
  0
LINE
  5
79B
100
AcDbEntity
  8
0
100
AcDbLine
  6
BYLAYER
 10
1513.13253172706
 20
-644.630434842748
 11
1417.84306293229
 21
-739.919903637516
  0
LINE
  5
79C
100
AcDbEntity
  8
0
100
AcDbLine
  6
BYLAYER
 10
1417.84306293229
 20
-739.919903637516
 11
1417.13595615111
 21
-739.212796856329
  0
LINE
  5
79D
100
AcDbEntity
  8
0
100
AcDbLine
  6
BYLAYER
 10
1512.42542494587
 20
-643.923328061561
 11
1513.13253172706
 21
-644.630434842748
  0
LINE
  5
79E
100
AcDbEntity
  8
0
100
AcDbLine
  6
BYLAYER
 10
1417.13595615111
 20
-739.212796856329
 11
1512.42542494587
 21
-643.923328061561
  0
LINE
  5
79F
100
AcDbEntity
  8
0
100
AcDbLine
  6
BYLAYER
 10
1513.42542494587
 20
-441.165392749214
 11
1513.42542494587
 21
-643.923328061561
  0
LINE
  5
7A0
100
AcDbEntity
  8
0
100
AcDbLine
  6
BYLAYER
 10
1513.42542494587
 20
-643.923328061561
 11
1512.42542494587
 21
-643.923328061561
  0
LINE
  5
7A1
100
AcDbEntity
  8
0
100
AcDbLine
  6
BYLAYER
 10
1512.42542494587
 20
-643.923328061561
 11
1512.42542494587
 21
-446.165392749214
  0
LINE
  5
7A2
100
AcDbEntity
  8
0
100
AcDbLine
  6
BYLAYER
 10
1512.42542494587
 20
-446.165392749214
 11
1513.42542494587
 21
-446.165392749216
  0
LINE
  5
7A3
100
AcDbEntity
  8
0
100
AcDbLine
  6
BYLAYER
 10
1298.58554382132
 20
-739.212796856329
 11
1297.87378886132
 21
-739.915224700961
  0
LINE
  5
7A4
100
AcDbEntity
  8
0
100
AcDbLine
  6
BYLAYER
 10
1297.87378886132
 20
-739.915224700961
 11
1216.71366998587
 21
-657.677429594527
  0
LINE
  5
7A5
100
AcDbEntity
  8
0
100
AcDbLine
  6
BYLAYER
 10
1216.71366998587
 20
-657.677429594527
 11
1217.42542494587
 21
-656.975001749895
  0
LINE
  5
7A6
100
AcDbEntity
  8
0
100
AcDbLine
  6
BYLAYER
 10
1217.42542494587
 20
-656.975001749895
 11
1298.58554382132
 21
-739.212796856329
  0
LINE
  5
7A7
100
AcDbEntity
  8
0
100
AcDbLine
  6
BYLAYER
 10
1417.13595615111
 20
-739.212796856329
 11
1417.13595615111
 21
-740.212796856329
  0
LINE
  5
7A8
100
AcDbEntity
  8
0
100
AcDbLine
  6
BYLAYER
 10
1417.13595615111
 20
-740.212796856329
 11
1298.58554382132
 21
-740.212796856329
  0
LINE
  5
7A9
100
AcDbEntity
  8
0
100
AcDbLine
  6
BYLAYER
 10
1298.58554382132
 20
-740.212796856329
 11
1298.58554382132
 21
-739.212796856329
  0
LINE
  5
7AA
100
AcDbEntity
  8
0
100
AcDbLine
  6
BYLAYER
 10
1298.58554382132
 20
-739.212796856329
 11
1417.13595615111
 21
-739.212796856329
  0
LINE
  5
7AB
100
AcDbEntity
  8
0
100
AcDbLine
  6
BYLAYER
 10
1217.42542494587
 20
-656.975001749895
 11
1216.42542494587
 21
-656.975001749895
  0
LINE
  5
7AC
100
AcDbEntity
  8
0
100
AcDbLine
  6
BYLAYER
 10
1216.42542494587
 20
-656.975001749895
 11
1216.42542494588
 21
-521.844362235515
  0
LINE
  5
7AD
100
AcDbEntity
  8
0
100
AcDbLine
  6
BYLAYER
 10
1216.42542494588
 20
-521.844362235515
 11
1217.42542494588
 21
-521.844362235515
  0
LINE
  5
7AE
100
AcDbEntity
  8
0
100
AcDbLine
  6
BYLAYER
 10
1311.05699032506
 20
-428.212796856329
 11
1217.42542494588
 21
-521.844362235515
  0
LINE
  5
7AF
100
AcDbEntity
  8
0
100
AcDbLine
  6
BYLAYER
 10
1217.42542494588
 20
-521.844362235515
 11
1217.42542494587
 21
-656.975001749895
  0
CIRCLE
  5
7B0
100
AcDbEntity
  8
0
100
AcDbCircle
  6
BYLAYER
 10
1450.99258024506
 20
-526.863659853231
 40
1.5
  0
CIRCLE
  5
7B1
100
AcDbEntity
  8
0
100
AcDbCircle
  6
BYLAYER
 10
1295.42908838403
 20
-526.863659853232
 40
1.5
  0
CIRCLE
  5
7B2
100
AcDbEntity
  8
0
100
AcDbCircle
  6
BYLAYER
 10
1450.99258024507
 20
-682.427151714272
 40
1.5
  0
CIRCLE
  5
7B3
100
AcDbEntity
  8
0
100
AcDbCircle
  6
BYLAYER
 10
1295.42908838403
 20
-682.427151714272
 40
1.5
  0
ARC
  5
7B4
100
AcDbEntity
  8
0
100
AcDbCircle
  6
BYLAYER
 10
1382.51775980433
 20
-593.071572490552
 40
164.061137780674
100
AcDbArc
 50
137.102422794671
 51
141.014605044759
  0
LINE
  5
7B5
100
AcDbEntity
  8
0
100
AcDbLine
  6
BYLAYER
 10
1261.53000057836
 20
-480.701764186248
 11
1262.33121599842
 21
-481.396814295703
  0
ARC
  5
7B6
100
AcDbEntity
  8
0
100
AcDbCircle
  6
BYLAYER
 10
1382.51786849556
 20
-593.071584041866
 40
165.121290564038
100
AcDbArc
 50
137.115008451543
 51
141.002063066527
  0
LINE
  5
7B7
100
AcDbEntity
  8
0
100
AcDbLine
  6
BYLAYER
 10
1254.99199499165
 20
-489.857056850405
 11
1254.19078279638
 21
-489.162009538413
  0
LINE
  5
7B8
100
AcDbEntity
  8
0
100
AcDbLine
  6
BYLAYER
 10
1274.4580746434
 20
-708.507284664611
 11
1273.779214402
 21
-709.322453346932
  0
ARC
  5
7B9
100
AcDbEntity
  8
0
100
AcDbCircle
  6
BYLAYER
 10
1361.6826758612
 20
-595.01802497184
 40
143.136100000032
100
AcDbArc
 50
227.970801496834
 51
232.45514970585
  0
LINE
  5
7BA
100
AcDbEntity
  8
0
100
AcDbLine
  6
BYLAYER
 10
1265.1728750223
 20
-702.155223109096
 11
1265.8517352637
 21
-701.340054426775
  0
ARC
  5
7BB
100
AcDbEntity
  8
0
100
AcDbCircle
  6
BYLAYER
 10
1361.68267586118
 20
-595.018024971871
 40
144.196119513164
100
AcDbArc
 50
227.987292571297
 51
232.438658631386
  0
LINE
  5
7BC
100
AcDbEntity
  8
0
100
AcDbLine
  6
BYLAYER
 10
1461.26240015453
 20
-689.227528166034
 11
1462.08197634204
 21
-689.901496779477
  0
ARC
  5
7BD
100
AcDbEntity
  8
0
100
AcDbCircle
  6
BYLAYER
 10
1363.77223170838
 20
-616.307757587879
 40
121.74410000008
100
AcDbArc
 50
317.931887763725
 51
323.204595018614
  0
LINE
  5
7BE
100
AcDbEntity
  8
0
100
AcDbLine
  6
BYLAYER
 10
1454.968400478
 20
-698.551925404687
 11
1454.14882429049
 21
-697.877956791242
  0
ARC
  5
7BF
100
AcDbEntity
  8
0
100
AcDbCircle
  6
BYLAYER
 10
1363.77223170842
 20
-616.307757587911
 40
122.804089256524
100
AcDbArc
 50
317.954659439099
 51
323.181823343249
  0
LINE
  5
7C0
100
AcDbEntity
  8
0
100
AcDbLine
  6
BYLAYER
 10
1373.21083431454
 20
-428.212796856329
 11
1373.21083431454
 21
-429.272796856329
  0
LINE
  5
7C1
100
AcDbEntity
  8
0
100
AcDbLine
  6
BYLAYER
 10
1373.21083431454
 20
-429.272796856329
 11
1383.41083431454
 21
-429.272796856329
  0
LINE
  5
7C2
100
AcDbEntity
  8
0
100
AcDbLine
  6
BYLAYER
 10
1383.41083431454
 20
-429.272796856329
 11
1383.41083431454
 21
-428.212796856329
  0
LINE
  5
7C3
100
AcDbEntity
  8
0
100
AcDbLine
  6
BYLAYER
 10
1421.64805055951
 20
-428.212796856329
 11
1421.64805055951
 21
-429.272796856329
  0
LINE
  5
7C4
100
AcDbEntity
  8
0
100
AcDbLine
  6
BYLAYER
 10
1421.64805055951
 20
-429.272796856329
 11
1442.84805055951
 21
-429.272796856329
  0
LINE
  5
7C5
100
AcDbEntity
  8
0
100
AcDbLine
  6
BYLAYER
 10
1442.84805055951
 20
-429.272796856329
 11
1442.84805055951
 21
-428.212796856329
  0
LINE
  5
7C6
100
AcDbEntity
  8
0
100
AcDbLine
  6
BYLAYER
 10
1491.94779742855
 20
-440.67842899304
 11
1491.67344924074
 21
-441.702310368906
  0
LINE
  5
7C7
100
AcDbEntity
  8
0
100
AcDbLine
  6
BYLAYER
 10
1491.67344924074
 20
-441.702310368906
 11
1512.15107675807
 21
-447.189274125081
  0
LINE
  5
7C8
100
AcDbEntity
  8
0
100
AcDbLine
  6
BYLAYER
 10
1512.15107675807
 20
-447.189274125081
 11
1512.42542494587
 21
-446.165392749214
  0
ARC
  5
7C9
100
AcDbEntity
  8
0
100
AcDbCircle
  6
BYLAYER
 10
1361.68267586117
 20
-595.018024971053
 40
144.196119513981
100
AcDbArc
 50
269.75228842053
 51
270.24771157947
  0
ARC
  5
7CA
100
AcDbEntity
  8
0
100
AcDbCircle
  6
BYLAYER
 10
1361.68267586118
 20
-595.018024971879
 40
143.136099999984
100
AcDbArc
 50
268.217970949183
 51
272.301823265739
  0
LINE
  5
7CB
100
AcDbEntity
  8
0
100
AcDbLine
  6
BYLAYER
 10
1367.43153533355
 20
-738.038630962667
 11
1367.43153533355
 21
-739.099500177468
  0
ARC
  5
7CC
100
AcDbEntity
  8
0
100
AcDbCircle
  6
BYLAYER
 10
1361.68267586117
 20
-595.018024971853
 40
144.196119513182
100
AcDbArc
 50
270.24771157947
 51
272.284893013648
  0
ARC
  5
7CD
100
AcDbEntity
  8
0
100
AcDbCircle
  6
BYLAYER
 10
1361.68267586117
 20
-595.018024971817
 40
144.196119513218
100
AcDbArc
 50
268.231075242186
 51
269.75228842053
  0
LINE
  5
7CE
100
AcDbEntity
  8
0
100
AcDbLine
  6
BYLAYER
 10
1357.23153533355
 20
-739.145427746839
 11
1357.23153533355
 21
-738.084899094468
  0
LINE
  5
7CF
100
AcDbEntity
  8
0
100
AcDbLine
  6
BYLAYER
 10
1472.66424466353
 20
-434.476140422038
 11
1472.40542561842
 21
-435.442066248329
  0
LINE
  5
7D0
100
AcDbEntity
  8
0
100
AcDbLine
  6
BYLAYER
 10
1485.74288035148
 20
-437.980550292725
 11
1485.48406130638
 21
-438.946476119017
  0
LINE
  5
7D1
100
AcDbEntity
  8
0
100
AcDbLine
  6
BYLAYER
 10
1514.42542494587
 20
-441.165392749214
 11
1513.42542494587
 21
-441.165392749214
  0
LINE
  5
7D2
100
AcDbEntity
  8
0
100
AcDbLine
  6
BYLAYER
 10
1514.42542494587
 20
-555.415392749214
 11
1513.42542494587
 21
-555.415392749214
  0
LINE
  5
7D3
100
AcDbEntity
  8
0
100
AcDbLine
  6
BYLAYER
 10
1554.42542494587
 20
-577.212796856329
 11
1516.92542494587
 21
-577.212796856329
  0
LINE
  5
7D4
100
AcDbEntity
  8
0
100
AcDbLine
  6
BYLAYER
 10
1554.42542494587
 20
-427.212796856329
 11
1516.92542494587
 21
-427.212796856329
  0
ARC
  5
7D5
100
AcDbEntity
  8
0
100
AcDbCircle
  6
BYLAYER
 10
1516.92542494587
 20
-429.712796856329
 40
2.5
100
AcDbArc
 50
90
 51
180
  0
LINE
  5
7D6
100
AcDbEntity
  8
0
100
AcDbLine
  6
BYLAYER
 10
1514.42542494587
 20
-429.712796856329
 11
1514.42542494587
 21
-574.712796856329
  0
ARC
  5
7D7
100
AcDbEntity
  8
0
100
AcDbCircle
  6
BYLAYER
 10
1516.92542494587
 20
-574.712796856329
 40
2.5
100
AcDbArc
 50
180
 51
270
  0
LINE
  5
7D8
100
AcDbEntity
  8
0
100
AcDbLine
  6
BYLAYER
 10
1554.42542494587
 20
-427.212796856329
 11
1554.42542494587
 21
-577.212796856329
  0
CIRCLE
  5
7D9
100
AcDbEntity
  8
0
100
AcDbCircle
  6
BYLAYER
 10
1373.21083431455
 20
-604.645405783751
 40
75
  0
CIRCLE
  5
7DA
100
AcDbEntity
  8
0
100
AcDbCircle
  6
BYLAYER
 10
1373.21083431455
 20
-604.645405783751
 40
74
  0
CIRCLE
  5
7DB
100
AcDbEntity
  8
0
100
AcDbCircle
  6
BYLAYER
 10
1373.21083431455
 20
-604.645405783751
 40
74
  0
CIRCLE
  5
7DC
100
AcDbEntity
  8
0
100
AcDbCircle
  6
BYLAYER
 10
1373.21083431455
 20
-604.645405783751
 40
119
  0
CIRCLE
  5
7DD
100
AcDbEntity
  8
0
100
AcDbCircle
  6
BYLAYER
 10
1295.42908838402
 20
-682.427151714272
 40
3.25
  0
CIRCLE
  5
7DE
100
AcDbEntity
  8
0
100
AcDbCircle
  6
BYLAYER
 10
1373.21083431455
 20
-714.645405783752
 40
3.25
  0
CIRCLE
  5
7DF
100
AcDbEntity
  8
0
100
AcDbCircle
  6
BYLAYER
 10
1450.99258024506
 20
-682.427151714272
 40
3.25
  0
CIRCLE
  5
7E0
100
AcDbEntity
  8
0
100
AcDbCircle
  6
BYLAYER
 10
1263.21083431455
 20
-604.645405783751
 40
3.25
  0
CIRCLE
  5
7E1
100
AcDbEntity
  8
0
100
AcDbCircle
  6
BYLAYER
 10
1295.42908838402
 20
-526.863659853231
 40
3.25
  0
CIRCLE
  5
7E2
100
AcDbEntity
  8
0
100
AcDbCircle
  6
BYLAYER
 10
1483.21083431454
 20
-604.645405783751
 40
3.25
  0
CIRCLE
  5
7E3
100
AcDbEntity
  8
0
100
AcDbCircle
  6
BYLAYER
 10
1450.99258024506
 20
-526.863659853231
 40
3.25
  0
CIRCLE
  5
7E4
100
AcDbEntity
  8
0
100
AcDbCircle
  6
BYLAYER
 10
1373.21083431455
 20
-494.645405783752
 40
3.25
  0
LINE
  5
7E5
100
AcDbEntity
  8
CEN
100
AcDbLine
  6
BYLAYER
 10
1247.21083431455
 20
-604.645405783751
 11
1499.21083431454
 21
-604.645405783751
  0
LINE
  5
7E6
100
AcDbEntity
  8
CEN
100
AcDbLine
  6
BYLAYER
 10
1373.21083431455
 20
-478.645405783751
 11
1373.21083431455
 21
-730.645405783751
  0
LINE
  5
7E7
100
AcDbEntity
  8
CEN
100
AcDbLine
  6
BYLAYER
 10
1638.77339311108
 20
-611.847071946309
 11
1921.27440396195
 21
-611.847476270833
  0
LINE
  5
7E8
100
AcDbEntity
  8
0
100
AcDbLine
  6
BYLAYER
 10
1680.77440396188
 20
-445.199466922924
 11
1659.77440396188
 21
-445.199466922924
  0
LINE
  5
7E9
100
AcDbEntity
  8
0
100
AcDbLine
  6
BYLAYER
 10
1680.77440396188
 20
-644.630434842748
 11
1659.77440396188
 21
-644.630434842748
  0
LINE
  5
7EA
100
AcDbEntity
  8
0
100
AcDbLine
  6
BYLAYER
 10
1680.77440396188
 20
-643.923328061561
 11
1679.77440396188
 21
-643.923328061561
  0
LINE
  5
7EB
100
AcDbEntity
  8
0
100
AcDbLine
  6
BYLAYER
 10
1680.77440396194
 20
-446.165392749214
 11
1659.77440396188
 21
-446.165392749214
  0
LINE
  5
7EC
100
AcDbEntity
  8
0
100
AcDbLine
  6
BYLAYER
 10
1680.77440396194
 20
-427.212796856329
 11
1659.77440396194
 21
-427.212796856329
  0
LINE
  5
7ED
100
AcDbEntity
  8
0
100
AcDbLine
  6
BYLAYER
 10
1680.77440396194
 20
-740.212796856329
 11
1659.77440396194
 21
-740.212796856329
  0
LINE
  5
7EE
100
AcDbEntity
  8
0
100
AcDbLine
  6
BYLAYER
 10
1680.77440396194
 20
-739.915224700961
 11
1680.77440396194
 21
-740.212796856329
  0
LINE
  5
7EF
100
AcDbEntity
  8
0
100
AcDbLine
  6
BYLAYER
 10
1680.77440396194
 20
-427.212796856329
 11
1680.77440396196
 21
-457.212796856292
  0
LINE
  5
7F0
100
AcDbEntity
  8
0
100
AcDbLine
  6
BYLAYER
 10
1680.77440396196
 20
-555.415392749214
 11
1680.77440396196
 21
-656.975001749895
  0
LINE
  5
7F1
100
AcDbEntity
  8
0
100
AcDbLine
  6
BYLAYER
 10
1680.77440396196
 20
-656.975001749895
 11
1680.77440396196
 21
-657.677429594527
  0
LINE
  5
7F2
100
AcDbEntity
  8
0
100
AcDbLine
  6
BYLAYER
 10
1680.77440396196
 20
-657.677429594527
 11
1680.77440396194
 21
-739.915224700961
  0
LINE
  5
7F3
100
AcDbEntity
  8
0
100
AcDbLine
  6
BYLAYER
 10
1659.77440396196
 20
-521.137255454329
 11
1659.77440396194
 21
-451.165392749216
  0
LINE
  5
7F4
100
AcDbEntity
  8
0
100
AcDbLine
  6
BYLAYER
 10
1659.77440396196
 20
-521.844362235515
 11
1659.77440396196
 21
-521.137255454329
  0
LINE
  5
7F5
100
AcDbEntity
  8
0
100
AcDbLine
  6
BYLAYER
 10
1659.77440396194
 20
-739.915224700961
 11
1659.77440396196
 21
-657.677429594527
  0
LINE
  5
7F6
100
AcDbEntity
  8
0
100
AcDbLine
  6
BYLAYER
 10
1659.77440396196
 20
-657.677429594527
 11
1659.77440396196
 21
-656.975001749895
  0
LINE
  5
7F7
100
AcDbEntity
  8
0
100
AcDbLine
  6
BYLAYER
 10
1659.77440396194
 20
-740.212796856329
 11
1659.77440396194
 21
-739.915224700961
  0
LINE
  5
7F8
100
AcDbEntity
  8
0
100
AcDbLine
  6
BYLAYER
 10
1659.77440396196
 20
-656.975001749895
 11
1659.77440396196
 21
-550.415392749214
  0
LINE
  5
7F9
100
AcDbEntity
  8
0
100
AcDbLine
  6
BYLAYER
 10
1679.77440396188
 20
-643.923328061561
 11
1659.77440396188
 21
-643.923328061561
  0
ARC
  5
7FA
100
AcDbEntity
  8
0
100
AcDbCircle
  6
BYLAYER
 10
1669.77440396195
 20
-461.165392749214
 40
4.25
100
AcDbArc
 50
180
 51
0
  0
LINE
  5
7FB
100
AcDbEntity
  8
0
100
AcDbLine
  6
BYLAYER
 10
1674.02440396195
 20
-456.165392749214
 11
1674.02440396195
 21
-461.165392749214
  0
ARC
  5
7FC
100
AcDbEntity
  8
0
100
AcDbCircle
  6
BYLAYER
 10
1669.77440396195
 20
-456.165392749214
 40
4.25
100
AcDbArc
 50
0
 51
180
  0
ARC
  5
7FD
100
AcDbEntity
  8
0
100
AcDbCircle
  6
BYLAYER
 10
1669.77440396195
 20
-618.165392749214
 40
4.25
100
AcDbArc
 50
0
 51
180
  0
ARC
  5
7FE
100
AcDbEntity
  8
0
100
AcDbCircle
  6
BYLAYER
 10
1669.77440396195
 20
-623.165392749214
 40
4.25
100
AcDbArc
 50
180
 51
0
  0
LINE
  5
7FF
100
AcDbEntity
  8
0
100
AcDbLine
  6
BYLAYER
 10
1665.52440396195
 20
-623.165392749214
 11
1665.52440396195
 21
-618.165392749214
  0
LINE
  5
800
100
AcDbEntity
  8
0
100
AcDbLine
  6
BYLAYER
 10
1674.02440396195
 20
-623.165392749214
 11
1674.02440396195
 21
-618.165392749214
  0
LINE
  5
801
100
AcDbEntity
  8
0
100
AcDbLine
  6
BYLAYER
 10
1680.77440396194
 20
-427.212796856329
 11
1800.77440396194
 21
-427.212796856329
  0
LINE
  5
802
100
AcDbEntity
  8
0
100
AcDbLine
  6
BYLAYER
 10
1800.77440396199
 20
-445.199466922924
 11
1821.77440396199
 21
-445.199466922924
  0
LINE
  5
803
100
AcDbEntity
  8
0
100
AcDbLine
  6
BYLAYER
 10
1800.774403962
 20
-644.630434842748
 11
1821.77440396199
 21
-644.630434842748
  0
LINE
  5
804
100
AcDbEntity
  8
0
100
AcDbLine
  6
BYLAYER
 10
1800.77440396199
 20
-643.923328061561
 11
1801.77440396199
 21
-643.923328061561
  0
LINE
  5
805
100
AcDbEntity
  8
0
100
AcDbLine
  6
BYLAYER
 10
1800.77440396199
 20
-446.165392749214
 11
1821.77440396199
 21
-446.165392749214
  0
LINE
  5
806
100
AcDbEntity
  8
0
100
AcDbLine
  6
BYLAYER
 10
1800.77440396194
 20
-427.212796856329
 11
1821.77440396194
 21
-427.212796856329
  0
LINE
  5
807
100
AcDbEntity
  8
0
100
AcDbLine
  6
BYLAYER
 10
1800.77440396193
 20
-740.212796856329
 11
1821.77440396193
 21
-740.212796856329
  0
LINE
  5
808
100
AcDbEntity
  8
0
100
AcDbLine
  6
BYLAYER
 10
1800.77440396193
 20
-739.915224700961
 11
1800.77440396193
 21
-740.212796856329
  0
LINE
  5
809
100
AcDbEntity
  8
0
100
AcDbLine
  6
BYLAYER
 10
1800.77440396193
 20
-427.212796856329
 11
1800.77440396193
 21
-457.212796856316
  0
LINE
  5
80A
100
AcDbEntity
  8
0
100
AcDbLine
  6
BYLAYER
 10
1800.7744039619
 20
-555.415392749214
 11
1800.77440396191
 21
-656.975001749895
  0
LINE
  5
80B
100
AcDbEntity
  8
0
100
AcDbLine
  6
BYLAYER
 10
1800.77440396191
 20
-656.975001749895
 11
1800.77440396191
 21
-657.677429594527
  0
LINE
  5
80C
100
AcDbEntity
  8
0
100
AcDbLine
  6
BYLAYER
 10
1800.77440396191
 20
-657.677429594527
 11
1800.77440396193
 21
-739.915224700961
  0
LINE
  5
80D
100
AcDbEntity
  8
0
100
AcDbLine
  6
BYLAYER
 10
1821.77440396199
 20
-446.165392749214
 11
1821.77440396194
 21
-427.505690075142
  0
LINE
  5
80E
100
AcDbEntity
  8
0
100
AcDbLine
  6
BYLAYER
 10
1821.77440396191
 20
-521.844362235515
 11
1821.77440396191
 21
-521.137255454329
  0
LINE
  5
80F
100
AcDbEntity
  8
0
100
AcDbLine
  6
BYLAYER
 10
1821.77440396194
 20
-427.505690075142
 11
1821.77440396194
 21
-427.212796856329
  0
LINE
  5
810
100
AcDbEntity
  8
0
100
AcDbLine
  6
BYLAYER
 10
1821.77440396193
 20
-739.915224700961
 11
1821.77440396191
 21
-657.677429594527
  0
LINE
  5
811
100
AcDbEntity
  8
0
100
AcDbLine
  6
BYLAYER
 10
1821.77440396191
 20
-657.677429594527
 11
1821.77440396191
 21
-656.975001749895
  0
LINE
  5
812
100
AcDbEntity
  8
0
100
AcDbLine
  6
BYLAYER
 10
1821.77440396193
 20
-740.212796856329
 11
1821.77440396193
 21
-739.915224700961
  0
LINE
  5
813
100
AcDbEntity
  8
0
100
AcDbLine
  6
BYLAYER
 10
1821.77440396191
 20
-656.975001749895
 11
1821.77440396191
 21
-550.415392749214
  0
LINE
  5
814
100
AcDbEntity
  8
0
100
AcDbLine
  6
BYLAYER
 10
1801.77440396199
 20
-643.923328061561
 11
1821.77440396199
 21
-643.923328061561
  0
ARC
  5
815
100
AcDbEntity
  8
0
100
AcDbCircle
  6
BYLAYER
 10
1811.77440396192
 20
-618.165392749214
 40
4.25
100
AcDbArc
 50
0
 51
180
  0
ARC
  5
816
100
AcDbEntity
  8
0
100
AcDbCircle
  6
BYLAYER
 10
1811.77440396192
 20
-623.165392749214
 40
4.25
100
AcDbArc
 50
180
 51
0
  0
LINE
  5
817
100
AcDbEntity
  8
0
100
AcDbLine
  6
BYLAYER
 10
1816.02440396192
 20
-623.165392749214
 11
1816.02440396192
 21
-618.165392749214
  0
LINE
  5
818
100
AcDbEntity
  8
0
100
AcDbLine
  6
BYLAYER
 10
1807.52440396192
 20
-623.165392749214
 11
1807.52440396192
 21
-618.165392749214
  0
LINE
  5
819
100
AcDbEntity
  8
0
100
AcDbLine
  6
BYLAYER
 10
1680.77440396194
 20
-446.165392749214
 11
1690.9377859702
 21
-446.165392749214
  0
LINE
  5
81A
100
AcDbEntity
  8
0
100
AcDbLine
  6
BYLAYER
 10
1790.61102195367
 20
-446.165392749214
 11
1800.77440396199
 21
-446.165392749214
  0
LINE
  5
81B
100
AcDbEntity
  8
0
100
AcDbLine
  6
BYLAYER
 10
1680.77440396194
 20
-447.165392749214
 11
1689.83538845252
 21
-447.165392749214
  0
LINE
  5
81C
100
AcDbEntity
  8
0
100
AcDbLine
  6
BYLAYER
 10
1791.71341947135
 20
-447.165392749214
 11
1800.77440396199
 21
-447.165392749214
  0
LINE
  5
81D
100
AcDbEntity
  8
0
100
AcDbLine
  6
BYLAYER
 10
1680.77440396194
 20
-739.212796856329
 11
1800.77440396193
 21
-739.212796856329
  0
LINE
  5
81E
100
AcDbEntity
  8
0
100
AcDbLine
  6
BYLAYER
 10
1665.52440396195
 20
-456.165392749214
 11
1665.52440396195
 21
-461.165392749214
  0
CIRCLE
  5
81F
100
AcDbEntity
  8
0
100
AcDbCircle
  6
BYLAYER
 10
1669.77440396195
 20
-546.165392749214
 40
4.25
  0
ARC
  5
820
100
AcDbEntity
  8
0
100
AcDbCircle
  6
BYLAYER
 10
1811.77440396192
 20
-461.165392749214
 40
4.25
100
AcDbArc
 50
180
 51
0
  0
LINE
  5
821
100
AcDbEntity
  8
0
100
AcDbLine
  6
BYLAYER
 10
1807.52440396192
 20
-456.165392749214
 11
1807.52440396192
 21
-461.165392749214
  0
LINE
  5
822
100
AcDbEntity
  8
0
100
AcDbLine
  6
BYLAYER
 10
1816.02440396192
 20
-456.165392749214
 11
1816.02440396192
 21
-461.165392749214
  0
ARC
  5
823
100
AcDbEntity
  8
0
100
AcDbCircle
  6
BYLAYER
 10
1811.77440396192
 20
-456.165392749214
 40
4.25
100
AcDbArc
 50
0
 51
180
  0
CIRCLE
  5
824
100
AcDbEntity
  8
0
100
AcDbCircle
  6
BYLAYER
 10
1811.77440396192
 20
-546.165392749214
 40
4.25
  0
LINE
  5
825
100
AcDbEntity
  8
0
100
AcDbLine
  6
BYLAYER
 10
1664.77440396194
 20
-555.415392749214
 11
1687.91152672036
 21
-555.415392749214
  0
LINE
  5
826
100
AcDbEntity
  8
0
100
AcDbLine
  6
BYLAYER
 10
1793.63728120351
 20
-555.415392749214
 11
1816.77440396193
 21
-555.415392749214
  0
ARC
  5
827
100
AcDbEntity
  8
0
100
AcDbCircle
  6
BYLAYER
 10
1664.77440396194
 20
-550.415392749214
 40
5
100
AcDbArc
 50
180
 51
270
  0
LINE
  5
828
100
AcDbEntity
  8
0
100
AcDbLine
  6
BYLAYER
 10
1659.77440396194
 20
-451.165392749214
 11
1659.77440396194
 21
-550.415392749214
  0
ARC
  5
829
100
AcDbEntity
  8
0
100
AcDbCircle
  6
BYLAYER
 10
1664.77440396194
 20
-451.165392749214
 40
5
100
AcDbArc
 50
90
 51
180
  0
LINE
  5
82A
100
AcDbEntity
  8
0
100
AcDbLine
  6
BYLAYER
 10
1821.77440396193
 20
-451.165392749214
 11
1821.77440396193
 21
-550.415392749214
  0
ARC
  5
82B
100
AcDbEntity
  8
0
100
AcDbCircle
  6
BYLAYER
 10
1816.77440396193
 20
-451.165392749214
 40
5
100
AcDbArc
 50
0
 51
90
  0
ARC
  5
82C
100
AcDbEntity
  8
0
100
AcDbCircle
  6
BYLAYER
 10
1816.77440396193
 20
-550.415392749214
 40
5
100
AcDbArc
 50
270
 51
0
  0
CIRCLE
  5
82D
100
AcDbEntity
  8
0
100
AcDbCircle
  6
BYLAYER
 10
1740.77440396194
 20
-502.212796856329
 40
75
  0
CIRCLE
  5
82E
100
AcDbEntity
  8
0
100
AcDbCircle
  6
BYLAYER
 10
1740.77440396194
 20
-502.212796856329
 40
74
  0
LINE
  5
82F
100
AcDbEntity
  8
0
100
AcDbLine
  6
BYLAYER
 10
1699.17172014144
 20
-447.165392749214
 11
1782.37708778243
 21
-447.165392749214
  0
LINE
  5
830
100
AcDbEntity
  8
0
100
AcDbLine
  6
BYLAYER
 10
1800.77440396192
 20
-468.13934678151
 11
1800.77440396194
 21
-533.959032182584
  0
ARC
  5
831
100
AcDbEntity
  8
0
100
AcDbCircle
  6
BYLAYER
 10
1790.77440396194
 20
-533.959032182586
 40
10
100
AcDbArc
 50
270
 51
1.30276E-11
  0
LINE
  5
832
100
AcDbEntity
  8
0
100
AcDbLine
  6
BYLAYER
 10
1690.77440396193
 20
-543.959032182586
 11
1790.77440396194
 21
-543.959032182586
  0
LINE
  5
833
100
AcDbEntity
  8
0
100
AcDbLine
  6
BYLAYER
 10
1699.17172014144
 20
-447.165392749214
 11
1782.37708778243
 21
-447.165392749214
  0
LINE
  5
834
100
AcDbEntity
  8
0
100
AcDbLine
  6
BYLAYER
 10
1699.17172014144
 20
-447.165392749214
 11
1782.37708778243
 21
-447.165392749214
  0
LINE
  5
835
100
AcDbEntity
  8
0
100
AcDbLine
  6
BYLAYER
 10
1680.77440396193
 20
-533.959032182584
 11
1680.77440396194
 21
-468.13934678151
  0
ARC
  5
836
100
AcDbEntity
  8
0
100
AcDbCircle
  6
BYLAYER
 10
1690.77440396193
 20
-533.959032182586
 40
10
100
AcDbArc
 50
179.999999999987
 51
270
  0
ARC
  5
837
100
AcDbEntity
  8
0
100
AcDbCircle
  6
BYLAYER
 10
1740.77440396194
 20
-502.212796856329
 40
69
100
AcDbArc
 50
29.5918457939797
 51
52.9194322798654
  0
ARC
  5
838
100
AcDbEntity
  8
0
100
AcDbCircle
  6
BYLAYER
 10
1740.77440396194
 20
-502.212796856329
 40
69
100
AcDbArc
 50
127.080567720134
 51
150.408154206038
  0
LINE
  5
839
100
AcDbEntity
  8
0
100
AcDbLine
  6
BYLAYER
 10
1665.52440396195
 20
-664.513868765679
 11
1665.52440396195
 21
-663.467927219661
  0
ARC
  5
83A
100
AcDbEntity
  8
0
100
AcDbCircle
  6
BYLAYER
 10
1669.77440396195
 20
-664.513868765679
 40
4.25
100
AcDbArc
 50
180
 51
0
  0
LINE
  5
83B
100
AcDbEntity
  8
0
100
AcDbLine
  6
BYLAYER
 10
1674.02440396195
 20
-663.467927219661
 11
1674.02440396195
 21
-664.513868765679
  0
ARC
  5
83C
100
AcDbEntity
  8
0
100
AcDbCircle
  6
BYLAYER
 10
1669.77440396195
 20
-663.467927219661
 40
4.25
100
AcDbArc
 50
0
 51
180
  0
LINE
  5
83D
100
AcDbEntity
  8
0
100
AcDbLine
  6
BYLAYER
 10
1665.52440396195
 20
-721.082411260603
 11
1665.52440396195
 21
-720.036469714584
  0
ARC
  5
83E
100
AcDbEntity
  8
0
100
AcDbCircle
  6
BYLAYER
 10
1669.77440396195
 20
-721.082411260603
 40
4.25
100
AcDbArc
 50
180
 51
0
  0
LINE
  5
83F
100
AcDbEntity
  8
0
100
AcDbLine
  6
BYLAYER
 10
1674.02440396195
 20
-720.036469714584
 11
1674.02440396195
 21
-721.082411260603
  0
ARC
  5
840
100
AcDbEntity
  8
0
100
AcDbCircle
  6
BYLAYER
 10
1669.77440396195
 20
-720.036469714584
 40
4.25
100
AcDbArc
 50
0
 51
180
  0
LINE
  5
841
100
AcDbEntity
  8
0
100
AcDbLine
  6
BYLAYER
 10
1816.02440396192
 20
-664.513868765679
 11
1816.02440396192
 21
-663.467927219661
  0
ARC
  5
842
100
AcDbEntity
  8
0
100
AcDbCircle
  6
BYLAYER
 10
1811.77440396192
 20
-664.513868765679
 40
4.25
100
AcDbArc
 50
180
 51
0
  0
LINE
  5
843
100
AcDbEntity
  8
0
100
AcDbLine
  6
BYLAYER
 10
1807.52440396192
 20
-663.467927219661
 11
1807.52440396192
 21
-664.513868765679
  0
ARC
  5
844
100
AcDbEntity
  8
0
100
AcDbCircle
  6
BYLAYER
 10
1811.77440396192
 20
-663.467927219661
 40
4.25
100
AcDbArc
 50
0
 51
180
  0
LINE
  5
845
100
AcDbEntity
  8
0
100
AcDbLine
  6
BYLAYER
 10
1816.02440396192
 20
-721.082411260603
 11
1816.02440396192
 21
-720.036469714584
  0
ARC
  5
846
100
AcDbEntity
  8
0
100
AcDbCircle
  6
BYLAYER
 10
1811.77440396192
 20
-721.082411260603
 40
4.25
100
AcDbArc
 50
180
 51
0
  0
LINE
  5
847
100
AcDbEntity
  8
0
100
AcDbLine
  6
BYLAYER
 10
1807.52440396192
 20
-720.036469714584
 11
1807.52440396192
 21
-721.082411260603
  0
ARC
  5
848
100
AcDbEntity
  8
0
100
AcDbCircle
  6
BYLAYER
 10
1811.77440396192
 20
-720.036469714584
 40
4.25
100
AcDbArc
 50
0
 51
180
  0
LINE
  5
849
100
AcDbEntity
  8
0
100
AcDbLine
  6
BYLAYER
 10
1659.77440396188
 20
-446.165392749214
 11
1659.77440396194
 21
-427.212796856329
  0
LINE
  5
84A
100
AcDbEntity
  8
0
100
AcDbLine
  6
BYLAYER
 10
1681.04892208215
 20
-536.286047912232
 11
1800.49988584172
 21
-536.286047912232
  0
LINE
  5
84B
100
AcDbEntity
  8
DIM
100
AcDbLine
  6
BYLAYER
 62
0
370
  -2
 10
1915.27440396195
 20
-547.347476270833
 11
1915.27440396195
 21
-363.977604441349
  0
LINE
  5
84C
100
AcDbEntity
  8
DIM
100
AcDbLine
  6
BYLAYER
 62
0
370
  -2
 10
1644.7723822711
 20
-534.347476270858
 11
1644.7723822711
 21
-363.977604441349
  0
LINE
  5
84D
100
AcDbEntity
  8
DIM
100
AcDbLine
  6
BYLAYER
 62
0
370
  -2
 10
1909.02440396195
 20
-366.477604441349
 11
1801.06505978319
 21
-366.477604441349
  0
LINE
  5
84E
100
AcDbEntity
  8
DIM
100
AcDbLine
  6
BYLAYER
 62
0
370
  -2
 10
1651.0223822711
 20
-366.477604441349
 11
1758.98172644986
 21
-366.477604441349
  0
SOLID
  5
84F
100
AcDbEntity
  8
DIM
100
AcDbTrace
 10
1909.02440396195
 20
-365.435937774683
 30
0.0
 11
1909.02440396195
 21
-367.519271108016
 31
0.0
 12
1915.27440396195
 22
-366.477604441349
 32
0.0
 13
1915.27440396195
 23
-366.477604441349
 33
0.0
  0
SOLID
  5
850
100
AcDbEntity
  8
DIM
100
AcDbTrace
 10
1644.7723822711
 20
-366.477604441349
 30
0.0
 11
1651.0223822711
 21
-367.519271108016
 31
0.0
 12
1651.0223822711
 22
-365.435937774683
 32
0.0
 13
1651.0223822711
 23
-365.435937774683
 33
0.0
  0
TEXT
  5
851
100
AcDbEntity
  8
DIM
 62
0
100
AcDbText
  6
BYLAYER
 62
0
 10
1769.71089311652
 20
-373.352604441349
 40
13.75
  1
271
  7
Font_0
 72
1
 11
1780.02339311652
 21
-366.477604441349
100
AcDbText
 73
2
  0
LINE
  5
852
100
AcDbEntity
  8
DIM
100
AcDbLine
  6
BYLAYER
 62
0
370
  -2
 10
1821.77440396194
 20
-424.712796856329
 11
1821.77440396194
 21
-386.809224952111
  0
LINE
  5
853
100
AcDbEntity
  8
DIM
100
AcDbLine
  6
BYLAYER
 62
0
370
  -2
 10
1659.77440396194
 20
-424.712796856329
 11
1659.77440396194
 21
-386.809224952111
  0
LINE
  5
854
100
AcDbEntity
  8
DIM
100
AcDbLine
  6
BYLAYER
 62
0
370
  -2
 10
1815.52440396194
 20
-389.309224952111
 11
1761.8160706286
 21
-389.309224952111
  0
LINE
  5
855
100
AcDbEntity
  8
DIM
100
AcDbLine
  6
BYLAYER
 62
0
370
  -2
 10
1666.02440396194
 20
-389.309224952111
 11
1719.73273729527
 21
-389.309224952111
  0
SOLID
  5
856
100
AcDbEntity
  8
DIM
100
AcDbTrace
 10
1815.52440396194
 20
-388.267558285445
 30
0.0
 11
1815.52440396194
 21
-390.350891618778
 31
0.0
 12
1821.77440396194
 22
-389.309224952111
 32
0.0
 13
1821.77440396194
 23
-389.309224952111
 33
0.0
  0
SOLID
  5
857
100
AcDbEntity
  8
DIM
100
AcDbTrace
 10
1659.77440396194
 20
-389.309224952111
 30
0.0
 11
1666.02440396194
 21
-390.350891618778
 31
0.0
 12
1666.02440396194
 22
-388.267558285445
 32
0.0
 13
1666.02440396194
 23
-388.267558285445
 33
0.0
  0
TEXT
  5
858
100
AcDbEntity
  8
DIM
 62
0
100
AcDbText
  6
BYLAYER
 62
0
 10
1730.46190396194
 20
-396.184224952111
 40
13.75
  1
162
  7
Font_0
 72
1
 11
1740.77440396194
 21
-389.309224952111
100
AcDbText
 73
2
  0
LINE
  5
859
100
AcDbEntity
  8
DIM
100
AcDbLine
  6
BYLAYER
 62
0
370
  -2
 10
1669.77440396195
 20
-453.665392749214
 11
1669.77440396195
 21
-408.845379582908
  0
LINE
  5
85A
100
AcDbEntity
  8
DIM
100
AcDbLine
  6
BYLAYER
 62
0
370
  -2
 10
1811.77440396192
 20
-453.665392749214
 11
1811.77440396192
 21
-408.845379582908
  0
LINE
  5
85B
100
AcDbEntity
  8
DIM
100
AcDbLine
  6
BYLAYER
 62
0
370
  -2
 10
1676.02440396195
 20
-411.345379582908
 11
1719.73273729527
 21
-411.345379582908
  0
LINE
  5
85C
100
AcDbEntity
  8
DIM
100
AcDbLine
  6
BYLAYER
 62
0
370
  -2
 10
1805.52440396192
 20
-411.345379582908
 11
1761.8160706286
 21
-411.345379582908
  0
SOLID
  5
85D
100
AcDbEntity
  8
DIM
100
AcDbTrace
 10
1669.77440396195
 20
-411.345379582908
 30
0.0
 11
1676.02440396195
 21
-412.387046249575
 31
0.0
 12
1676.02440396195
 22
-410.303712916242
 32
0.0
 13
1676.02440396195
 23
-410.303712916242
 33
0.0
  0
SOLID
  5
85E
100
AcDbEntity
  8
DIM
100
AcDbTrace
 10
1805.52440396192
 20
-410.303712916242
 30
0.0
 11
1805.52440396192
 21
-412.387046249575
 31
0.0
 12
1811.77440396192
 22
-411.345379582908
 32
0.0
 13
1811.77440396192
 23
-411.345379582908
 33
0.0
  0
TEXT
  5
85F
100
AcDbEntity
  8
DIM
 62
0
100
AcDbText
  6
BYLAYER
 62
0
 10
1730.46190396194
 20
-418.220379582908
 40
13.75
  1
142
  7
Font_0
 72
1
 11
1740.77440396194
 21
-411.345379582908
100
AcDbText
 73
2
  0
LINE
  5
860
100
AcDbEntity
  8
DIM
100
AcDbLine
  6
BYLAYER
 62
0
370
  -2
 10
1794.52440396192
 20
-475.56932010262
 11
1760.67023729527
 21
-475.56932010262
  0
LINE
  5
861
100
AcDbEntity
  8
DIM
100
AcDbLine
  6
BYLAYER
 62
0
370
  -2
 10
1687.02440396194
 20
-475.56932010262
 11
1720.8785706286
 21
-475.56932010262
  0
SOLID
  5
862
100
AcDbEntity
  8
DIM
100
AcDbTrace
 10
1794.52440396192
 20
-474.527653435953
 30
0.0
 11
1794.52440396192
 21
-476.610986769286
 31
0.0
 12
1800.77440396192
 22
-475.56932010262
 32
0.0
 13
1800.77440396192
 23
-475.56932010262
 33
0.0
  0
SOLID
  5
863
100
AcDbEntity
  8
DIM
100
AcDbTrace
 10
1680.77440396195
 20
-475.56932010262
 30
0.0
 11
1687.02440396194
 21
-476.610986769286
 31
0.0
 12
1687.02440396194
 22
-474.527653435953
 32
0.0
 13
1687.02440396194
 23
-474.527653435953
 33
0.0
  0
TEXT
  5
864
100
AcDbEntity
  8
DIM
 62
0
100
AcDbText
  6
BYLAYER
 62
0
 10
1730.46190396194
 20
-482.44432010262
 40
13.75
  1
120
  7
Font_0
 72
1
 11
1740.77440396194
 21
-475.56932010262
100
AcDbText
 73
2
  0
LINE
  5
865
100
AcDbEntity
  8
DIM
100
AcDbLine
  6
BYLAYER
 62
0
370
  -2
 10
1777.98661358312
 20
-543.959032182586
 11
1781.65221145626
 21
-543.959032182586
  0
LINE
  5
866
100
AcDbEntity
  8
DIM
100
AcDbLine
  6
BYLAYER
 62
0
370
  -2
 10
1777.98661358312
 20
-447.165392749218
 11
1781.65221145626
 21
-447.165392749218
  0
LINE
  5
867
100
AcDbEntity
  8
DIM
100
AcDbLine
  6
BYLAYER
 62
0
370
  -2
 10
1779.15221145626
 20
-537.709032182586
 11
1779.15221145626
 21
-509.560503429183
  0
LINE
  5
868
100
AcDbEntity
  8
DIM
100
AcDbLine
  6
BYLAYER
 62
0
370
  -2
 10
1779.15221145626
 20
-453.415392749218
 11
1779.15221145626
 21
-476.643836762517
  0
SOLID
  5
869
100
AcDbEntity
  8
DIM
100
AcDbTrace
 10
1779.15221145626
 20
-543.959032182586
 30
0.0
 11
1780.19387812293
 21
-537.709032182586
 31
0.0
 12
1778.1105447896
 22
-537.709032182586
 32
0.0
 13
1778.1105447896
 23
-537.709032182586
 33
0.0
  0
SOLID
  5
86A
100
AcDbEntity
  8
DIM
100
AcDbTrace
 10
1778.1105447896
 20
-453.415392749218
 30
0.0
 11
1780.19387812293
 21
-453.415392749218
 31
0.0
 12
1779.15221145626
 22
-447.165392749218
 32
0.0
 13
1779.15221145626
 23
-447.165392749218
 33
0.0
  0
TEXT
  5
86B
100
AcDbEntity
  8
DIM
 62
0
100
AcDbText
  6
BYLAYER
 62
0
 10
1786.02721145626
 20
-499.97717009585
 40
13.75
  1
97
  7
Font_0
 50
90
 72
1
 11
1779.15221145626
 21
-493.10217009585
100
AcDbText
 73
2
  0
LINE
  5
86C
100
AcDbEntity
  8
DIM
100
AcDbLine
  6
BYLAYER
 62
0
370
  -2
 10
1833.39504932377
 20
-469.008345859896
 11
1827.14504932377
 21
-469.008345859896
  0
LINE
  5
86D
100
AcDbEntity
  8
DIM
100
AcDbLine
  6
BYLAYER
 62
0
370
  -2
 10
1827.14504932377
 20
-469.008345859896
 11
1816.61315476761
 21
-473.057242047075
  0
TEXT
  5
86E
100
AcDbEntity
  8
DIM
 62
0
100
AcDbText
  6
BYLAYER
 62
0
 10
1842.97985894719
 20
-475.88703543657
 40
13.75
  1
φ150
  7
Font_0
 50
0.0123000000000003
 72
1
 11
1860.16588265711
 21
-469.008345859895
100
AcDbText
 73
2
  0
SOLID
  5
86F
100
AcDbEntity
  8
DIM
100
AcDbTrace
 10
1810.77940470563
 20
-475.299977032402
 30
0.0
 11
1816.98694393183
 21
-474.029533724071
 31
0.0
 12
1816.23936560339
 22
-472.08495037008
 32
0.0
 13
1816.23936560339
 23
-472.08495037008
 33
0.0
  0
LINE
  5
870
100
AcDbEntity
  8
DIM
100
AcDbLine
  6
BYLAYER
 62
0
370
  -2
 10
1740.54940396194
 20
-502.212796856329
 11
1740.99940396194
 21
-502.212796856329
  0
LINE
  5
871
100
AcDbEntity
  8
DIM
100
AcDbLine
  6
BYLAYER
 62
0
370
  -2
 10
1740.77440396194
 20
-502.437796856329
 11
1740.77440396194
 21
-501.987796856329
  0
LINE
  5
872
100
AcDbEntity
  8
DIM
100
AcDbLine
  6
BYLAYER
 62
0
370
  -2
 10
1216.42542494588
 20
-519.344362235515
 11
1216.42542494588
 21
-386.809224952111
  0
LINE
  5
873
100
AcDbEntity
  8
DIM
100
AcDbLine
  6
BYLAYER
 62
0
370
  -2
 10
1513.42542494587
 20
-438.665392749214
 11
1513.42542494587
 21
-386.809224952111
  0
LINE
  5
874
100
AcDbEntity
  8
DIM
100
AcDbLine
  6
BYLAYER
 62
0
370
  -2
 10
1222.67542494588
 20
-389.309224952111
 11
1341.59209161254
 21
-389.309224952111
  0
LINE
  5
875
100
AcDbEntity
  8
DIM
100
AcDbLine
  6
BYLAYER
 62
0
370
  -2
 10
1507.17542494587
 20
-389.309224952111
 11
1388.25875827921
 21
-389.309224952111
  0
SOLID
  5
876
100
AcDbEntity
  8
DIM
100
AcDbTrace
 10
1216.42542494588
 20
-389.309224952111
 30
0.0
 11
1222.67542494588
 21
-390.350891618778
 31
0.0
 12
1222.67542494588
 22
-388.267558285445
 32
0.0
 13
1222.67542494588
 23
-388.267558285445
 33
0.0
  0
SOLID
  5
877
100
AcDbEntity
  8
DIM
100
AcDbTrace
 10
1507.17542494587
 20
-388.267558285445
 30
0.0
 11
1507.17542494587
 21
-390.350891618778
 31
0.0
 12
1513.42542494587
 22
-389.309224952111
 32
0.0
 13
1513.42542494587
 23
-389.309224952111
 33
0.0
  0
TEXT
  5
878
100
AcDbEntity
  8
DIM
 62
0
100
AcDbText
  6
BYLAYER
 62
0
 10
1354.61292494588
 20
-396.184224952111
 40
13.75
  1
297
  7
Font_0
 72
1
 11
1364.92542494588
 21
-389.309224952111
100
AcDbText
 73
2
  0
LINE
  5
879
100
AcDbEntity
  8
DIM
100
AcDbLine
  6
BYLAYER
 62
0
370
  -2
 10
1554.42542494587
 20
-424.712796856329
 11
1554.42542494587
 21
-363.977604441349
  0
LINE
  5
87A
100
AcDbEntity
  8
DIM
100
AcDbLine
  6
BYLAYER
 62
0
370
  -2
 10
1216.42542494588
 20
-519.344362235515
 11
1216.42542494588
 21
-363.977604441349
  0
LINE
  5
87B
100
AcDbEntity
  8
DIM
100
AcDbLine
  6
BYLAYER
 62
0
370
  -2
 10
1548.17542494587
 20
-366.477604441349
 11
1388.09773105803
 21
-366.477604441349
  0
LINE
  5
87C
100
AcDbEntity
  8
DIM
100
AcDbLine
  6
BYLAYER
 62
0
370
  -2
 10
1222.67542494588
 20
-366.477604441349
 11
1341.43106439136
 21
-366.477604441349
  0
SOLID
  5
87D
100
AcDbEntity
  8
DIM
100
AcDbTrace
 10
1548.17542494587
 20
-365.435937774683
 30
0.0
 11
1548.17542494587
 21
-367.519271108016
 31
0.0
 12
1554.42542494587
 22
-366.477604441349
 32
0.0
 13
1554.42542494587
 23
-366.477604441349
 33
0.0
  0
SOLID
  5
87E
100
AcDbEntity
  8
DIM
100
AcDbTrace
 10
1216.42542494588
 20
-366.477604441349
 30
0.0
 11
1222.67542494588
 21
-367.519271108016
 31
0.0
 12
1222.67542494588
 22
-365.435937774683
 32
0.0
 13
1222.67542494588
 23
-365.435937774683
 33
0.0
  0
TEXT
  5
87F
100
AcDbEntity
  8
DIM
 62
0
100
AcDbText
  6
BYLAYER
 62
0
 10
1354.4518977247
 20
-373.352604441349
 40
13.75
  1
338
  7
Font_0
 72
1
 11
1364.7643977247
 21
-366.477604441349
100
AcDbText
 73
2
  0
LINE
  5
880
100
AcDbEntity
  8
DIM
100
AcDbLine
  6
BYLAYER
 62
0
370
  -2
 10
1308.55699032506
 20
-427.212796856329
 11
1169.87027264912
 21
-427.212796856329
  0
LINE
  5
881
100
AcDbEntity
  8
DIM
100
AcDbLine
  6
BYLAYER
 62
0
370
  -2
 10
1296.08554382132
 20
-740.212796856329
 11
1169.87027264912
 21
-740.212796856329
  0
LINE
  5
882
100
AcDbEntity
  8
DIM
100
AcDbLine
  6
BYLAYER
 62
0
370
  -2
 10
1172.37027264912
 20
-433.462796856329
 11
1172.37027264912
 21
-562.671130189662
  0
LINE
  5
883
100
AcDbEntity
  8
DIM
100
AcDbLine
  6
BYLAYER
 62
0
370
  -2
 10
1172.37027264912
 20
-733.962796856329
 11
1172.37027264912
 21
-604.754463522996
  0
SOLID
  5
884
100
AcDbEntity
  8
DIM
100
AcDbTrace
 10
1171.32860598245
 20
-433.462796856329
 30
0.0
 11
1173.41193931579
 21
-433.462796856329
 31
0.0
 12
1172.37027264912
 22
-427.212796856329
 32
0.0
 13
1172.37027264912
 23
-427.212796856329
 33
0.0
  0
SOLID
  5
885
100
AcDbEntity
  8
DIM
100
AcDbTrace
 10
1172.37027264912
 20
-740.212796856329
 30
0.0
 11
1173.41193931579
 21
-733.962796856329
 31
0.0
 12
1171.32860598245
 22
-733.962796856329
 32
0.0
 13
1171.32860598245
 23
-733.962796856329
 33
0.0
  0
TEXT
  5
886
100
AcDbEntity
  8
DIM
 62
0
100
AcDbText
  6
BYLAYER
 62
0
 10
1179.24527264912
 20
-594.025296856329
 40
13.75
  1
313
  7
Font_0
 50
90
 72
1
 11
1172.37027264912
 21
-583.712796856329
100
AcDbText
 73
2
  0
LINE
  5
887
100
AcDbEntity
  8
DIM
100
AcDbLine
  6
BYLAYER
 62
0
370
  -2
 10
1513.42542494587
 20
-438.665392749214
 11
1513.42542494587
 21
-408.845379582908
  0
LINE
  5
888
100
AcDbEntity
  8
DIM
100
AcDbLine
  6
BYLAYER
 62
0
370
  -2
 10
1373.21083431455
 20
-476.145405783751
 11
1373.21083431455
 21
-408.845379582908
  0
LINE
  5
889
100
AcDbEntity
  8
DIM
100
AcDbLine
  6
BYLAYER
 62
0
370
  -2
 10
1507.17542494587
 20
-411.345379582908
 11
1463.21396296354
 21
-411.345379582908
  0
LINE
  5
88A
100
AcDbEntity
  8
DIM
100
AcDbLine
  6
BYLAYER
 62
0
370
  -2
 10
1379.46083431455
 20
-411.345379582908
 11
1423.42229629688
 21
-411.345379582908
  0
SOLID
  5
88B
100
AcDbEntity
  8
DIM
100
AcDbTrace
 10
1507.17542494587
 20
-410.303712916242
 30
0.0
 11
1507.17542494587
 21
-412.387046249575
 31
0.0
 12
1513.42542494587
 22
-411.345379582908
 32
0.0
 13
1513.42542494587
 23
-411.345379582908
 33
0.0
  0
SOLID
  5
88C
100
AcDbEntity
  8
DIM
100
AcDbTrace
 10
1373.21083431455
 20
-411.345379582908
 30
0.0
 11
1379.46083431455
 21
-412.387046249575
 31
0.0
 12
1379.46083431455
 22
-410.303712916242
 32
0.0
 13
1379.46083431455
 23
-410.303712916242
 33
0.0
  0
TEXT
  5
88D
100
AcDbEntity
  8
DIM
 62
0
100
AcDbText
  6
BYLAYER
 62
0
 10
1433.00562963021
 20
-418.220379582908
 40
13.75
  1
140
  7
Font_0
 72
1
 11
1443.31812963021
 21
-411.345379582908
100
AcDbText
 73
2
  0
LINE
  5
88E
100
AcDbEntity
  8
DIM
100
AcDbLine
  6
BYLAYER
 62
0
370
  -2
 10
1373.21083431455
 20
-476.145405783751
 11
1373.21083431455
 21
-408.845379582908
  0
LINE
  5
88F
100
AcDbEntity
  8
DIM
100
AcDbLine
  6
BYLAYER
 62
0
370
  -2
 10
1216.42542494588
 20
-519.344362235515
 11
1216.42542494588
 21
-408.845379582908
  0
LINE
  5
890
100
AcDbEntity
  8
DIM
100
AcDbLine
  6
BYLAYER
 62
0
370
  -2
 10
1366.96083431455
 20
-411.345379582908
 11
1315.85979629688
 21
-411.345379582908
  0
LINE
  5
891
100
AcDbEntity
  8
DIM
100
AcDbLine
  6
BYLAYER
 62
0
370
  -2
 10
1222.67542494588
 20
-411.345379582908
 11
1273.77646296354
 21
-411.345379582908
  0
SOLID
  5
892
100
AcDbEntity
  8
DIM
100
AcDbTrace
 10
1366.96083431455
 20
-410.303712916242
 30
0.0
 11
1366.96083431455
 21
-412.387046249575
 31
0.0
 12
1373.21083431455
 22
-411.345379582908
 32
0.0
 13
1373.21083431455
 23
-411.345379582908
 33
0.0
  0
SOLID
  5
893
100
AcDbEntity
  8
DIM
100
AcDbTrace
 10
1216.42542494588
 20
-411.345379582908
 30
0.0
 11
1222.67542494588
 21
-412.387046249575
 31
0.0
 12
1222.67542494588
 22
-410.303712916242
 32
0.0
 13
1222.67542494588
 23
-410.303712916242
 33
0.0
  0
TEXT
  5
894
100
AcDbEntity
  8
DIM
 62
0
100
AcDbText
  6
BYLAYER
 62
0
 10
1284.50562963021
 20
-418.220379582908
 40
13.75
  1
157
  7
Font_0
 72
1
 11
1294.81812963021
 21
-411.345379582908
100
AcDbText
 73
2
  0
LINE
  5
895
100
AcDbEntity
  8
DIM
100
AcDbLine
  6
BYLAYER
 62
0
370
  -2
 10
1244.71083431455
 20
-604.645405783751
 11
1194.1573286538
 21
-604.645405783751
  0
LINE
  5
896
100
AcDbEntity
  8
DIM
100
AcDbLine
  6
BYLAYER
 62
0
370
  -2
 10
1308.55699032506
 20
-427.212796856329
 11
1194.1573286538
 21
-427.212796856329
  0
LINE
  5
897
100
AcDbEntity
  8
DIM
100
AcDbLine
  6
BYLAYER
 62
0
370
  -2
 10
1196.6573286538
 20
-598.395405783751
 11
1196.6573286538
 21
-536.970767986707
  0
LINE
  5
898
100
AcDbEntity
  8
DIM
100
AcDbLine
  6
BYLAYER
 62
0
370
  -2
 10
1196.6573286538
 20
-433.462796856329
 11
1196.6573286538
 21
-494.887434653374
  0
SOLID
  5
899
100
AcDbEntity
  8
DIM
100
AcDbTrace
 10
1196.6573286538
 20
-604.645405783751
 30
0.0
 11
1197.69899532047
 21
-598.395405783751
 31
0.0
 12
1195.61566198714
 22
-598.395405783751
 32
0.0
 13
1195.61566198714
 23
-598.395405783751
 33
0.0
  0
SOLID
  5
89A
100
AcDbEntity
  8
DIM
100
AcDbTrace
 10
1195.61566198714
 20
-433.462796856329
 30
0.0
 11
1197.69899532047
 21
-433.462796856329
 31
0.0
 12
1196.6573286538
 22
-427.212796856329
 32
0.0
 13
1196.6573286538
 23
-427.212796856329
 33
0.0
  0
TEXT
  5
89B
100
AcDbEntity
  8
DIM
 62
0
100
AcDbText
  6
BYLAYER
 62
0
 10
1203.5323286538
 20
-526.24160132004
 40
13.75
  1
177
  7
Font_0
 50
90
 72
1
 11
1196.6573286538
 21
-515.92910132004
100
AcDbText
 73
2
  0
LINE
  5
89C
100
AcDbEntity
  8
DIM
100
AcDbLine
  6
BYLAYER
 62
0
370
  -2
 10
1244.71083431455
 20
-604.645405783751
 11
1194.1573286538
 21
-604.645405783751
  0
LINE
  5
89D
100
AcDbEntity
  8
DIM
100
AcDbLine
  6
BYLAYER
 62
0
370
  -2
 10
1296.08554382132
 20
-740.212796856329
 11
1194.1573286538
 21
-740.212796856329
  0
LINE
  5
89E
100
AcDbEntity
  8
DIM
100
AcDbLine
  6
BYLAYER
 62
0
370
  -2
 10
1196.6573286538
 20
-610.895405783751
 11
1196.6573286538
 21
-651.387434653374
  0
LINE
  5
89F
100
AcDbEntity
  8
DIM
100
AcDbLine
  6
BYLAYER
 62
0
370
  -2
 10
1196.6573286538
 20
-733.962796856329
 11
1196.6573286538
 21
-693.470767986707
  0
SOLID
  5
8A0
100
AcDbEntity
  8
DIM
100
AcDbTrace
 10
1195.61566198714
 20
-610.895405783751
 30
0.0
 11
1197.69899532047
 21
-610.895405783751
 31
0.0
 12
1196.6573286538
 22
-604.645405783751
 32
0.0
 13
1196.6573286538
 23
-604.645405783751
 33
0.0
  0
SOLID
  5
8A1
100
AcDbEntity
  8
DIM
100
AcDbTrace
 10
1196.6573286538
 20
-740.212796856329
 30
0.0
 11
1197.69899532047
 21
-733.962796856329
 31
0.0
 12
1195.61566198714
 22
-733.962796856329
 32
0.0
 13
1195.61566198714
 23
-733.962796856329
 33
0.0
  0
TEXT
  5
8A2
100
AcDbEntity
  8
DIM
 62
0
100
AcDbText
  6
BYLAYER
 62
0
 10
1203.5323286538
 20
-682.74160132004
 40
13.75
  1
136
  7
Font_0
 50
90
 72
1
 11
1196.6573286538
 21
-672.42910132004
100
AcDbText
 73
2
  0
LINE
  5
8A3
100
AcDbEntity
  8
DIM
100
AcDbLine
  6
BYLAYER
 62
0
370
  -2
 10
1513.42542494587
 20
-438.665392749214
 11
1513.42542494587
 21
-408.845379582908
  0
LINE
  5
8A4
100
AcDbEntity
  8
DIM
100
AcDbLine
  6
BYLAYER
 62
0
370
  -2
 10
1554.42542494587
 20
-424.712796856329
 11
1554.42542494587
 21
-408.845379582908
  0
LINE
  5
8A5
100
AcDbEntity
  8
DIM
100
AcDbLine
  6
BYLAYER
 62
0
370
  -2
 10
1507.17542494587
 20
-411.345379582908
 11
1500.92542494587
 21
-411.345379582908
  0
LINE
  5
8A6
100
AcDbEntity
  8
DIM
100
AcDbLine
  6
BYLAYER
 62
0
370
  -2
 10
1560.67542494587
 20
-411.345379582908
 11
1566.92542494587
 21
-411.345379582908
  0
SOLID
  5
8A7
100
AcDbEntity
  8
DIM
100
AcDbTrace
 10
1507.17542494587
 20
-410.303712916242
 30
0.0
 11
1507.17542494587
 21
-412.387046249575
 31
0.0
 12
1513.42542494587
 22
-411.345379582908
 32
0.0
 13
1513.42542494587
 23
-411.345379582908
 33
0.0
  0
SOLID
  5
8A8
100
AcDbEntity
  8
DIM
100
AcDbTrace
 10
1554.42542494587
 20
-411.345379582908
 30
0.0
 11
1560.67542494587
 21
-412.387046249575
 31
0.0
 12
1560.67542494587
 22
-410.303712916242
 32
0.0
 13
1560.67542494587
 23
-410.303712916242
 33
0.0
  0
TEXT
  5
8A9
100
AcDbEntity
  8
DIM
 62
0
100
AcDbText
  6
BYLAYER
 62
0
 10
1527.05042494587
 20
-418.220379582908
 40
13.75
  1
41
  7
Font_0
 72
1
 11
1533.92542494587
 21
-411.345379582908
100
AcDbText
 73
2
  0
LINE
  5
8AA
100
AcDbEntity
  8
DIM
100
AcDbLine
  6
BYLAYER
 62
0
370
  -2
 10
1428.929849707
 20
-476.905172723209
 11
1422.679849707
 21
-476.905172723209
  0
LINE
  5
8AB
100
AcDbEntity
  8
DIM
100
AcDbLine
  6
BYLAYER
 62
0
370
  -2
 10
1422.679849707
 20
-476.905172723209
 11
1402.55253195619
 21
-528.878478437406
  0
TEXT
  5
8AC
100
AcDbEntity
  8
DIM
 62
0
100
AcDbText
  6
BYLAYER
 62
0
 10
1438.51465933042
 20
-483.783862299883
 40
13.75
  1
φ150
  7
Font_0
 50
0.0123000000000003
 72
1
 11
1455.70068304034
 21
-476.905172723209
100
AcDbText
 73
2
  0
SOLID
  5
8AD
100
AcDbEntity
  8
DIM
100
AcDbTrace
 10
1400.29547829145
 20
-534.706703617895
 30
0.0
 11
1403.5239028196
 21
-529.254654048197
 31
0.0
 12
1401.58116109277
 22
-528.502302826616
 32
0.0
 13
1401.58116109277
 23
-528.502302826616
 33
0.0
  0
LINE
  5
8AE
100
AcDbEntity
  8
DIM
100
AcDbLine
  6
BYLAYER
 62
0
370
  -2
 10
1372.98583431454
 20
-604.645405783751
 11
1373.43583431454
 21
-604.645405783751
  0
LINE
  5
8AF
100
AcDbEntity
  8
DIM
100
AcDbLine
  6
BYLAYER
 62
0
370
  -2
 10
1373.21083431455
 20
-604.870405783752
 11
1373.21083431455
 21
-604.420405783751
  0
LINE
  5
8B0
100
AcDbEntity
  8
0
100
AcDbLine
  6
BYLAYER
 10
1508.19875570499
 20
-543.029548799458
 11
1498.23679233498
 21
-540.838821565305
  0
LINE
  5
8B1
100
AcDbEntity
  8
BASE
100
AcDbLine
  6
BYLAYER
 10
1498.23679233498
 20
-540.838821565305
 11
1498.00912852437
 21
-541.874084425327
  0
LINE
  5
8B2
100
AcDbEntity
  8
BASE
100
AcDbLine
  6
BYLAYER
 10
1508.19875570499
 20
-543.029548799458
 11
1507.97109189438
 21
-544.06481165948
  0
LINE
  5
8B3
100
AcDbEntity
  8
BASE
100
AcDbLine
  6
BYLAYER
 10
1498.00912852437
 20
-541.874084425326
 11
1507.97109189438
 21
-544.064811659479
  0
LINE
  5
8B4
100
AcDbEntity
  8
0
100
AcDbLine
  6
BYLAYER
 10
1692.52440396198
 20
-529.318388740825
 11
1692.52440396198
 21
-536.286047912232
  0
LINE
  5
8B5
100
AcDbEntity
  8
0
100
AcDbLine
  6
BYLAYER
 10
1775.52440396198
 20
-508.068388740825
 11
1775.52440396198
 21
-536.286047912232
  0
LINE
  5
8B6
100
AcDbEntity
  8
0
100
AcDbLine
  6
BYLAYER
 10
1774.52440396198
 20
-508.068388740825
 11
1774.52440396198
 21
-536.286047912232
  0
LINE
  5
8B7
100
AcDbEntity
  8
0
100
AcDbLine
  6
BYLAYER
 10
1731.52440396198
 20
-508.068388740825
 11
1731.52440396198
 21
-536.286047912232
  0
LINE
  5
8B8
100
AcDbEntity
  8
0
100
AcDbLine
  6
BYLAYER
 10
1730.52440396198
 20
-508.068388740825
 11
1730.52440396198
 21
-536.286047912232
  0
ARC
  5
8B9
100
AcDbEntity
  8
0
100
AcDbCircle
  6
BYLAYER
 10
1694.008140462
 20
-487.318388740825
 40
42
100
AcDbArc
 50
270
 51
330.393031150651
  0
LINE
  5
8BA
100
AcDbEntity
  8
0
100
AcDbLine
  6
BYLAYER
 10
1694.008140462
 20
-529.318388740825
 11
1692.52440396198
 21
-529.318388740825
  0
LINE
  5
8BB
100
AcDbEntity
  8
0
100
AcDbLine
  6
BYLAYER
 10
1730.52440396198
 20
-508.068388740825
 11
1731.52440396198
 21
-508.068388740825
  0
LINE
  5
8BC
100
AcDbEntity
  8
0
100
AcDbLine
  6
BYLAYER
 10
1774.52440396198
 20
-508.068388740825
 11
1775.52440396198
 21
-508.068388740825
  0
ARC
  5
8BD
100
AcDbEntity
  8
0
100
AcDbCircle
  6
BYLAYER
 10
1763.80913324957
 20
-641.134019783444
 40
118.421616884706
100
AcDbArc
 50
84.8085437055735
 51
105.82054763431
  0
ARC
  5
8BE
100
AcDbEntity
  8
0
100
AcDbCircle
  6
BYLAYER
 10
1763.83424558191
 20
-643.738695384155
 40
134.980609657225
100
AcDbArc
 50
85.4575470547505
 51
103.849156119797
  0
CIRCLE
  5
8BF
100
AcDbEntity
  8
0
100
AcDbCircle
  6
BYLAYER
 10
1373.21083431455
 20
-604.645405783751
 40
7
  0
CIRCLE
  5
8C0
100
AcDbEntity
  8
0
100
AcDbCircle
  6
BYLAYER
 10
1373.21083431455
 20
-604.645405783751
 40
18
  0
INSERT
  5
8C1
100
AcDbEntity
  8
0
100
AcDbBlockReference
  6
BYLAYER
  2
A$C393A4D0F
 10
1299.21400453075
 20
-678.467865538931
 30
0.0
  0
LINE
  5
8C2
100
AcDbEntity
  8
DIM
100
AcDbLine
  6
BYLAYER
 62
0
370
  -2
 10
1556.92542494587
 20
-427.212796856329
 11
1577.59688673495
 21
-427.212796856329
  0
LINE
  5
8C3
100
AcDbEntity
  8
DIM
100
AcDbLine
  6
BYLAYER
 62
0
370
  -2
 10
1556.92542494587
 20
-577.212796856329
 11
1577.59688673495
 21
-577.212796856329
  0
LINE
  5
8C4
100
AcDbEntity
  8
DIM
100
AcDbLine
  6
BYLAYER
 62
0
370
  -2
 10
1575.09688673495
 20
-433.462796856329
 11
1575.09688673495
 21
-475.441963522996
  0
LINE
  5
8C5
100
AcDbEntity
  8
DIM
100
AcDbLine
  6
BYLAYER
 62
0
370
  -2
 10
1575.09688673495
 20
-570.962796856329
 11
1575.09688673495
 21
-528.983630189662
  0
SOLID
  5
8C6
100
AcDbEntity
  8
DIM
100
AcDbTrace
 10
1574.05522006828
 20
-433.462796856329
 30
0.0
 11
1576.13855340161
 21
-433.462796856329
 31
0.0
 12
1575.09688673495
 22
-427.212796856329
 32
0.0
 13
1575.09688673495
 23
-427.212796856329
 33
0.0
  0
SOLID
  5
8C7
100
AcDbEntity
  8
DIM
100
AcDbTrace
 10
1575.09688673495
 20
-577.212796856329
 30
0.0
 11
1576.13855340161
 21
-570.962796856329
 31
0.0
 12
1574.05522006828
 22
-570.962796856329
 32
0.0
 13
1574.05522006828
 23
-570.962796856329
 33
0.0
  0
TEXT
  5
8C8
100
AcDbEntity
  8
DIM
 62
0
100
AcDbText
  6
BYLAYER
 62
0
 10
1581.97188673495
 20
-519.400296856329
 40
13.75
  1
Φ150
  7
Font_0
 50
90
 72
1
 11
1575.09688673495
 21
-502.212796856329
100
AcDbText
 73
2
  0
LINE
  5
8C9
100
AcDbEntity
  8
DIM
100
AcDbLine
  6
BYLAYER
 62
0
370
  -2
 10
1807.52440396192
 20
-615.665392749214
 11
1807.52440396192
 21
-586.979408424882
  0
LINE
  5
8CA
100
AcDbEntity
  8
DIM
100
AcDbLine
  6
BYLAYER
 62
0
370
  -2
 10
1816.02440396192
 20
-615.665392749214
 11
1816.02440396192
 21
-586.979408424882
  0
LINE
  5
8CB
100
AcDbEntity
  8
DIM
100
AcDbLine
  6
BYLAYER
 62
0
370
  -2
 10
1802.52440396192
 20
-589.479408424882
 11
1797.52440396192
 21
-589.479408424882
  0
LINE
  5
8CC
100
AcDbEntity
  8
DIM
100
AcDbLine
  6
BYLAYER
 62
0
370
  -2
 10
1821.02440396192
 20
-589.479408424882
 11
1826.02440396192
 21
-589.479408424882
  0
SOLID
  5
8CD
100
AcDbEntity
  8
DIM
100
AcDbTrace
 10
1802.52440396192
 20
-588.646075091549
 30
0.0
 11
1802.52440396192
 21
-590.312741758216
 31
0.0
 12
1807.52440396192
 22
-589.479408424882
 32
0.0
 13
1807.52440396192
 23
-589.479408424882
 33
0.0
  0
SOLID
  5
8CE
100
AcDbEntity
  8
DIM
100
AcDbTrace
 10
1816.02440396192
 20
-589.479408424882
 30
0.0
 11
1821.02440396192
 21
-590.312741758216
 31
0.0
 12
1821.02440396192
 22
-588.646075091549
 32
0.0
 13
1821.02440396192
 23
-588.646075091549
 33
0.0
  0
TEXT
  5
8CF
100
AcDbEntity
  8
DIM
 62
0
100
AcDbText
  6
BYLAYER
 62
0
 10
1831.33690396192
 20
-595.104408424882
 40
11.25
  1
8.5
  7
Font_0
 72
1
 11
1839.77440396192
 21
-589.479408424882
100
AcDbText
 73
2
  0
LINE
  5
8D0
100
AcDbEntity
  8
DIM
100
AcDbLine
  6
BYLAYER
 62
0
370
  -2
 10
1814.27440396192
 20
-613.915392749214
 11
1838.7727439554
 21
-613.915392749214
  0
LINE
  5
8D1
100
AcDbEntity
  8
DIM
100
AcDbLine
  6
BYLAYER
 62
0
370
  -2
 10
1814.27440396192
 20
-627.415392749214
 11
1838.7727439554
 21
-627.415392749214
  0
LINE
  5
8D2
100
AcDbEntity
  8
DIM
100
AcDbLine
  6
BYLAYER
 62
0
370
  -2
 10
1836.2727439554
 20
-608.915392749214
 11
1836.2727439554
 21
-603.915392749214
  0
LINE
  5
8D3
100
AcDbEntity
  8
DIM
100
AcDbLine
  6
BYLAYER
 62
0
370
  -2
 10
1836.2727439554
 20
-632.415392749214
 11
1836.2727439554
 21
-637.415392749214
  0
SOLID
  5
8D4
100
AcDbEntity
  8
DIM
100
AcDbTrace
 10
1836.2727439554
 20
-613.915392749214
 30
0.0
 11
1837.10607728874
 21
-608.915392749214
 31
0.0
 12
1835.43941062207
 22
-608.915392749214
 32
0.0
 13
1835.43941062207
 23
-608.915392749214
 33
0.0
  0
SOLID
  5
8D5
100
AcDbEntity
  8
DIM
100
AcDbTrace
 10
1835.43941062207
 20
-632.415392749214
 30
0.0
 11
1837.10607728874
 21
-632.415392749214
 31
0.0
 12
1836.2727439554
 22
-627.415392749214
 32
0.0
 13
1836.2727439554
 23
-627.415392749214
 33
0.0
  0
TEXT
  5
8D6
100
AcDbEntity
  8
DIM
 62
0
100
AcDbText
  6
BYLAYER
 62
0
 10
1841.8977439554
 20
-666.165392749214
 40
11.25
  1
13.5
  7
Font_0
 50
90
 72
1
 11
1836.2727439554
 21
-654.915392749214
100
AcDbText
 73
2
  0
ENDSEC
  0
SECTION
  2
OBJECTS
  0
DICTIONARY
  5
8D7
100
AcDbDictionary
  3
ACAD_GROUP
350
8D8
  3
ACAD_MLINESTYLE
350
8D9
  0
DICTIONARY
  5
8D8
102
{ACAD_REACTORS
330
8D7
102
}
100
AcDbDictionary
  0
DICTIONARY
  5
8D9
102
{ACAD_REACTORS
330
8D7
102
}
100
AcDbDictionary
  3
STANDARD
350
8DA
  0
MLINESTYLE
  5
8DA
102
{ACAD_REACTORS
330
8D9
102
}
100
AcDbMlineStyle
  2
Standard
 70
     0
  3

 62
     0
 51
90.0
 52
90.0
 71
     2
 49
0.5
 62
   256
  6
ByLayer
 49
-0.5
 62
   256
  6
ByLayer
  0
ENDSEC
  0
EOF
